  0
SECTION
  2
HEADER
  9
$ACADVER
  1
AC1009
  9
$INSBASE
 10
0.0
 20
0.0
 30
0.0
  9
$EXTMIN
 10
1157.26485483585
 20
2824.3674863382371
 30
0.0
  9
$EXTMAX
 10
1786.3729633169539
 20
3560.0234606763338
 30
0.0
  9
$LIMMIN
 10
0.0
 20
0.0
  9
$LIMMAX
 10
12.0
 20
9.0
  9
$ORTHOMODE
 70
     0
  9
$REGENMODE
 70
     1
  9
$FILLMODE
 70
     1
  9
$QTEXTMODE
 70
     0
  9
$MIRRTEXT
 70
     0
  9
$DRAGMODE
 70
     2
  9
$LTSCALE
 40
1.0
  9
$OSMODE
 70
     0
  9
$ATTMODE
 70
     1
  9
$TEXTSIZE
 40
0.2
  9
$TRACEWID
 40
0.05
  9
$TEXTSTYLE
  7
STANDARD
  9
$CLAYER
  8
_HATCH
  9
$CELTYPE
  6
BYLAYER
  9
$CECOLOR
 62
   256
  9
$DIMSCALE
 40
1.0
  9
$DIMASZ
 40
0.18
  9
$DIMEXO
 40
0.0625
  9
$DIMDLI
 40
0.38
  9
$DIMRND
 40
0.0
  9
$DIMDLE
 40
0.0
  9
$DIMEXE
 40
0.18
  9
$DIMTP
 40
0.0
  9
$DIMTM
 40
0.0
  9
$DIMTXT
 40
0.18
  9
$DIMCEN
 40
0.09
  9
$DIMTSZ
 40
0.0
  9
$DIMTOL
 70
     0
  9
$DIMLIM
 70
     0
  9
$DIMTIH
 70
     1
  9
$DIMTOH
 70
     1
  9
$DIMSE1
 70
     0
  9
$DIMSE2
 70
     0
  9
$DIMTAD
 70
     0
  9
$DIMZIN
 70
     0
  9
$DIMBLK
  1

  9
$DIMASO
 70
     1
  9
$DIMSHO
 70
     1
  9
$DIMPOST
  1

  9
$DIMAPOST
  1

  9
$DIMALT
 70
     0
  9
$DIMALTD
 70
     2
  9
$DIMALTF
 40
25.399999999999999
  9
$DIMLFAC
 40
1.0
  9
$DIMTOFL
 70
     0
  9
$DIMTVP
 40
0.0
  9
$DIMTIX
 70
     0
  9
$DIMSOXD
 70
     0
  9
$DIMSAH
 70
     0
  9
$DIMBLK1
  1

  9
$DIMBLK2
  1

  9
$DIMSTYLE
  2
STANDARD
  9
$DIMCLRD
 70
     0
  9
$DIMCLRE
 70
     0
  9
$DIMCLRT
 70
     0
  9
$DIMTFAC
 40
1.0
  9
$DIMGAP
 40
0.09
  9
$LUNITS
 70
     2
  9
$LUPREC
 70
     4
  9
$SKETCHINC
 40
0.1
  9
$FILLETRAD
 40
0.0
  9
$AUNITS
 70
     0
  9
$AUPREC
 70
     0
  9
$MENU
  1
.
  9
$ELEVATION
 40
0.0
  9
$PELEVATION
 40
0.0
  9
$THICKNESS
 40
0.0
  9
$LIMCHECK
 70
     0
  9
$BLIPMODE
 70
     0
  9
$CHAMFERA
 40
0.0
  9
$CHAMFERB
 40
0.0
  9
$SKPOLY
 70
     0
  9
$TDCREATE
 40
2458243.0067013889
  9
$TDUPDATE
 40
2458243.0345041789
  9
$TDINDWG
 40
0.0001026505
  9
$TDUSRTIMER
 40
0.0001026505
  9
$USRTIMER
 70
     1
  9
$ANGBASE
 50
0.0
  9
$ANGDIR
 70
     0
  9
$PDMODE
 70
     0
  9
$PDSIZE
 40
0.0
  9
$PLINEWID
 40
0.0
  9
$COORDS
 70
     2
  9
$SPLFRAME
 70
     0
  9
$SPLINETYPE
 70
     6
  9
$SPLINESEGS
 70
     8
  9
$ATTDIA
 70
     1
  9
$ATTREQ
 70
     0
  9
$HANDLING
 70
     1
  9
$HANDSEED
  5
5EA
  9
$SURFTAB1
 70
     6
  9
$SURFTAB2
 70
     6
  9
$SURFTYPE
 70
     6
  9
$SURFU
 70
     6
  9
$SURFV
 70
     6
  9
$UCSNAME
  2

  9
$UCSORG
 10
0.0
 20
0.0
 30
0.0
  9
$UCSXDIR
 10
1.0
 20
0.0
 30
0.0
  9
$UCSYDIR
 10
0.0
 20
1.0
 30
0.0
  9
$PUCSNAME
  2

  9
$PUCSORG
 10
0.0
 20
0.0
 30
0.0
  9
$PUCSXDIR
 10
1.0
 20
0.0
 30
0.0
  9
$PUCSYDIR
 10
0.0
 20
1.0
 30
0.0
  9
$USERI1
 70
     0
  9
$USERI2
 70
     0
  9
$USERI3
 70
     0
  9
$USERI4
 70
     0
  9
$USERI5
 70
     0
  9
$USERR1
 40
0.0
  9
$USERR2
 40
0.0
  9
$USERR3
 40
0.0
  9
$USERR4
 40
0.0
  9
$USERR5
 40
0.0
  9
$WORLDVIEW
 70
     1
  9
$SHADEDGE
 70
     3
  9
$SHADEDIF
 70
    70
  9
$TILEMODE
 70
     1
  9
$MAXACTVP
 70
    64
  9
$PLIMCHECK
 70
     0
  9
$PEXTMIN
 10
25.699999999999989
 20
19.5
 30
0.0
  9
$PEXTMAX
 10
231.30000000000001
 20
175.5
 30
0.0
  9
$PLIMMIN
 10
-20.0
 20
-7.5
  9
$PLIMMAX
 10
277.0
 20
202.5
  9
$UNITMODE
 70
     0
  9
$VISRETAIN
 70
     1
  9
$PLINEGEN
 70
     0
  9
$PSLTSCALE
 70
     1
  0
ENDSEC
  0
SECTION
  2
TABLES
  0
TABLE
  2
VPORT
 70
     1
  0
VPORT
  2
*ACTIVE
 70
     0
 10
0.0
 20
0.0
 11
1.0
 21
1.0
 12
2193.895382538959
 22
3191.8691888324329
 13
0.0
 23
0.0
 14
1.0
 24
1.0
 15
0.0
 25
0.0
 16
0.0
 26
0.0
 36
1.0
 17
0.0
 27
0.0
 37
0.0
 40
736.30854368780183
 41
2.815750371471025
 42
50.0
 43
0.0
 44
0.0
 50
0.0
 51
0.0
 71
     0
 72
  1000
 73
     1
 74
     3
 75
     0
 76
     0
 77
     0
 78
     0
  0
ENDTAB
  0
TABLE
  2
LTYPE
 70
     2
  0
LTYPE
  2
CONTINUOUS
 70
     0
  3
Solid line
 72
    65
 73
     0
 40
0.0
  0
LTYPE
  2
DASH
 70
     0
  3

 72
    65
 73
     2
 40
6.3499999999999996
 49
3.1749999999999998
 49
-3.1749999999999998
  0
ENDTAB
  0
TABLE
  2
LAYER
 70
    12
  0
LAYER
  2
0
 70
     0
 62
     7
  6
CONTINUOUS
  0
LAYER
  2
_LINES
 70
     0
 62
     3
  6
CONTINUOUS
  0
LAYER
  2
_ANNOTATE
 70
     0
 62
   241
  6
CONTINUOUS
  0
LAYER
  2
_HATCH
 70
     0
 62
   253
  6
CONTINUOUS
  0
ENDTAB
  0
TABLE
  2
STYLE
 70
     8
  0
STYLE
  2
STANDARD
 70
     0
 40
0.0
 41
1.0
 50
0.0
 71
     0
 42
0.2
  3
txt
  4

  0
STYLE
  2
ARIAL
 70
     0
 40
12.5
 41
1.0
 50
0.0
 71
     0
 42
0.2
  3
txt
  4

  0
STYLE
  2
ARIAL_1
 70
     0
 40
17.5
 41
1.0
 50
0.0
 71
     0
 42
0.2
  3
txt
  4

  0
ENDTAB
  0
TABLE
  2
VIEW
 70
     1
  0
ENDTAB
  0
TABLE
  2
UCS
 70
     0
  0
ENDTAB
  0
TABLE
  2
APPID
 70
     6
  0
APPID
  2
ACAD
 70
     0
  0
APPID
  2
ACADANNOTATIVE
 70
     0
  0
APPID
  2
REVIT
 70
     0
  0
APPID
  2
ACAD_PSEXT
 70
     0
  0
APPID
  2
ACAD_NAV_VCDISPLAY
 70
     0
  0
APPID
  2
ACAD_MLEADERVER
 70
     0
  0
ENDTAB
  0
TABLE
  2
DIMSTYLE
 70
     2
  0
DIMSTYLE
  2
STANDARD
 70
     0
  3

  4

  5

  6

  7

 40
1.0
 41
0.18
 42
0.0625
 43
0.38
 44
0.18
 45
0.0
 46
0.0
 47
0.0
 48
0.0
140
0.18
141
0.09
142
0.0
143
25.399999999999999
144
1.0
145
0.0
146
1.0
147
0.09
 71
     0
 72
     0
 73
     1
 74
     1
 75
     0
 76
     0
 77
     0
 78
     0
170
     0
171
     2
172
     0
173
     0
174
     0
175
     0
176
     0
177
     0
178
     0
  0
ENDTAB
  0
ENDSEC
  0
SECTION
  2
BLOCKS
  0
BLOCK
  8
0
  2
$MODEL_SPACE
 70
     0
 10
0.0
 20
0.0
 30
0.0
  3
$MODEL_SPACE
  1

  0
ENDBLK
  5
72
  8
0
  0
BLOCK
 67
     1
  8
0
  2
$PAPER_SPACE
 70
     0
 10
0.0
 20
0.0
 30
0.0
  3
$PAPER_SPACE
  1

  0
ENDBLK
  5
76
 67
     1
  8
0
  0
BLOCK
  8
0
  2
*U20
 70
     1
 10
0.0
 20
0.0
 30
0.0
  3
*U20
  1

  0
TEXT
  5
3B2
  8
_ANNOTATE
 10
1517.320827910457
 20
3261.3664772489892
 30
0.0
 40
12.5
  1
Custom folded Interlocking panel
  7
ARIAL
  0
ENDBLK
  5
3B4
  8
0
  0
BLOCK
  8
0
  2
*U21
 70
     1
 10
0.0
 20
0.0
 30
0.0
  3
*U21
  1

  0
TEXT
  5
3B6
  8
_ANNOTATE
 10
1518.113801989583
 20
3303.7850036710611
 30
0.0
 40
12.5
  1
Vertical support cavity battens
  7
ARIAL
  0
ENDBLK
  5
3B8
  8
0
  0
BLOCK
  8
0
  2
*U22
 70
     1
 10
0.0
 20
0.0
 30
0.0
  3
*U22
  1

  0
TEXT
  5
3BA
  8
_ANNOTATE
 10
1517.4231471464741
 20
3161.759285745653
 30
0.0
 40
12.5
  1
'Cavibat' or similar between
  7
ARIAL
  0
TEXT
  5
3BB
  8
_ANNOTATE
 10
1517.039450011413
 20
3142.1389126695572
 30
0.0
 40
12.5
  1
horizontal battens @ 600mm crs
  7
ARIAL
  0
TEXT
  5
3BC
  8
_ANNOTATE
 10
1517.039450011413
 20
3122.5185395934618
 30
0.0
 40
12.5
  1
max.
  7
ARIAL
  0
ENDBLK
  5
3BE
  8
0
  0
BLOCK
  8
0
  2
*U23
 70
     1
 10
0.0
 20
0.0
 30
0.0
  3
*U23
  1

  0
TEXT
  5
3C0
  8
_ANNOTATE
 10
1517.9773763415631
 20
3038.940093337746
 30
0.0
 40
12.5
  1
Wall framing
  7
ARIAL
  0
ENDBLK
  5
3C2
  8
0
  0
BLOCK
  8
0
  2
*U24
 70
     1
 10
0.0
 20
0.0
 30
0.0
  3
*U24
  1

  0
TEXT
  5
3C4
  8
_ANNOTATE
 10
1516.5619602433369
 20
2949.2942051037721
 30
0.0
 40
12.5
  1
Internal lining
  7
ARIAL
  0
ENDBLK
  5
3C6
  8
0
  0
BLOCK
  8
0
  2
*U25
 70
     1
 10
0.0
 20
0.0
 30
0.0
  3
*U25
  1

  0
TEXT
  5
3C8
  8
_ANNOTATE
 10
1516.911550966392
 20
3085.5867699140958
 30
0.0
 40
12.5
  1
Building wrap
  7
ARIAL
  0
ENDBLK
  5
3CA
  8
0
  0
BLOCK
  8
0
  2
*U26
 70
     1
 10
0.0
 20
0.0
 30
0.0
  3
*U26
  1

  0
TEXT
  5
3CC
  8
_ANNOTATE
 10
1517.481264472533
 20
3201.2517322248909
 30
0.0
 40
12.5
  1
TRS Interlocking panel
  7
ARIAL
  0
ENDBLK
  5
3CE
  8
0
  0
BLOCK
  8
0
  2
*U27
 70
     1
 10
0.0
 20
0.0
 30
0.0
  3
*U27
  1

  0
TEXT
  5
3D0
  8
_ANNOTATE
 62
     7
 10
1232.6728863430981
 20
2829.548250321865
 30
0.0
 40
17.5
  1
VERTICAL LAYOUT
  7
ARIAL_1
  0
ENDBLK
  5
3D2
  8
0
  0
BLOCK
  8
0
  2
*U28
 70
     1
 10
0.0
 20
0.0
 30
0.0
  3
*U28
  1

  0
TEXT
  5
3D4
  8
_ANNOTATE
 10
1517.78126447253
 20
3347.1124037642348
 30
0.0
 40
12.5
  1
TRS Interlocking panel
  7
ARIAL
  0
ENDBLK
  5
3D6
  8
0
  0
BLOCK
  8
0
  2
*X29
 70
     1
 10
0.0
 20
0.0
 30
0.0
  3
*X29
  1

  0
LINE
  5
3E2
  8
0
 62
     0
 10
1300.0079203007781
 20
3415.1821300168222
 30
0.0
 11
1299.1699203007779
 21
3413.7306714400802
 31
0.0
  0
LINE
  5
3E3
  8
0
 62
     0
 10
1305.087920300778
 20
3423.9809481192719
 30
0.0
 11
1304.2499203007781
 21
3422.52948954253
 31
0.0
  0
LINE
  5
3E4
  8
0
 62
     0
 10
1299.3273293520019
 20
3403.8433119143742
 30
0.0
 11
1298.8339611916481
 21
3402.9887731938029
 31
0.0
  0
LINE
  5
3E5
  8
0
 62
     0
 10
1304.042601761802
 20
3330.730403299674
 30
0.0
 11
1303.204601761802
 21
3329.2789447229302
 31
0.0
  0
LINE
  5
3E6
  8
0
 62
     0
 10
1308.8339611916481
 20
3339.0292812694911
 30
0.0
 11
1308.2846017618019
 21
3338.07776282538
 31
0.0
  0
LINE
  5
3E7
  8
0
 62
     0
 10
1303.3620108130269
 20
3319.3915851972229
 30
0.0
 11
1302.524010813027
 21
3317.9401266204809
 31
0.0
  0
LINE
  5
3E8
  8
0
 62
     0
 10
1308.0772832228261
 20
3246.278676582524
 30
0.0
 11
1307.2392832228261
 21
3244.8272180057811
 31
0.0
  0
LINE
  5
3E9
  8
0
 62
     0
 10
1302.3166922740511
 20
3226.141040377624
 30
0.0
 11
1301.4786922740509
 21
3224.6895818008811
 31
0.0
  0
LINE
  5
3EA
  8
0
 62
     0
 10
1307.3966922740501
 20
3234.9398584800738
 30
0.0
 11
1306.5586922740499
 21
3233.4883999033309
 31
0.0
  0
LINE
  5
3EB
  8
0
 62
     0
 10
1301.6361013252749
 20
3214.8022222751738
 30
0.0
 11
1300.798101325275
 21
3213.3507636984309
 31
0.0
  0
LINE
  5
3EC
  8
0
 62
     0
 10
1306.351373735074
 20
3141.6893136604749
 30
0.0
 11
1305.5133737350741
 21
3140.237855083732
 31
0.0
  0
LINE
  5
3ED
  8
0
 62
     0
 10
1300.5907827862991
 20
3121.551677455574
 30
0.0
 11
1299.7527827862989
 21
3120.100218878832
 31
0.0
  0
LINE
  5
3EE
  8
0
 62
     0
 10
1305.670782786299
 20
3130.3504955580252
 30
0.0
 11
1304.832782786299
 21
3128.8990369812818
 31
0.0
  0
LINE
  5
3EF
  8
0
 62
     0
 10
1299.9101918375241
 20
3110.2128593531252
 30
0.0
 11
1299.0721918375241
 21
3108.7614007763818
 31
0.0
  0
LINE
  5
3F0
  8
0
 62
     0
 10
1304.625464247323
 20
3037.0999507384258
 30
0.0
 11
1303.787464247323
 21
3035.648492161683
 31
0.0
  0
LINE
  5
3F1
  8
0
 62
     0
 10
1298.864873298548
 20
3016.9623145335258
 30
0.0
 11
1298.8339611916449
 21
3016.9087731938021
 31
0.0
  0
LINE
  5
3F2
  8
0
 62
     0
 10
1303.944873298547
 20
3025.7611326359761
 30
0.0
 11
1303.106873298548
 21
3024.3096740592332
 31
0.0
  0
LINE
  5
3F3
  8
0
 62
     0
 10
1308.6601457083459
 20
2952.6482240212772
 30
0.0
 11
1307.8221457083459
 21
2951.1967654445339
 31
0.0
  0
LINE
  5
3F4
  8
0
 62
     0
 10
1302.8995547595721
 20
2932.5105878163772
 30
0.0
 11
1302.0615547595719
 21
2931.0591292396339
 31
0.0
  0
LINE
  5
3F5
  8
0
 62
     0
 10
1307.979554759572
 20
2941.309405918827
 30
0.0
 11
1307.141554759572
 21
2939.8579473420841
 31
0.0
  0
LINE
  5
3F6
  8
0
 62
     0
 10
1302.2189638107959
 20
2921.171769713927
 30
0.0
 11
1301.3809638107959
 21
2919.7203111371841
 31
0.0
  0
LINE
  5
3F7
  8
0
 62
     0
 10
1306.947329352003
 20
3417.0415390680482
 30
0.0
 11
1306.1093293520021
 21
3415.5900804913049
 31
0.0
  0
LINE
  5
3F8
  8
0
 62
     0
 10
1301.186738403228
 20
3396.9039028631491
 30
0.0
 11
1300.348738403228
 21
3395.4524442864058
 31
0.0
  0
LINE
  5
3F9
  8
0
 62
     0
 10
1304.9055565056769
 20
3383.0250847606981
 30
0.0
 11
1304.067556505677
 21
3381.5736261839561
 31
0.0
  0
LINE
  5
3FA
  8
0
 62
     0
 10
1299.144965556902
 20
3362.8874485557981
 30
0.0
 11
1298.8339611916481
 21
3362.348773193803
 31
0.0
  0
LINE
  5
3FB
  8
0
 62
     0
 10
1305.2214198642509
 20
3312.4521761459991
 30
0.0
 11
1304.383419864251
 21
3311.0007175692558
 31
0.0
  0
LINE
  5
3FC
  8
0
 62
     0
 10
1299.460828915476
 20
3292.3145399410992
 30
0.0
 11
1298.8339611916469
 21
3291.2287731938031
 31
0.0
  0
LINE
  5
3FD
  8
0
 62
     0
 10
1308.8339611916481
 20
3298.3892812694912
 30
0.0
 11
1308.1022379667011
 21
3297.121899466807
 31
0.0
  0
LINE
  5
3FE
  8
0
 62
     0
 10
1303.1796470179261
 20
3278.435721838649
 30
0.0
 11
1302.3416470179261
 21
3276.9842632619061
 31
0.0
  0
LINE
  5
3FF
  8
0
 62
     0
 10
1308.8339611916469
 20
3227.2692812694909
 30
0.0
 11
1308.418101325276
 21
3226.5489908521058
 31
0.0
  0
LINE
  5
400
  8
0
 62
     0
 10
1303.4955103765001
 20
3207.8628132239492
 30
0.0
 11
1302.6575103765001
 21
3206.4113546472072
 31
0.0
  0
LINE
  5
401
  8
0
 62
     0
 10
1307.2143284789499
 20
3193.9839951214999
 30
0.0
 11
1306.37632847895
 21
3192.532536544757
 31
0.0
  0
LINE
  5
402
  8
0
 62
     0
 10
1301.453737530175
 20
3173.8463589165999
 30
0.0
 11
1300.615737530175
 21
3172.394900339857
 31
0.0
  0
LINE
  5
403
  8
0
 62
     0
 10
1307.5301918375239
 20
3123.4110865068001
 30
0.0
 11
1306.692191837524
 21
3121.9596279300572
 31
0.0
  0
LINE
  5
404
  8
0
 62
     0
 10
1301.769600888749
 20
3103.273450301901
 30
0.0
 11
1300.931600888749
 21
3101.8219917251581
 31
0.0
  0
LINE
  5
405
  8
0
 62
     0
 10
1305.4884189911979
 20
3089.3946321994499
 30
0.0
 11
1304.650418991198
 21
3087.9431736227079
 31
0.0
  0
LINE
  5
406
  8
0
 62
     0
 10
1299.727828042423
 20
3069.2569959945508
 30
0.0
 11
1298.889828042423
 21
3067.805537417808
 31
0.0
  0
LINE
  5
407
  8
0
 62
     0
 10
1305.8042823497731
 20
3018.821723584751
 30
0.0
 11
1304.966282349772
 21
3017.3702650080081
 31
0.0
  0
LINE
  5
408
  8
0
 62
     0
 10
1300.043691400997
 20
2998.684087379851
 30
0.0
 11
1299.205691400997
 21
2997.2326288031081
 31
0.0
  0
LINE
  5
409
  8
0
 62
     0
 10
1308.8339611916449
 20
3003.74928126949
 30
0.0
 11
1308.6851004522221
 21
3003.491446905558
 31
0.0
  0
LINE
  5
40A
  8
0
 62
     0
 10
1303.7625095034471
 20
2984.8052692774022
 30
0.0
 11
1302.9245095034471
 21
2983.3538107006589
 31
0.0
  0
LINE
  5
40B
  8
0
 62
     0
 10
1304.0783728620211
 20
2914.2323606627019
 30
0.0
 11
1303.2403728620211
 21
2912.780902085959
 31
0.0
  0
LINE
  5
40C
  8
0
 62
     0
 10
1306.7649655569021
 20
3376.085675709473
 30
0.0
 11
1305.9269655569019
 21
3374.6342171327301
 31
0.0
  0
LINE
  5
40D
  8
0
 62
     0
 10
1301.0043746081269
 20
3355.948039504573
 30
0.0
 11
1300.1663746081269
 21
3354.4965809278301
 31
0.0
  0
LINE
  5
40E
  8
0
 62
     0
 10
1308.624374608127
 20
3369.1462666582479
 30
0.0
 11
1307.7863746081271
 21
3367.694808081505
 31
0.0
  0
LINE
  5
40F
  8
0
 62
     0
 10
1302.8637836593521
 20
3349.0086304533488
 30
0.0
 11
1302.0257836593521
 21
3347.557171876605
 31
0.0
  0
LINE
  5
410
  8
0
 62
     0
 10
1305.039056069151
 20
3271.4963127874239
 30
0.0
 11
1304.201056069151
 21
3270.044854210681
 31
0.0
  0
LINE
  5
411
  8
0
 62
     0
 10
1299.2784651203749
 20
3251.3586765825239
 30
0.0
 11
1298.8339611916469
 21
3250.5887731938019
 31
0.0
  0
LINE
  5
412
  8
0
 62
     0
 10
1306.8984651203759
 20
3264.5569037361988
 30
0.0
 11
1306.0604651203751
 21
3263.1054451594559
 31
0.0
  0
LINE
  5
413
  8
0
 62
     0
 10
1301.137874171601
 20
3244.4192675312988
 30
0.0
 11
1300.2998741716001
 21
3242.9678089545559
 31
0.0
  0
LINE
  5
414
  8
0
 62
     0
 10
1308.8339611916469
 20
3186.629281269491
 30
0.0
 11
1308.2357375301749
 21
3185.5931274935319
 31
0.0
  0
LINE
  5
415
  8
0
 62
     0
 10
1303.313146581399
 20
3166.9069498653748
 30
0.0
 11
1302.475146581399
 21
3165.4554912886319
 31
0.0
  0
LINE
  5
416
  8
0
 62
     0
 10
1305.1725556326239
 20
3159.9675408141502
 30
0.0
 11
1304.334555632624
 21
3158.5160822374069
 31
0.0
  0
LINE
  5
417
  8
0
 62
     0
 10
1299.411964683849
 20
3139.8299046092502
 30
0.0
 11
1298.833961191646
 21
3138.8287731938021
 31
0.0
  0
LINE
  5
418
  8
0
 62
     0
 10
1307.3478280424231
 20
3082.4552231482262
 30
0.0
 11
1306.5098280424229
 21
3081.003764571482
 31
0.0
  0
LINE
  5
419
  8
0
 62
     0
 10
1301.5872370936479
 20
3062.3175869433262
 30
0.0
 11
1300.7492370936479
 21
3060.8661283665829
 31
0.0
  0
LINE
  5
41A
  8
0
 62
     0
 10
1308.833961191646
 20
3074.8692812694908
 30
0.0
 11
1308.3692370936481
 21
3074.0643555202578
 31
0.0
  0
LINE
  5
41B
  8
0
 62
     0
 10
1303.4466461448731
 20
3055.3781778921002
 30
0.0
 11
1302.6086461448731
 21
3053.9267193153578
 31
0.0
  0
LINE
  5
41C
  8
0
 62
     0
 10
1305.621918554672
 20
2977.8658602261762
 30
0.0
 11
1304.783918554672
 21
2976.4144016494338
 31
0.0
  0
LINE
  5
41D
  8
0
 62
     0
 10
1299.861327605897
 20
2957.7282240212771
 30
0.0
 11
1299.0233276058959
 21
2956.2767654445329
 31
0.0
  0
LINE
  5
41E
  8
0
 62
     0
 10
1307.481327605896
 20
2970.926451174952
 30
0.0
 11
1306.643327605897
 21
2969.4749925982078
 31
0.0
  0
LINE
  5
41F
  8
0
 62
     0
 10
1301.7207366571211
 20
2950.788814970052
 30
0.0
 11
1300.882736657122
 21
2949.3373563933092
 31
0.0
  0
LINE
  5
420
  8
0
 62
     0
 10
1303.0713936727209
 20
3407.7122310056852
 30
0.0
 11
1302.2333936727209
 21
3409.1636895824281
 31
0.0
  0
LINE
  5
421
  8
0
 62
     0
 10
1300.713757467822
 20
3371.1557766983328
 30
0.0
 11
1299.875757467822
 21
3372.6072352750762
 31
0.0
  0
LINE
  5
422
  8
0
 62
     0
 10
1307.835530314145
 20
3328.3405042885361
 30
0.0
 11
1306.997530314145
 21
3329.7919628652789
 31
0.0
  0
LINE
  5
423
  8
0
 62
     0
 10
1305.477894109245
 20
3291.784049981185
 30
0.0
 11
1304.6398941092459
 21
3293.2355085579279
 31
0.0
  0
LINE
  5
424
  8
0
 62
     0
 10
1303.1202579043461
 20
3255.227595673834
 30
0.0
 11
1302.2822579043459
 21
3256.6790542505769
 31
0.0
  0
LINE
  5
425
  8
0
 62
     0
 10
1308.200257904346
 20
3246.4287775713842
 30
0.0
 11
1307.3622579043461
 21
3247.8802361481271
 31
0.0
  0
LINE
  5
426
  8
0
 62
     0
 10
1300.7626216994449
 20
3218.671141366488
 30
0.0
 11
1299.924621699445
 21
3220.1225999432309
 31
0.0
  0
LINE
  5
427
  8
0
 62
     0
 10
1305.842621699444
 20
3209.8723232640382
 30
0.0
 11
1305.0046216994449
 21
3211.3237818407811
 31
0.0
  0
LINE
  5
428
  8
0
 62
     0
 10
1303.4849854945439
 20
3173.3158689566881
 30
0.0
 11
1302.646985494544
 21
3174.7673275334309
 31
0.0
  0
LINE
  5
429
  8
0
 62
     0
 10
1301.1273492896451
 20
3136.759414649337
 30
0.0
 11
1300.2893492896451
 21
3138.2108732260799
 31
0.0
  0
LINE
  5
42A
  8
0
 62
     0
 10
1308.2491221359701
 20
3093.9441422395371
 30
0.0
 11
1307.4111221359699
 21
3095.39560081628
 31
0.0
  0
LINE
  5
42B
  8
0
 62
     0
 10
1305.8914859310689
 20
3057.3876879321888
 30
0.0
 11
1305.053485931069
 21
3058.8391465089321
 31
0.0
  0
LINE
  5
42C
  8
0
 62
     0
 10
1303.5338497261689
 20
3020.8312336248382
 30
0.0
 11
1302.6958497261701
 21
3022.2826922015811
 31
0.0
  0
LINE
  5
42D
  8
0
 62
     0
 10
1308.6138497261691
 20
3012.032415522388
 30
0.0
 11
1307.77584972617
 21
3013.4838740991308
 31
0.0
  0
LINE
  5
42E
  8
0
 62
     0
 10
1301.17621352127
 20
2984.2747793174872
 30
0.0
 11
1300.3382135212701
 21
2985.7262378942301
 31
0.0
  0
LINE
  5
42F
  8
0
 62
     0
 10
1306.25621352127
 20
2975.4759612150369
 30
0.0
 11
1305.41821352127
 21
2976.9274197917798
 31
0.0
  0
LINE
  5
430
  8
0
 62
     0
 10
1303.8985773163679
 20
2938.9195069076891
 30
0.0
 11
1303.0605773163679
 21
2940.3709654844329
 31
0.0
  0
LINE
  5
431
  8
0
 62
     0
 10
1308.333757467821
 20
3357.9575495446579
 30
0.0
 11
1307.4957574678219
 21
3359.4090081214022
 31
0.0
  0
LINE
  5
432
  8
0
 62
     0
 10
1308.8339611916469
 20
3346.9311712808581
 30
0.0
 11
1308.1763484165949
 21
3348.0701900189551
 31
0.0
  0
LINE
  5
433
  8
0
 62
     0
 10
1305.9761212629201
 20
3321.401095237311
 30
0.0
 11
1305.1381212629201
 21
3322.8525538140539
 31
0.0
  0
LINE
  5
434
  8
0
 62
     0
 10
1306.6567122116951
 20
3310.0622771348608
 30
0.0
 11
1305.8187122116949
 21
3311.5137357116032
 31
0.0
  0
LINE
  5
435
  8
0
 62
     0
 10
1303.61848505802
 20
3284.8446409299609
 30
0.0
 11
1302.7804850580201
 21
3286.2960995067042
 31
0.0
  0
LINE
  5
436
  8
0
 62
     0
 10
1304.299076006796
 20
3273.5058228275102
 30
0.0
 11
1303.461076006796
 21
3274.9572814042531
 31
0.0
  0
LINE
  5
437
  8
0
 62
     0
 10
1301.26084885312
 20
3248.2881866226112
 30
0.0
 11
1300.4228488531201
 21
3249.7396451993541
 31
0.0
  0
LINE
  5
438
  8
0
 62
     0
 10
1301.9414398018951
 20
3236.949368520161
 30
0.0
 11
1301.1034398018951
 21
3238.4008270969039
 31
0.0
  0
LINE
  5
439
  8
0
 62
     0
 10
1298.9032126482191
 20
3211.7317323152629
 30
0.0
 11
1298.833961191646
 21
3211.851679356545
 31
0.0
  0
LINE
  5
43A
  8
0
 62
     0
 10
1299.583803596995
 20
3200.3929142128131
 30
0.0
 11
1298.8339611916469
 21
3201.691679356546
 31
0.0
  0
LINE
  5
43B
  8
0
 62
     0
 10
1308.7473492896449
 20
3123.5611874956621
 30
0.0
 11
1307.909349289645
 21
3125.012646072405
 31
0.0
  0
LINE
  5
43C
  8
0
 62
     0
 10
1308.833961191646
 20
3113.2511712808569
 30
0.0
 11
1308.5899402384191
 21
3113.6738279699562
 31
0.0
  0
LINE
  5
43D
  8
0
 62
     0
 10
1306.3897130847449
 20
3087.004733188312
 30
0.0
 11
1305.551713084745
 21
3088.4561917650549
 31
0.0
  0
LINE
  5
43E
  8
0
 62
     0
 10
1307.07030403352
 20
3075.6659150858618
 30
0.0
 11
1306.2323040335191
 21
3077.117373662606
 31
0.0
  0
LINE
  5
43F
  8
0
 62
     0
 10
1304.032076879844
 20
3050.4482788809628
 30
0.0
 11
1303.194076879844
 21
3051.8997374577061
 31
0.0
  0
LINE
  5
440
  8
0
 62
     0
 10
1304.712667828619
 20
3039.109460778513
 30
0.0
 11
1303.8746678286191
 21
3040.5609193552559
 31
0.0
  0
LINE
  5
441
  8
0
 62
     0
 10
1301.674440674944
 20
3013.8918245736131
 30
0.0
 11
1300.836440674944
 21
3015.343283150356
 31
0.0
  0
LINE
  5
442
  8
0
 62
     0
 10
1302.3550316237199
 20
3002.5530064711629
 30
0.0
 11
1301.51703162372
 21
3004.0044650479058
 31
0.0
  0
LINE
  5
443
  8
0
 62
     0
 10
1299.316804470044
 20
2977.3353702662648
 30
0.0
 11
1298.833961191644
 21
2978.1716793565461
 31
0.0
  0
LINE
  5
444
  8
0
 62
     0
 10
1299.9973954188181
 20
2965.9965521638151
 30
0.0
 11
1299.1593954188179
 21
2967.4480107405579
 31
0.0
  0
LINE
  5
445
  8
0
 62
     0
 10
1306.790211775171
 20
3421.5910491081358
 30
0.0
 11
1305.952211775171
 21
3423.0425076848778
 31
0.0
  0
LINE
  5
446
  8
0
 62
     0
 10
1299.8508027239459
 20
3423.4504581593601
 30
0.0
 11
1299.0128027239459
 21
3424.901916736103
 31
0.0
  0
LINE
  5
447
  8
0
 62
     0
 10
1304.4325755702721
 20
3385.0345948007839
 30
0.0
 11
1303.5945755702719
 21
3386.4860533775268
 31
0.0
  0
LINE
  5
448
  8
0
 62
     0
 10
1302.07493936537
 20
3348.478140493437
 30
0.0
 11
1301.2369393653701
 21
3349.9295990701798
 31
0.0
  0
LINE
  5
449
  8
0
 62
     0
 10
1299.71730316047
 20
3311.9216861860859
 30
0.0
 11
1298.879303160471
 21
3313.3731447628288
 31
0.0
  0
LINE
  5
44A
  8
0
 62
     0
 10
1307.3373031604699
 20
3298.723459032411
 30
0.0
 11
1306.4993031604699
 21
3300.1749176091539
 31
0.0
  0
LINE
  5
44B
  8
0
 62
     0
 10
1304.979666955571
 20
3262.16700472506
 30
0.0
 11
1304.1416669555711
 21
3263.6184633018029
 31
0.0
  0
LINE
  5
44C
  8
0
 62
     0
 10
1308.833961191646
 20
3225.0111712808571
 30
0.0
 11
1308.723439801895
 21
3225.202599943229
 31
0.0
  0
LINE
  5
44D
  8
0
 62
     0
 10
1302.622030750669
 20
3225.6105504177149
 30
0.0
 11
1301.784030750669
 21
3227.0620089944568
 31
0.0
  0
LINE
  5
44E
  8
0
 62
     0
 10
1307.2038035969949
 20
3187.1946870591378
 30
0.0
 11
1306.3658035969941
 21
3188.6461456358811
 31
0.0
  0
LINE
  5
44F
  8
0
 62
     0
 10
1300.2643945457689
 20
3189.0540961103629
 30
0.0
 11
1299.4263945457701
 21
3190.5055546871049
 31
0.0
  0
LINE
  5
450
  8
0
 62
     0
 10
1304.8461673920949
 20
3150.6382327517872
 30
0.0
 11
1304.0081673920949
 21
3152.089691328531
 31
0.0
  0
LINE
  5
451
  8
0
 62
     0
 10
1302.488531187194
 20
3114.081778444438
 30
0.0
 11
1301.650531187194
 21
3115.5332370211809
 31
0.0
  0
LINE
  5
452
  8
0
 62
     0
 10
1300.130894982294
 20
3077.5253241370888
 30
0.0
 11
1299.292894982294
 21
3078.9767827138321
 31
0.0
  0
LINE
  5
453
  8
0
 62
     0
 10
1307.7508949822941
 20
3064.3270969834139
 30
0.0
 11
1306.9128949822939
 21
3065.7785555601572
 31
0.0
  0
LINE
  5
454
  8
0
 62
     0
 10
1305.393258777395
 20
3027.7706426760628
 30
0.0
 11
1304.555258777395
 21
3029.2221012528062
 31
0.0
  0
LINE
  5
455
  8
0
 62
     0
 10
1303.0356225724929
 20
2991.214188368715
 30
0.0
 11
1302.1976225724929
 21
2992.6656469454579
 31
0.0
  0
LINE
  5
456
  8
0
 62
     0
 10
1307.617395418818
 20
2952.7983250101411
 30
0.0
 11
1306.779395418818
 21
2954.249783586883
 31
0.0
  0
LINE
  5
457
  8
0
 62
     0
 10
1300.6779863675949
 20
2954.6577340613621
 30
0.0
 11
1299.839986367595
 21
2956.109192638105
 31
0.0
  0
LINE
  5
458
  8
0
 62
     0
 10
1305.2597592139191
 20
2916.2418707027891
 30
0.0
 11
1304.4217592139189
 21
2917.6933292795311
 31
0.0
  0
LINE
  5
459
  8
0
 62
     0
 10
1305.5599611916421
 20
2931.1599308007931
 30
0.0
 11
1307.235961191642
 21
2931.1599308007931
 31
0.0
  0
LINE
  5
45A
  8
0
 62
     0
 10
1305.5599611916421
 20
2961.6399308007931
 30
0.0
 11
1307.235961191642
 21
2961.6399308007931
 31
0.0
  0
LINE
  5
45B
  8
0
 62
     0
 10
1305.5599611916421
 20
2987.0399308007932
 30
0.0
 11
1307.235961191642
 21
2987.0399308007932
 31
0.0
  0
LINE
  5
45C
  8
0
 62
     0
 10
1305.5599611916409
 20
3017.5199308007932
 30
0.0
 11
1307.2359611916411
 21
3017.5199308007932
 31
0.0
  0
LINE
  5
45D
  8
0
 62
     0
 10
1305.5599611916409
 20
3042.9199308007928
 30
0.0
 11
1307.2359611916411
 21
3042.9199308007928
 31
0.0
  0
LINE
  5
45E
  8
0
 62
     0
 10
1305.559961191643
 20
3073.3999308007928
 30
0.0
 11
1307.2359611916429
 21
3073.3999308007928
 31
0.0
  0
LINE
  5
45F
  8
0
 62
     0
 10
1305.559961191643
 20
3098.7999308007938
 30
0.0
 11
1307.2359611916429
 21
3098.7999308007938
 31
0.0
  0
LINE
  5
460
  8
0
 62
     0
 10
1305.5599611916441
 20
3129.2799308007939
 30
0.0
 11
1307.235961191644
 21
3129.2799308007939
 31
0.0
  0
LINE
  5
461
  8
0
 62
     0
 10
1305.5599611916441
 20
3154.679930800794
 30
0.0
 11
1307.235961191644
 21
3154.679930800794
 31
0.0
  0
LINE
  5
462
  8
0
 62
     0
 10
1305.5599611916421
 20
3185.159930800794
 30
0.0
 11
1307.235961191642
 21
3185.159930800794
 31
0.0
  0
LINE
  5
463
  8
0
 62
     0
 10
1305.559961191643
 20
3210.5599308007941
 30
0.0
 11
1307.2359611916429
 21
3210.5599308007941
 31
0.0
  0
LINE
  5
464
  8
0
 62
     0
 10
1305.559961191643
 20
3241.0399308007941
 30
0.0
 11
1307.2359611916429
 21
3241.0399308007941
 31
0.0
  0
LINE
  5
465
  8
0
 62
     0
 10
1305.559961191643
 20
3266.4399308007942
 30
0.0
 11
1307.2359611916429
 21
3266.4399308007942
 31
0.0
  0
LINE
  5
466
  8
0
 62
     0
 10
1305.559961191645
 20
3296.9199308007942
 30
0.0
 11
1307.2359611916449
 21
3296.9199308007942
 31
0.0
  0
LINE
  5
467
  8
0
 62
     0
 10
1305.5599611916459
 20
3322.3199308007938
 30
0.0
 11
1307.2359611916449
 21
3322.3199308007938
 31
0.0
  0
LINE
  5
468
  8
0
 62
     0
 10
1305.5599611916459
 20
3352.7999308007938
 30
0.0
 11
1307.2359611916461
 21
3352.7999308007938
 31
0.0
  0
LINE
  5
469
  8
0
 62
     0
 10
1305.5599611916441
 20
3378.1999308007939
 30
0.0
 11
1307.235961191644
 21
3378.1999308007939
 31
0.0
  0
LINE
  5
46A
  8
0
 62
     0
 10
1305.5599611916459
 20
3408.6799308007949
 30
0.0
 11
1307.2359611916461
 21
3408.6799308007949
 31
0.0
  0
LINE
  5
46B
  8
0
 62
     0
 10
1300.479961191643
 20
2915.9199308007928
 30
0.0
 11
1302.155961191643
 21
2915.9199308007928
 31
0.0
  0
LINE
  5
46C
  8
0
 62
     0
 10
1300.4799611916419
 20
2936.239930800793
 30
0.0
 11
1302.1559611916421
 21
2936.239930800793
 31
0.0
  0
LINE
  5
46D
  8
0
 62
     0
 10
1300.479961191643
 20
2971.7999308007929
 30
0.0
 11
1302.155961191643
 21
2971.7999308007929
 31
0.0
  0
LINE
  5
46E
  8
0
 62
     0
 10
1300.4799611916419
 20
2992.1199308007931
 30
0.0
 11
1302.1559611916421
 21
2992.1199308007931
 31
0.0
  0
LINE
  5
46F
  8
0
 62
     0
 10
1300.4799611916419
 20
3027.679930800793
 30
0.0
 11
1302.1559611916421
 21
3027.679930800793
 31
0.0
  0
LINE
  5
470
  8
0
 62
     0
 10
1300.479961191641
 20
3047.9999308007941
 30
0.0
 11
1302.1559611916409
 21
3047.9999308007941
 31
0.0
  0
LINE
  5
471
  8
0
 62
     0
 10
1300.479961191644
 20
3083.5599308007932
 30
0.0
 11
1302.1559611916441
 21
3083.5599308007932
 31
0.0
  0
LINE
  5
472
  8
0
 62
     0
 10
1300.479961191643
 20
3103.8799308007942
 30
0.0
 11
1302.155961191643
 21
3103.8799308007942
 31
0.0
  0
LINE
  5
473
  8
0
 62
     0
 10
1300.4799611916451
 20
3139.4399308007942
 30
0.0
 11
1302.155961191645
 21
3139.4399308007942
 31
0.0
  0
LINE
  5
474
  8
0
 62
     0
 10
1300.479961191644
 20
3159.7599308007939
 30
0.0
 11
1302.1559611916441
 21
3159.7599308007939
 31
0.0
  0
LINE
  5
475
  8
0
 62
     0
 10
1300.479961191643
 20
3195.3199308007938
 30
0.0
 11
1302.1559611916441
 21
3195.3199308007938
 31
0.0
  0
LINE
  5
476
  8
0
 62
     0
 10
1300.4799611916419
 20
3215.639930800794
 30
0.0
 11
1302.1559611916421
 21
3215.639930800794
 31
0.0
  0
LINE
  5
477
  8
0
 62
     0
 10
1300.479961191644
 20
3251.1999308007939
 30
0.0
 11
1302.1559611916441
 21
3251.1999308007939
 31
0.0
  0
LINE
  5
478
  8
0
 62
     0
 10
1300.479961191643
 20
3271.5199308007941
 30
0.0
 11
1302.155961191643
 21
3271.5199308007941
 31
0.0
  0
LINE
  5
479
  8
0
 62
     0
 10
1300.4799611916469
 20
3307.079930800794
 30
0.0
 11
1302.1559611916459
 21
3307.079930800794
 31
0.0
  0
LINE
  5
47A
  8
0
 62
     0
 10
1300.4799611916469
 20
3327.3999308007942
 30
0.0
 11
1302.1559611916471
 21
3327.3999308007942
 31
0.0
  0
LINE
  5
47B
  8
0
 62
     0
 10
1300.4799611916451
 20
3362.9599308007942
 30
0.0
 11
1302.155961191645
 21
3362.9599308007942
 31
0.0
  0
LINE
  5
47C
  8
0
 62
     0
 10
1300.479961191646
 20
3383.2799308007948
 30
0.0
 11
1302.1559611916459
 21
3383.2799308007948
 31
0.0
  0
LINE
  5
47D
  8
0
 62
     0
 10
1300.4799611916451
 20
3418.8399308007952
 30
0.0
 11
1302.1559611916459
 21
3418.8399308007952
 31
0.0
  0
LINE
  5
47E
  8
0
 62
     0
 10
1305.559961191643
 20
2920.9999308007932
 30
0.0
 11
1307.2359611916429
 21
2920.9999308007932
 31
0.0
  0
LINE
  5
47F
  8
0
 62
     0
 10
1300.4799611916419
 20
2951.4799308007932
 30
0.0
 11
1302.1559611916421
 21
2951.4799308007932
 31
0.0
  0
LINE
  5
480
  8
0
 62
     0
 10
1305.559961191643
 20
2976.8799308007929
 30
0.0
 11
1307.2359611916429
 21
2976.8799308007929
 31
0.0
  0
LINE
  5
481
  8
0
 62
     0
 10
1300.479961191641
 20
3007.3599308007929
 30
0.0
 11
1302.1559611916409
 21
3007.3599308007929
 31
0.0
  0
LINE
  5
482
  8
0
 62
     0
 10
1305.5599611916421
 20
3032.759930800793
 30
0.0
 11
1307.235961191642
 21
3032.759930800793
 31
0.0
  0
LINE
  5
483
  8
0
 62
     0
 10
1300.479961191643
 20
3063.239930800793
 30
0.0
 11
1302.1559611916441
 21
3063.239930800793
 31
0.0
  0
LINE
  5
484
  8
0
 62
     0
 10
1305.5599611916441
 20
3088.6399308007931
 30
0.0
 11
1307.235961191644
 21
3088.6399308007931
 31
0.0
  0
LINE
  5
485
  8
0
 62
     0
 10
1300.479961191644
 20
3119.1199308007931
 30
0.0
 11
1302.1559611916441
 21
3119.1199308007931
 31
0.0
  0
LINE
  5
486
  8
0
 62
     0
 10
1305.559961191645
 20
3144.5199308007941
 30
0.0
 11
1307.2359611916449
 21
3144.5199308007941
 31
0.0
  0
LINE
  5
487
  8
0
 62
     0
 10
1300.479961191644
 20
3174.9999308007941
 30
0.0
 11
1302.1559611916441
 21
3174.9999308007941
 31
0.0
  0
LINE
  5
488
  8
0
 62
     0
 10
1305.559961191643
 20
3200.3999308007942
 30
0.0
 11
1307.2359611916429
 21
3200.3999308007942
 31
0.0
  0
LINE
  5
489
  8
0
 62
     0
 10
1300.479961191643
 20
3230.8799308007942
 30
0.0
 11
1302.155961191643
 21
3230.8799308007942
 31
0.0
  0
LINE
  5
48A
  8
0
 62
     0
 10
1305.5599611916441
 20
3256.2799308007939
 30
0.0
 11
1307.235961191644
 21
3256.2799308007939
 31
0.0
  0
LINE
  5
48B
  8
0
 62
     0
 10
1300.4799611916451
 20
3286.7599308007939
 30
0.0
 11
1302.1559611916459
 21
3286.7599308007939
 31
0.0
  0
LINE
  5
48C
  8
0
 62
     0
 10
1305.5599611916459
 20
3312.159930800794
 30
0.0
 11
1307.2359611916461
 21
3312.159930800794
 31
0.0
  0
LINE
  5
48D
  8
0
 62
     0
 10
1300.479961191646
 20
3342.639930800794
 30
0.0
 11
1302.1559611916459
 21
3342.639930800794
 31
0.0
  0
LINE
  5
48E
  8
0
 62
     0
 10
1305.559961191645
 20
3368.0399308007941
 30
0.0
 11
1307.2359611916449
 21
3368.0399308007941
 31
0.0
  0
LINE
  5
48F
  8
0
 62
     0
 10
1300.4799611916451
 20
3398.5199308007941
 30
0.0
 11
1302.155961191645
 21
3398.5199308007941
 31
0.0
  0
LINE
  5
490
  8
0
 62
     0
 10
1305.5599611916459
 20
3423.9199308007942
 30
0.0
 11
1307.2359611916449
 21
3423.9199308007942
 31
0.0
  0
ENDBLK
  5
492
  8
0
  0
BLOCK
  8
0
  2
*X30
 70
     1
 10
0.0
 20
0.0
 30
0.0
  3
*X30
  1

  0
LINE
  5
494
  8
0
 62
     0
 10
1168.9136224786789
 20
3442.120869903129
 30
0.0
 11
1168.864240687953
 21
3442.0353381326222
 31
0.0
  0
LINE
  5
495
  8
0
 62
     0
 10
1196.7792859440781
 20
3439.585614811816
 30
0.0
 11
1195.9412859440779
 21
3438.1341562350731
 31
0.0
  0
LINE
  5
496
  8
0
 62
     0
 10
1223.856331200202
 20
3435.684432914265
 30
0.0
 11
1223.0183312002021
 21
3434.2329743375221
 31
0.0
  0
LINE
  5
497
  8
0
 62
     0
 10
1251.0359247682111
 20
3442.120869903129
 30
0.0
 11
1250.7759674051019
 21
3441.6706105424232
 31
0.0
  0
LINE
  5
498
  8
0
 62
     0
 10
1278.6910126612261
 20
3439.2208872216152
 30
0.0
 11
1277.8530126612261
 21
3437.7694286448718
 31
0.0
  0
LINE
  5
499
  8
0
 62
     0
 10
1305.7680579173521
 20
3435.3197053240651
 30
0.0
 11
1304.9300579173521
 21
3433.8682467473232
 31
0.0
  0
LINE
  5
49A
  8
0
 62
     0
 10
1171.5616497391779
 20
3436.5473876581409
 30
0.0
 11
1170.723649739178
 21
3435.095929081398
 31
0.0
  0
LINE
  5
49B
  8
0
 62
     0
 10
1180.6453799486119
 20
3442.120869903129
 30
0.0
 11
1180.203058790403
 21
3441.3547471838478
 31
0.0
  0
LINE
  5
49C
  8
0
 62
     0
 10
1198.6386949953021
 20
3432.64620576059
 30
0.0
 11
1198.335392196582
 21
3432.120869903129
 31
0.0
  0
LINE
  5
49D
  8
0
 62
     0
 10
1208.1181040465269
 20
3438.9050238630398
 30
0.0
 11
1207.280104046527
 21
3437.4535652862969
 31
0.0
  0
LINE
  5
49E
  8
0
 62
     0
 10
1235.195149302652
 20
3435.0038419654902
 30
0.0
 11
1234.357149302652
 21
3433.5523833887469
 31
0.0
  0
LINE
  5
49F
  8
0
 62
     0
 10
1285.6304217124521
 20
3441.0802962728399
 30
0.0
 11
1284.7924217124521
 21
3439.628837696097
 31
0.0
  0
LINE
  5
4A0
  8
0
 62
     0
 10
1182.9004678416279
 20
3435.8667967093661
 30
0.0
 11
1182.0624678416279
 21
3434.4153381326232
 31
0.0
  0
LINE
  5
4A1
  8
0
 62
     0
 10
1244.674558353877
 20
3441.26266006794
 30
0.0
 11
1243.8365583538771
 21
3439.8112014911972
 31
0.0
  0
LINE
  5
4A2
  8
0
 62
     0
 10
1271.7516036100019
 20
3437.36147817039
 30
0.0
 11
1270.9136036100019
 21
3435.9100195936471
 31
0.0
  0
LINE
  5
4A3
  8
0
 62
     0
 10
1296.9692398149009
 20
3440.3997053240651
 30
0.0
 11
1296.1312398149021
 21
3438.9482467473222
 31
0.0
  0
LINE
  5
4A4
  8
0
 62
     0
 10
1298.828648866127
 20
3433.4602962728409
 30
0.0
 11
1298.055330691014
 21
3432.1208699031299
 31
0.0
  0
LINE
  5
4A5
  8
0
 62
     0
 10
1283.1126922082799
 20
3432.1208699031308
 30
0.0
 11
1282.593531289295
 21
3433.0200829921182
 31
0.0
  0
LINE
  5
4A6
  8
0
 62
     0
 10
1273.9521222380699
 20
3437.8274425178238
 30
0.0
 11
1273.11412223807
 21
3439.2789010945671
 31
0.0
  0
LINE
  5
4A7
  8
0
 62
     0
 10
1237.3956679307221
 20
3440.1850787227231
 30
0.0
 11
1236.5576679307219
 21
3441.636537299466
 31
0.0
  0
LINE
  5
4A8
  8
0
 62
     0
 10
1242.0515410635139
 20
3432.1208699031322
 30
0.0
 11
1241.637667930722
 21
3432.8377191970148
 31
0.0
  0
LINE
  5
4A9
  8
0
 62
     0
 10
1205.919213623371
 20
3433.743896825174
 30
0.0
 11
1205.081213623371
 21
3435.1953554019169
 31
0.0
  0
LINE
  5
4AA
  8
0
 62
     0
 10
1196.4398045721459
 20
3440.0027149276239
 30
0.0
 11
1195.601804572146
 21
3441.4541735043672
 31
0.0
  0
LINE
  5
4AB
  8
0
 62
     0
 10
1299.169758442968
 20
3434.7892153641528
 30
0.0
 11
1298.3317584429681
 21
3436.2406739408962
 31
0.0
  0
LINE
  5
4AC
  8
0
 62
     0
 10
1267.0127131868439
 20
3439.6868515690512
 30
0.0
 11
1266.174713186844
 21
3441.1383101457941
 31
0.0
  0
LINE
  5
4AD
  8
0
 62
     0
 10
1235.5362588794951
 20
3433.2456696714989
 30
0.0
 11
1234.6982588794949
 21
3434.6971282482418
 31
0.0
  0
LINE
  5
4AE
  8
0
 62
     0
 10
1221.657440777044
 20
3436.9644877739511
 30
0.0
 11
1220.8194407770441
 21
3438.415946350694
 31
0.0
  0
LINE
  5
4AF
  8
0
 62
     0
 10
1189.5003955209199
 20
3441.862123978849
 30
0.0
 11
1189.3510084918851
 21
3442.1208699031299
 31
0.0
  0
LINE
  5
4B0
  8
0
 62
     0
 10
1292.230349391745
 20
3436.6486244153739
 30
0.0
 11
1291.392349391745
 21
3438.1000829921172
 31
0.0
  0
LINE
  5
4B1
  8
0
 62
     0
 10
1285.2909403405199
 20
3438.5080334666
 30
0.0
 11
1284.4529403405199
 21
3439.9594920433428
 31
0.0
  0
LINE
  5
4B2
  8
0
 62
     0
 10
1253.7832985334469
 20
3432.1208699031308
 30
0.0
 11
1252.9764860331711
 21
3433.5183101457901
 31
0.0
  0
LINE
  5
4B3
  8
0
 62
     0
 10
1214.718031725821
 20
3438.8238968251731
 30
0.0
 11
1213.880031725821
 21
3440.2753554019159
 31
0.0
  0
LINE
  5
4B4
  8
0
 62
     0
 10
1207.778622674595
 20
3440.6833058764
 30
0.0
 11
1206.948644696784
 21
3442.1208699031308
 31
0.0
  0
LINE
  5
4B5
  8
0
 62
     0
 10
1183.2415774184719
 20
3432.3827149276231
 30
0.0
 11
1182.403577418472
 21
3433.8341735043659
 31
0.0
  0
LINE
  5
4B6
  8
0
 62
     0
 10
1176.3021683672471
 20
3434.2421239788459
 30
0.0
 11
1175.4641683672471
 21
3435.6935825555902
 31
0.0
  0
LINE
  5
4B7
  8
0
 62
     0
 10
1305.5595078594461
 20
3434.0798699031261
 30
0.0
 11
1307.235507859446
 21
3434.0798699031261
 31
0.0
  0
LINE
  5
4B8
  8
0
 62
     0
 10
1295.399507859446
 20
3434.0798699031261
 30
0.0
 11
1297.0755078594459
 21
3434.0798699031261
 31
0.0
  0
LINE
  5
4B9
  8
0
 62
     0
 10
1193.799507859447
 20
3434.0798699031261
 30
0.0
 11
1195.4755078594469
 21
3434.0798699031261
 31
0.0
  0
LINE
  5
4BA
  8
0
 62
     0
 10
1183.6395078594469
 20
3434.0798699031261
 30
0.0
 11
1185.3155078594471
 21
3434.0798699031261
 31
0.0
  0
LINE
  5
4BB
  8
0
 62
     0
 10
1214.119507859446
 20
3439.159869903126
 30
0.0
 11
1215.7955078594459
 21
3439.159869903126
 31
0.0
  0
LINE
  5
4BC
  8
0
 62
     0
 10
1203.9595078594459
 20
3439.159869903126
 30
0.0
 11
1205.6355078594461
 21
3439.159869903126
 31
0.0
  0
LINE
  5
4BD
  8
0
 62
     0
 10
1280.1595078594471
 20
3434.0798699031261
 30
0.0
 11
1281.835507859447
 21
3434.0798699031261
 31
0.0
  0
LINE
  5
4BE
  8
0
 62
     0
 10
1249.6795078594471
 20
3434.0798699031261
 30
0.0
 11
1251.355507859447
 21
3434.0798699031261
 31
0.0
  0
LINE
  5
4BF
  8
0
 62
     0
 10
1168.3995078594471
 20
3434.0798699031261
 30
0.0
 11
1170.075507859447
 21
3434.0798699031261
 31
0.0
  0
LINE
  5
4C0
  8
0
 62
     0
 10
1300.4795078594459
 20
3439.159869903126
 30
0.0
 11
1302.1555078594461
 21
3439.159869903126
 31
0.0
  0
LINE
  5
4C1
  8
0
 62
     0
 10
1269.9995078594461
 20
3439.159869903126
 30
0.0
 11
1271.675507859446
 21
3439.159869903126
 31
0.0
  0
LINE
  5
4C2
  8
0
 62
     0
 10
1188.7195078594459
 20
3439.159869903126
 30
0.0
 11
1190.3955078594461
 21
3439.159869903126
 31
0.0
  0
LINE
  5
4C3
  8
0
 62
     0
 10
1234.4395078594471
 20
3434.0798699031261
 30
0.0
 11
1236.115507859447
 21
3434.0798699031261
 31
0.0
  0
LINE
  5
4C4
  8
0
 62
     0
 10
1219.1995078594471
 20
3434.0798699031261
 30
0.0
 11
1220.875507859447
 21
3434.0798699031261
 31
0.0
  0
LINE
  5
4C5
  8
0
 62
     0
 10
1254.7595078594461
 20
3439.159869903126
 30
0.0
 11
1256.435507859446
 21
3439.159869903126
 31
0.0
  0
LINE
  5
4C6
  8
0
 62
     0
 10
1239.5195078594461
 20
3439.159869903126
 30
0.0
 11
1241.195507859446
 21
3439.159869903126
 31
0.0
  0
ENDBLK
  5
4C8
  8
0
  0
BLOCK
  8
0
  2
*X31
 70
     1
 10
0.0
 20
0.0
 30
0.0
  3
*X31
  1

  0
LINE
  5
4CA
  8
0
 62
     0
 10
1198.5051954318269
 20
3544.1749777338619
 30
0.0
 11
1197.6671954318269
 21
3542.7235191571199
 31
0.0
  0
LINE
  5
4CB
  8
0
 62
     0
 10
1225.582240687952
 20
3540.2737958363132
 30
0.0
 11
1224.744240687952
 21
3538.8223372595698
 31
0.0
  0
LINE
  5
4CC
  8
0
 62
     0
 10
1252.6592859440771
 20
3536.3726139387632
 30
0.0
 11
1252.5139414573359
 21
3536.1208699031281
 31
0.0
  0
LINE
  5
4CD
  8
0
 62
     0
 10
1280.416922148976
 20
3543.8102501436629
 30
0.0
 11
1279.578922148977
 21
3542.35879156692
 31
0.0
  0
LINE
  5
4CE
  8
0
 62
     0
 10
1307.493967405102
 20
3539.9090682461119
 30
0.0
 11
1306.6559674051009
 21
3538.45760966937
 31
0.0
  0
LINE
  5
4CF
  8
0
 62
     0
 10
1339.6510126612261
 20
3544.8067044510121
 30
0.0
 11
1338.8130126612259
 21
3543.3552458742688
 31
0.0
  0
LINE
  5
4D0
  8
0
 62
     0
 10
1366.728057917351
 20
3540.9055225534621
 30
0.0
 11
1365.890057917351
 21
3539.4540639767192
 31
0.0
  0
LINE
  5
4D1
  8
0
 62
     0
 10
1393.8051031734749
 20
3537.0043406559121
 30
0.0
 11
1393.2950310965341
 21
3536.1208699031281
 31
0.0
  0
LINE
  5
4D2
  8
0
 62
     0
 10
1421.562739378375
 20
3544.4419768608118
 30
0.0
 11
1420.724739378375
 21
3542.9905182840689
 31
0.0
  0
LINE
  5
4D3
  8
0
 62
     0
 10
1448.6397846345001
 20
3540.5407949632609
 30
0.0
 11
1447.8017846345001
 21
3539.089336386518
 31
0.0
  0
LINE
  5
4D4
  8
0
 62
     0
 10
1475.7168298906249
 20
3536.6396130657108
 30
0.0
 11
1475.417333386067
 21
3536.1208699031272
 31
0.0
  0
LINE
  5
4D5
  8
0
 62
     0
 10
1480.7968298906251
 20
3545.4384311681611
 30
0.0
 11
1479.9588298906251
 21
3543.9869725914191
 31
0.0
  0
LINE
  5
4D6
  8
0
 62
     0
 10
1507.873875146749
 20
3541.5372492706119
 30
0.0
 11
1507.035875146749
 21
3540.0857906938691
 31
0.0
  0
LINE
  5
4D7
  8
0
 62
     0
 10
1534.9509204028741
 20
3537.6360673730619
 30
0.0
 11
1534.1129204028739
 21
3536.184608796319
 31
0.0
  0
LINE
  5
4D8
  8
0
 62
     0
 10
1562.708556607774
 20
3545.0737035779612
 30
0.0
 11
1561.870556607774
 21
3543.6222450012178
 31
0.0
  0
LINE
  5
4D9
  8
0
 62
     0
 10
1589.7856018638979
 20
3541.1725216804111
 30
0.0
 11
1588.9476018638991
 21
3539.7210631036678
 31
0.0
  0
LINE
  5
4DA
  8
0
 62
     0
 10
1616.8626471200239
 20
3537.2713397828611
 30
0.0
 11
1616.1984230252649
 21
3536.1208699031272
 31
0.0
  0
LINE
  5
4DB
  8
0
 62
     0
 10
1621.942647120024
 20
3546.0701578853109
 30
0.0
 11
1621.1046471200241
 21
3544.618699308568
 31
0.0
  0
LINE
  5
4DC
  8
0
 62
     0
 10
1649.019692376148
 20
3542.1689759877599
 30
0.0
 11
1648.181692376148
 21
3540.717517411018
 31
0.0
  0
LINE
  5
4DD
  8
0
 62
     0
 10
1676.0967376322731
 20
3538.2677940902108
 30
0.0
 11
1675.2587376322731
 21
3536.8163355134679
 31
0.0
  0
LINE
  5
4DE
  8
0
 62
     0
 10
1703.854373837172
 20
3545.7054302951101
 30
0.0
 11
1703.0163738371721
 21
3544.2539717183672
 31
0.0
  0
LINE
  5
4DF
  8
0
 62
     0
 10
1730.931419093298
 20
3541.804248397561
 30
0.0
 11
1730.0934190932981
 21
3540.3527898208181
 31
0.0
  0
LINE
  5
4E0
  8
0
 62
     0
 10
1758.008464349422
 20
3537.90306650001
 30
0.0
 11
1757.170464349422
 21
3536.4516079232671
 31
0.0
  0
LINE
  5
4E1
  8
0
 62
     0
 10
1762.7530153563589
 20
3546.1208699031272
 30
0.0
 11
1762.2504643494219
 21
3545.2504260257169
 31
0.0
  0
LINE
  5
4E2
  8
0
 62
     0
 10
1173.2875592269279
 20
3541.1367505801882
 30
0.0
 11
1172.449559226927
 21
3539.6852920034448
 31
0.0
  0
LINE
  5
4E3
  8
0
 62
     0
 10
1182.031020594666
 20
3546.1208699031272
 30
0.0
 11
1181.9289682781521
 21
3545.9441101058951
 31
0.0
  0
LINE
  5
4E4
  8
0
 62
     0
 10
1200.3646044830521
 20
3537.2355686826381
 30
0.0
 11
1199.7210328426361
 21
3536.1208699031281
 31
0.0
  0
LINE
  5
4E5
  8
0
 62
     0
 10
1209.8440135342771
 20
3543.494386785088
 30
0.0
 11
1209.0060135342769
 21
3542.0429282083451
 31
0.0
  0
LINE
  5
4E6
  8
0
 62
     0
 10
1236.921058790402
 20
3539.5932048875379
 30
0.0
 11
1236.083058790402
 21
3538.1417463107941
 31
0.0
  0
LINE
  5
4E7
  8
0
 62
     0
 10
1287.3563312002011
 20
3545.6696591948871
 30
0.0
 11
1286.5183312002009
 21
3544.2182006181438
 31
0.0
  0
LINE
  5
4E8
  8
0
 62
     0
 10
1314.433376456326
 20
3541.7684772973371
 30
0.0
 11
1313.595376456326
 21
3540.3170187205951
 31
0.0
  0
LINE
  5
4E9
  8
0
 62
     0
 10
1341.510421712451
 20
3537.8672953997871
 30
0.0
 11
1340.6724217124511
 21
3536.4158368230442
 31
0.0
  0
LINE
  5
4EA
  8
0
 62
     0
 10
1350.9898307636761
 20
3544.1261135022369
 30
0.0
 11
1350.1518307636759
 21
3542.6746549254949
 31
0.0
  0
LINE
  5
4EB
  8
0
 62
     0
 10
1378.0668760198009
 20
3540.2249316046868
 30
0.0
 11
1377.228876019801
 21
3538.773473027944
 31
0.0
  0
LINE
  5
4EC
  8
0
 62
     0
 10
1405.1439212759251
 20
3536.3237497071368
 30
0.0
 11
1405.0267885664671
 21
3536.1208699031281
 31
0.0
  0
LINE
  5
4ED
  8
0
 62
     0
 10
1428.3979274632641
 20
3546.1208699031272
 30
0.0
 11
1427.6641484295999
 21
3544.8499273352941
 31
0.0
  0
LINE
  5
4EE
  8
0
 62
     0
 10
1455.5791936857249
 20
3542.400204014486
 30
0.0
 11
1454.741193685725
 21
3540.948745437744
 31
0.0
  0
LINE
  5
4EF
  8
0
 62
     0
 10
1482.65623894185
 20
3538.4990221169369
 30
0.0
 11
1481.81823894185
 21
3537.047563540194
 31
0.0
  0
LINE
  5
4F0
  8
0
 62
     0
 10
1492.1356479930739
 20
3544.7578402193858
 30
0.0
 11
1491.297647993074
 21
3543.3063816426429
 31
0.0
  0
LINE
  5
4F1
  8
0
 62
     0
 10
1519.212693249199
 20
3540.8566583218371
 30
0.0
 11
1518.374693249199
 21
3539.4051997450938
 31
0.0
  0
LINE
  5
4F2
  8
0
 62
     0
 10
1546.2897385053241
 20
3536.9554764242862
 30
0.0
 11
1545.8078782056659
 21
3536.1208699031281
 31
0.0
  0
LINE
  5
4F3
  8
0
 62
     0
 10
1569.1790171024611
 20
3546.1208699031272
 30
0.0
 11
1568.8099656589991
 21
3545.481654052443
 31
0.0
  0
LINE
  5
4F4
  8
0
 62
     0
 10
1596.7250109151239
 20
3543.0319307316358
 30
0.0
 11
1595.8870109151239
 21
3541.580472154893
 31
0.0
  0
LINE
  5
4F5
  8
0
 62
     0
 10
1623.8020561712481
 20
3539.1307488340858
 30
0.0
 11
1622.9640561712481
 21
3537.6792902573429
 31
0.0
  0
LINE
  5
4F6
  8
0
 62
     0
 10
1633.281465222474
 20
3545.3895669365361
 30
0.0
 11
1632.4434652224729
 21
3543.9381083597932
 31
0.0
  0
LINE
  5
4F7
  8
0
 62
     0
 10
1660.358510478598
 20
3541.4883850389851
 30
0.0
 11
1659.520510478598
 21
3540.0369264622432
 31
0.0
  0
LINE
  5
4F8
  8
0
 62
     0
 10
1687.435555734723
 20
3537.5872031414351
 30
0.0
 11
1686.5975557347231
 21
3536.1357445646918
 31
0.0
  0
LINE
  5
4F9
  8
0
 62
     0
 10
1709.96010674166
 20
3546.1208699031272
 30
0.0
 11
1709.9557828883981
 21
3546.1133807695919
 31
0.0
  0
LINE
  5
4FA
  8
0
 62
     0
 10
1737.870828144522
 20
3543.6636574487861
 30
0.0
 11
1737.032828144522
 21
3542.2121988720428
 31
0.0
  0
LINE
  5
4FB
  8
0
 62
     0
 10
1764.947873400647
 20
3539.7624755512352
 30
0.0
 11
1764.1098734006471
 21
3538.3110169744932
 31
0.0
  0
LINE
  5
4FC
  8
0
 62
     0
 10
1774.4272824518721
 20
3546.021293653685
 30
0.0
 11
1773.5892824518719
 21
3544.5698350769421
 31
0.0
  0
LINE
  5
4FD
  8
0
 62
     0
 10
1184.626377329377
 20
3540.4561596314129
 30
0.0
 11
1183.788377329377
 21
3539.00470105467
 31
0.0
  0
LINE
  5
4FE
  8
0
 62
     0
 10
1211.703422585502
 20
3536.554977733862
 30
0.0
 11
1211.45279031257
 21
3536.1208699031281
 31
0.0
  0
LINE
  5
4FF
  8
0
 62
     0
 10
1246.400467841627
 20
3545.8520229899882
 30
0.0
 11
1245.562467841627
 21
3544.4005644132449
 31
0.0
  0
LINE
  5
500
  8
0
 62
     0
 10
1273.4775130977509
 20
3541.9508410924368
 30
0.0
 11
1272.639513097751
 21
3540.4993825156939
 31
0.0
  0
LINE
  5
501
  8
0
 62
     0
 10
1298.6951493026511
 20
3544.9890682461119
 30
0.0
 11
1297.8571493026509
 21
3543.5376096693699
 31
0.0
  0
LINE
  5
502
  8
0
 62
     0
 10
1300.554558353876
 20
3538.0496591948859
 30
0.0
 11
1299.7165583538761
 21
3536.5982006181439
 31
0.0
  0
LINE
  5
503
  8
0
 62
     0
 10
1325.7721945587759
 20
3541.0878863485618
 30
0.0
 11
1324.934194558776
 21
3539.6364277718189
 31
0.0
  0
LINE
  5
504
  8
0
 62
     0
 10
1352.849239814901
 20
3537.1867044510118
 30
0.0
 11
1352.2338799517679
 21
3536.1208699031281
 31
0.0
  0
LINE
  5
505
  8
0
 62
     0
 10
1387.336776318497
 20
3546.1208699031272
 30
0.0
 11
1386.708285071026
 21
3545.0322911303929
 31
0.0
  0
LINE
  5
506
  8
0
 62
     0
 10
1414.6233303271499
 20
3542.5825678095871
 30
0.0
 11
1413.7853303271499
 21
3541.1311092328442
 31
0.0
  0
LINE
  5
507
  8
0
 62
     0
 10
1439.8409665320501
 20
3545.6207949632608
 30
0.0
 11
1439.0029665320501
 21
3544.1693363865188
 31
0.0
  0
LINE
  5
508
  8
0
 62
     0
 10
1441.700375583275
 20
3538.6813859120361
 30
0.0
 11
1440.862375583275
 21
3537.2299273352942
 31
0.0
  0
LINE
  5
509
  8
0
 62
     0
 10
1466.9180117881749
 20
3541.7196130657112
 30
0.0
 11
1466.0800117881749
 21
3540.2681544889679
 31
0.0
  0
LINE
  5
50A
  8
0
 62
     0
 10
1493.9950570443
 20
3537.8184311681621
 30
0.0
 11
1493.1570570443
 21
3536.3669725914192
 31
0.0
  0
LINE
  5
50B
  8
0
 62
     0
 10
1528.1178659576949
 20
3546.1208699031272
 30
0.0
 11
1527.8541023004241
 21
3545.6640178475432
 31
0.0
  0
LINE
  5
50C
  8
0
 62
     0
 10
1555.7691475565489
 20
3543.2142945267369
 30
0.0
 11
1554.9311475565489
 21
3541.762835949994
 31
0.0
  0
LINE
  5
50D
  8
0
 62
     0
 10
1580.910774572395
 20
3546.1208699031272
 30
0.0
 11
1580.1487837614479
 21
3544.8010631036682
 31
0.0
  0
LINE
  5
50E
  8
0
 62
     0
 10
1582.8461928126731
 20
3539.313112629186
 30
0.0
 11
1582.0081928126731
 21
3537.8616540524431
 31
0.0
  0
LINE
  5
50F
  8
0
 62
     0
 10
1608.063829017573
 20
3542.351339782861
 30
0.0
 11
1607.225829017573
 21
3540.8998812061191
 31
0.0
  0
LINE
  5
510
  8
0
 62
     0
 10
1635.140874273698
 20
3538.450157885311
 30
0.0
 11
1634.3028742736981
 21
3536.9986993085681
 31
0.0
  0
LINE
  5
511
  8
0
 62
     0
 10
1696.9149647859481
 20
3543.8460212438858
 30
0.0
 11
1696.076964785947
 21
3542.394562667143
 31
0.0
  0
LINE
  5
512
  8
0
 62
     0
 10
1721.6918642115929
 20
3546.1208699031272
 30
0.0
 11
1721.2946009908469
 21
3545.432789820818
 31
0.0
  0
LINE
  5
513
  8
0
 62
     0
 10
1723.9920100420729
 20
3539.9448393463358
 30
0.0
 11
1723.154010042073
 21
3538.4933807695929
 31
0.0
  0
LINE
  5
514
  8
0
 62
     0
 10
1749.2096462469719
 20
3542.98306650001
 30
0.0
 11
1748.371646246972
 21
3541.531607923268
 31
0.0
  0
LINE
  5
515
  8
0
 62
     0
 10
1775.833961191651
 20
3538.2977327009089
 30
0.0
 11
1775.4486915030971
 21
3537.630426025717
 31
0.0
  0
LINE
  5
516
  8
0
 62
     0
 10
1741.0189368483159
 20
3543.2439890835221
 30
0.0
 11
1740.1809368483159
 21
3544.695447660265
 31
0.0
  0
LINE
  5
517
  8
0
 62
     0
 10
1709.542482540965
 20
3536.8028071859721
 30
0.0
 11
1708.704482540965
 21
3538.254265762715
 31
0.0
  0
LINE
  5
518
  8
0
 62
     0
 10
1700.0630734897411
 20
3543.061625288422
 30
0.0
 11
1699.2250734897409
 21
3544.5130838651648
 31
0.0
  0
LINE
  5
519
  8
0
 62
     0
 10
1663.5066191823901
 20
3545.4192614933249
 30
0.0
 11
1663.101545378124
 21
3546.120869903129
 31
0.0
  0
LINE
  5
51A
  8
0
 62
     0
 10
1668.58661918239
 20
3536.6204433908738
 30
0.0
 11
1667.74861918239
 21
3538.0719019676171
 31
0.0
  0
LINE
  5
51B
  8
0
 62
     0
 10
1632.030164875041
 20
3538.9780795957722
 30
0.0
 11
1631.192164875042
 21
3540.4295381725151
 31
0.0
  0
LINE
  5
51C
  8
0
 62
     0
 10
1622.5507558238171
 20
3545.236897698222
 30
0.0
 11
1622.0403942333569
 21
3546.120869903129
 31
0.0
  0
LINE
  5
51D
  8
0
 62
     0
 10
1591.074301516466
 20
3538.795715800672
 30
0.0
 11
1590.2363015164669
 21
3540.2471743774149
 31
0.0
  0
LINE
  5
51E
  8
0
 62
     0
 10
1554.5178472091161
 20
3541.1533520055732
 30
0.0
 11
1553.6798472091159
 21
3542.6048105823161
 31
0.0
  0
LINE
  5
51F
  8
0
 62
     0
 10
1522.2280796958539
 20
3536.120869903129
 30
0.0
 11
1522.2033929017671
 21
3536.1636286847638
 31
0.0
  0
LINE
  5
520
  8
0
 62
     0
 10
1513.5619838505411
 20
3540.970988210473
 30
0.0
 11
1512.7239838505409
 21
3542.4224467872159
 31
0.0
  0
LINE
  5
521
  8
0
 62
     0
 10
1477.0055295431921
 20
3543.3286244153719
 30
0.0
 11
1476.1675295431919
 21
3544.7800829921148
 31
0.0
  0
LINE
  5
522
  8
0
 62
     0
 10
1445.5290752358419
 20
3536.8874425178228
 30
0.0
 11
1444.6910752358419
 21
3538.3389010945662
 31
0.0
  0
LINE
  5
523
  8
0
 62
     0
 10
1436.0496661846171
 20
3543.1462606202722
 30
0.0
 11
1435.2116661846169
 21
3544.5977191970151
 31
0.0
  0
LINE
  5
524
  8
0
 62
     0
 10
1399.493211877269
 20
3545.5038968251702
 30
0.0
 11
1399.137002304627
 21
3546.120869903129
 31
0.0
  0
LINE
  5
525
  8
0
 62
     0
 10
1404.5732118772689
 20
3536.7050787227199
 30
0.0
 11
1403.735211877269
 21
3538.1565372994628
 31
0.0
  0
LINE
  5
526
  8
0
 62
     0
 10
1368.0167575699179
 20
3539.0627149276211
 30
0.0
 11
1367.1787575699179
 21
3540.514173504364
 31
0.0
  0
LINE
  5
527
  8
0
 62
     0
 10
1358.5373485186931
 20
3545.3215330300718
 30
0.0
 11
1358.0758511598599
 21
3546.120869903129
 31
0.0
  0
LINE
  5
528
  8
0
 62
     0
 10
1327.0608942113431
 20
3538.8803511325232
 30
0.0
 11
1326.2228942113429
 21
3540.3318097092661
 31
0.0
  0
LINE
  5
529
  8
0
 62
     0
 10
1290.504439903993
 20
3541.2379873374211
 30
0.0
 11
1289.666439903993
 21
3542.689445914164
 31
0.0
  0
LINE
  5
52A
  8
0
 62
     0
 10
1258.2635366223569
 20
3536.120869903129
 30
0.0
 11
1258.189985596644
 21
3536.248264016614
 31
0.0
  0
LINE
  5
52B
  8
0
 62
     0
 10
1249.54857654542
 20
3541.0556235423201
 30
0.0
 11
1248.7105765454201
 21
3542.5070821190629
 31
0.0
  0
LINE
  5
52C
  8
0
 62
     0
 10
1212.992122238069
 20
3543.4132597472212
 30
0.0
 11
1212.154122238069
 21
3544.8647183239641
 31
0.0
  0
LINE
  5
52D
  8
0
 62
     0
 10
1181.515667930719
 20
3536.9720778496712
 30
0.0
 11
1180.67766793072
 21
3538.4235364264141
 31
0.0
  0
LINE
  5
52E
  8
0
 62
     0
 10
1172.0362588794951
 20
3543.2308959521201
 30
0.0
 11
1171.1982588794961
 21
3544.682354528863
 31
0.0
  0
LINE
  5
52F
  8
0
 62
     0
 10
1770.6359821044391
 20
3542.7457619298498
 30
0.0
 11
1769.7979821044389
 21
3544.1972205065931
 31
0.0
  0
LINE
  5
530
  8
0
 62
     0
 10
1739.1595277970889
 20
3536.3045800322989
 30
0.0
 11
1738.3215277970889
 21
3537.7560386090422
 31
0.0
  0
LINE
  5
531
  8
0
 62
     0
 10
1725.280709694639
 20
3540.023398134751
 30
0.0
 11
1724.442709694639
 21
3541.4748567114939
 31
0.0
  0
LINE
  5
532
  8
0
 62
     0
 10
1693.123664438514
 20
3544.9210343396499
 30
0.0
 11
1692.4309390529561
 21
3546.120869903129
 31
0.0
  0
LINE
  5
533
  8
0
 62
     0
 10
1661.6472101311649
 20
3538.4798524420999
 30
0.0
 11
1660.8092101311649
 21
3539.9313110188418
 31
0.0
  0
LINE
  5
534
  8
0
 62
     0
 10
1647.768392028715
 20
3542.1986705445502
 30
0.0
 11
1646.930392028715
 21
3543.650129121293
 31
0.0
  0
LINE
  5
535
  8
0
 62
     0
 10
1616.08213945532
 20
3536.120869903129
 30
0.0
 11
1615.453937721365
 21
3537.2089472237408
 31
0.0
  0
LINE
  5
536
  8
0
 62
     0
 10
1584.134892465242
 20
3540.6551248518972
 30
0.0
 11
1583.2968924652409
 21
3542.1065834286401
 31
0.0
  0
LINE
  5
537
  8
0
 62
     0
 10
1570.256074362791
 20
3544.373942954348
 30
0.0
 11
1569.418074362791
 21
3545.8254015310908
 31
0.0
  0
LINE
  5
538
  8
0
 62
     0
 10
1538.779620055441
 20
3537.932761056798
 30
0.0
 11
1537.941620055441
 21
3539.3842196335409
 31
0.0
  0
LINE
  5
539
  8
0
 62
     0
 10
1506.622574799316
 20
3542.8303972616982
 30
0.0
 11
1505.784574799316
 21
3544.2818558384402
 31
0.0
  0
LINE
  5
53A
  8
0
 62
     0
 10
1475.146120491966
 20
3536.3892153641482
 30
0.0
 11
1474.3081204919661
 21
3537.8406739408911
 31
0.0
  0
LINE
  5
53B
  8
0
 62
     0
 10
1461.267302389517
 20
3540.108033466598
 30
0.0
 11
1460.429302389517
 21
3541.5594920433409
 31
0.0
  0
LINE
  5
53C
  8
0
 62
     0
 10
1429.1102571333911
 20
3545.0056696714978
 30
0.0
 11
1428.4663959794591
 21
3546.120869903129
 31
0.0
  0
LINE
  5
53D
  8
0
 62
     0
 10
1397.633802826042
 20
3538.5644877739478
 30
0.0
 11
1396.7958028260421
 21
3540.0159463506911
 31
0.0
  0
LINE
  5
53E
  8
0
 62
     0
 10
1383.7549847235921
 20
3542.283305876399
 30
0.0
 11
1382.9169847235919
 21
3543.734764453141
 31
0.0
  0
LINE
  5
53F
  8
0
 62
     0
 10
1352.117596381823
 20
3536.120869903129
 30
0.0
 11
1351.4405304162419
 21
3537.2935825555901
 31
0.0
  0
LINE
  5
540
  8
0
 62
     0
 10
1320.121485160118
 20
3540.739760183747
 30
0.0
 11
1319.2834851601181
 21
3542.1912187604898
 31
0.0
  0
LINE
  5
541
  8
0
 62
     0
 10
1306.242667057669
 20
3544.4585782861968
 30
0.0
 11
1305.4046670576679
 21
3545.9100368629402
 31
0.0
  0
LINE
  5
542
  8
0
 62
     0
 10
1274.766212750317
 20
3538.01739638865
 30
0.0
 11
1273.928212750317
 21
3539.4688549653929
 31
0.0
  0
LINE
  5
543
  8
0
 62
     0
 10
1242.6091674941929
 20
3542.9150325935479
 30
0.0
 11
1241.7711674941929
 21
3544.3664911702908
 31
0.0
  0
LINE
  5
544
  8
0
 62
     0
 10
1211.132713186842
 20
3536.4738506959989
 30
0.0
 11
1210.294713186842
 21
3537.9253092727422
 31
0.0
  0
LINE
  5
545
  8
0
 62
     0
 10
1197.253895084393
 20
3540.1926687984478
 30
0.0
 11
1196.415895084393
 21
3541.6441273751911
 31
0.0
  0
LINE
  5
546
  8
0
 62
     0
 10
1756.8632290945179
 20
3536.120869903129
 30
0.0
 11
1756.5997549507649
 21
3536.5772205065909
 31
0.0
  0
LINE
  5
547
  8
0
 62
     0
 10
1718.341300643415
 20
3541.882807185973
 30
0.0
 11
1717.5033006434151
 21
3543.3342657627159
 31
0.0
  0
LINE
  5
548
  8
0
 62
     0
 10
1711.4018915921899
 20
3543.7422162371981
 30
0.0
 11
1710.56389159219
 21
3545.193674813941
 31
0.0
  0
LINE
  5
549
  8
0
 62
     0
 10
1686.4726842749189
 20
3536.120869903129
 30
0.0
 11
1686.026846336066
 21
3536.893083865165
 31
0.0
  0
LINE
  5
54A
  8
0
 62
     0
 10
1679.925437284842
 20
3537.301034339645
 30
0.0
 11
1679.0874372848421
 21
3538.7524929163878
 31
0.0
  0
LINE
  5
54B
  8
0
 62
     0
 10
1640.828982977491
 20
3544.0580795957731
 30
0.0
 11
1639.9909829774911
 21
3545.5095381725159
 31
0.0
  0
LINE
  5
54C
  8
0
 62
     0
 10
1633.8895739262659
 20
3545.9174886469968
 30
0.0
 11
1633.772151703291
 21
3546.120869903129
 31
0.0
  0
LINE
  5
54D
  8
0
 62
     0
 10
1609.3525286701411
 20
3537.6168976982221
 30
0.0
 11
1608.514528670142
 21
3539.0683562749641
 31
0.0
  0
LINE
  5
54E
  8
0
 62
     0
 10
1602.413119618916
 20
3539.4763067494482
 30
0.0
 11
1601.575119618916
 21
3540.9277653261911
 31
0.0
  0
LINE
  5
54F
  8
0
 62
     0
 10
1531.8402110042171
 20
3539.7921701080231
 30
0.0
 11
1531.0022110042171
 21
3541.243628684766
 31
0.0
  0
LINE
  5
550
  8
0
 62
     0
 10
1524.9008019529931
 20
3541.651579159246
 30
0.0
 11
1524.0628019529929
 21
3543.103037735988
 31
0.0
  0
LINE
  5
551
  8
0
 62
     0
 10
1492.8986860210209
 20
3536.120869903129
 30
0.0
 11
1492.586347645642
 21
3536.6618558384398
 31
0.0
  0
LINE
  5
552
  8
0
 62
     0
 10
1454.3278933382931
 20
3541.9674425178209
 30
0.0
 11
1453.4898933382931
 21
3543.4189010945638
 31
0.0
  0
LINE
  5
553
  8
0
 62
     0
 10
1447.388484287068
 20
3543.826851569047
 30
0.0
 11
1446.550484287068
 21
3545.2783101457899
 31
0.0
  0
LINE
  5
554
  8
0
 62
     0
 10
1422.5081412014219
 20
3536.120869903129
 30
0.0
 11
1422.013439030942
 21
3536.977719197017
 31
0.0
  0
LINE
  5
555
  8
0
 62
     0
 10
1415.912029979718
 20
3537.3856696714961
 30
0.0
 11
1415.074029979718
 21
3538.837128248239
 31
0.0
  0
LINE
  5
556
  8
0
 62
     0
 10
1376.8155756723679
 20
3544.1427149276219
 30
0.0
 11
1375.9775756723679
 21
3545.5941735043648
 31
0.0
  0
LINE
  5
557
  8
0
 62
     0
 10
1369.8761666211419
 20
3546.002123978848
 30
0.0
 11
1369.8076086297931
 21
3546.120869903129
 31
0.0
  0
LINE
  5
558
  8
0
 62
     0
 10
1345.3391213650191
 20
3537.7015330300719
 30
0.0
 11
1344.5011213650189
 21
3539.1529916068139
 31
0.0
  0
LINE
  5
559
  8
0
 62
     0
 10
1338.399712313794
 20
3539.5609420812948
 30
0.0
 11
1337.561712313794
 21
3541.0124006580381
 31
0.0
  0
LINE
  5
55A
  8
0
 62
     0
 10
1267.8268036990939
 20
3539.876805439872
 30
0.0
 11
1266.988803699094
 21
3541.3282640166149
 31
0.0
  0
LINE
  5
55B
  8
0
 62
     0
 10
1260.8873946478691
 20
3541.7362144910958
 30
0.0
 11
1260.0493946478689
 21
3543.1876730678391
 31
0.0
  0
LINE
  5
55C
  8
0
 62
     0
 10
1228.9341429475239
 20
3536.120869903129
 30
0.0
 11
1228.572940340518
 21
3536.7464911702909
 31
0.0
  0
LINE
  5
55D
  8
0
 62
     0
 10
1190.3144860331699
 20
3542.0520778496712
 30
0.0
 11
1189.47648603317
 21
3543.503536426414
 31
0.0
  0
LINE
  5
55E
  8
0
 62
     0
 10
1183.3750769819451
 20
3543.9114869008959
 30
0.0
 11
1182.5370769819449
 21
3545.3629454776392
 31
0.0
  0
LINE
  5
55F
  8
0
 62
     0
 10
1732.2795078594449
 20
3540.759869903125
 30
0.0
 11
1733.9555078594451
 21
3540.759869903125
 31
0.0
  0
LINE
  5
560
  8
0
 62
     0
 10
1722.1195078594451
 20
3540.759869903125
 30
0.0
 11
1723.795507859445
 21
3540.759869903125
 31
0.0
  0
LINE
  5
561
  8
0
 62
     0
 10
1620.519507859445
 20
3540.759869903125
 30
0.0
 11
1622.1955078594449
 21
3540.759869903125
 31
0.0
  0
LINE
  5
562
  8
0
 62
     0
 10
1610.3595078594451
 20
3540.759869903125
 30
0.0
 11
1612.035507859445
 21
3540.759869903125
 31
0.0
  0
LINE
  5
563
  8
0
 62
     0
 10
1508.7595078594461
 20
3540.759869903125
 30
0.0
 11
1510.4355078594449
 21
3540.759869903125
 31
0.0
  0
LINE
  5
564
  8
0
 62
     0
 10
1498.599507859446
 20
3540.759869903125
 30
0.0
 11
1500.275507859446
 21
3540.759869903125
 31
0.0
  0
LINE
  5
565
  8
0
 62
     0
 10
1396.9995078594461
 20
3540.759869903125
 30
0.0
 11
1398.675507859446
 21
3540.759869903125
 31
0.0
  0
LINE
  5
566
  8
0
 62
     0
 10
1386.839507859446
 20
3540.759869903125
 30
0.0
 11
1388.515507859446
 21
3540.759869903125
 31
0.0
  0
LINE
  5
567
  8
0
 62
     0
 10
1285.2395078594459
 20
3540.759869903125
 30
0.0
 11
1286.9155078594461
 21
3540.759869903125
 31
0.0
  0
LINE
  5
568
  8
0
 62
     0
 10
1275.079507859446
 20
3540.759869903125
 30
0.0
 11
1276.755507859446
 21
3540.759869903125
 31
0.0
  0
LINE
  5
569
  8
0
 62
     0
 10
1173.4795078594459
 20
3540.759869903125
 30
0.0
 11
1175.1555078594461
 21
3540.759869903125
 31
0.0
  0
LINE
  5
56A
  8
0
 62
     0
 10
1752.5995078594451
 20
3545.839869903125
 30
0.0
 11
1754.275507859445
 21
3545.839869903125
 31
0.0
  0
LINE
  5
56B
  8
0
 62
     0
 10
1742.439507859445
 20
3545.839869903125
 30
0.0
 11
1744.115507859445
 21
3545.839869903125
 31
0.0
  0
LINE
  5
56C
  8
0
 62
     0
 10
1640.8395078594449
 20
3545.839869903125
 30
0.0
 11
1642.5155078594451
 21
3545.839869903125
 31
0.0
  0
LINE
  5
56D
  8
0
 62
     0
 10
1630.679507859445
 20
3545.839869903125
 30
0.0
 11
1632.355507859445
 21
3545.839869903125
 31
0.0
  0
LINE
  5
56E
  8
0
 62
     0
 10
1529.0795078594449
 20
3545.839869903125
 30
0.0
 11
1530.7555078594451
 21
3545.839869903125
 31
0.0
  0
LINE
  5
56F
  8
0
 62
     0
 10
1518.919507859445
 20
3545.839869903125
 30
0.0
 11
1520.595507859445
 21
3545.839869903125
 31
0.0
  0
LINE
  5
570
  8
0
 62
     0
 10
1417.319507859446
 20
3545.839869903125
 30
0.0
 11
1418.9955078594451
 21
3545.839869903125
 31
0.0
  0
LINE
  5
571
  8
0
 62
     0
 10
1407.159507859446
 20
3545.839869903125
 30
0.0
 11
1408.8355078594459
 21
3545.839869903125
 31
0.0
  0
LINE
  5
572
  8
0
 62
     0
 10
1305.5595078594461
 20
3545.839869903125
 30
0.0
 11
1307.2355078594451
 21
3545.839869903125
 31
0.0
  0
LINE
  5
573
  8
0
 62
     0
 10
1295.399507859446
 20
3545.839869903125
 30
0.0
 11
1297.0755078594459
 21
3545.839869903125
 31
0.0
  0
LINE
  5
574
  8
0
 62
     0
 10
1193.7995078594461
 20
3545.839869903125
 30
0.0
 11
1195.475507859446
 21
3545.839869903125
 31
0.0
  0
LINE
  5
575
  8
0
 62
     0
 10
1183.639507859446
 20
3545.839869903125
 30
0.0
 11
1185.3155078594459
 21
3545.839869903125
 31
0.0
  0
LINE
  5
576
  8
0
 62
     0
 10
1706.879507859446
 20
3540.759869903125
 30
0.0
 11
1708.5555078594459
 21
3540.759869903125
 31
0.0
  0
LINE
  5
577
  8
0
 62
     0
 10
1676.399507859446
 20
3540.759869903125
 30
0.0
 11
1678.0755078594459
 21
3540.759869903125
 31
0.0
  0
LINE
  5
578
  8
0
 62
     0
 10
1595.119507859446
 20
3540.759869903125
 30
0.0
 11
1596.7955078594459
 21
3540.759869903125
 31
0.0
  0
LINE
  5
579
  8
0
 62
     0
 10
1564.639507859446
 20
3540.759869903125
 30
0.0
 11
1566.3155078594459
 21
3540.759869903125
 31
0.0
  0
LINE
  5
57A
  8
0
 62
     0
 10
1483.359507859446
 20
3540.759869903125
 30
0.0
 11
1485.0355078594459
 21
3540.759869903125
 31
0.0
  0
LINE
  5
57B
  8
0
 62
     0
 10
1452.879507859446
 20
3540.759869903125
 30
0.0
 11
1454.5555078594459
 21
3540.759869903125
 31
0.0
  0
LINE
  5
57C
  8
0
 62
     0
 10
1371.599507859446
 20
3540.759869903125
 30
0.0
 11
1373.275507859446
 21
3540.759869903125
 31
0.0
  0
LINE
  5
57D
  8
0
 62
     0
 10
1341.119507859446
 20
3540.759869903125
 30
0.0
 11
1342.7955078594459
 21
3540.759869903125
 31
0.0
  0
LINE
  5
57E
  8
0
 62
     0
 10
1259.839507859446
 20
3540.759869903125
 30
0.0
 11
1261.515507859446
 21
3540.759869903125
 31
0.0
  0
LINE
  5
57F
  8
0
 62
     0
 10
1229.359507859446
 20
3540.759869903125
 30
0.0
 11
1231.0355078594459
 21
3540.759869903125
 31
0.0
  0
LINE
  5
580
  8
0
 62
     0
 10
1727.1995078594459
 20
3545.839869903125
 30
0.0
 11
1728.8755078594461
 21
3545.839869903125
 31
0.0
  0
LINE
  5
581
  8
0
 62
     0
 10
1696.7195078594459
 20
3545.839869903125
 30
0.0
 11
1698.3955078594461
 21
3545.839869903125
 31
0.0
  0
LINE
  5
582
  8
0
 62
     0
 10
1615.4395078594459
 20
3545.839869903125
 30
0.0
 11
1617.1155078594461
 21
3545.839869903125
 31
0.0
  0
LINE
  5
583
  8
0
 62
     0
 10
1584.9595078594459
 20
3545.839869903125
 30
0.0
 11
1586.6355078594461
 21
3545.839869903125
 31
0.0
  0
LINE
  5
584
  8
0
 62
     0
 10
1503.6795078594459
 20
3545.839869903125
 30
0.0
 11
1505.3555078594461
 21
3545.839869903125
 31
0.0
  0
LINE
  5
585
  8
0
 62
     0
 10
1473.1995078594459
 20
3545.839869903125
 30
0.0
 11
1474.8755078594461
 21
3545.839869903125
 31
0.0
  0
LINE
  5
586
  8
0
 62
     0
 10
1391.919507859446
 20
3545.839869903125
 30
0.0
 11
1393.5955078594459
 21
3545.839869903125
 31
0.0
  0
LINE
  5
587
  8
0
 62
     0
 10
1361.4395078594459
 20
3545.839869903125
 30
0.0
 11
1363.1155078594461
 21
3545.839869903125
 31
0.0
  0
LINE
  5
588
  8
0
 62
     0
 10
1280.159507859446
 20
3545.839869903125
 30
0.0
 11
1281.8355078594459
 21
3545.839869903125
 31
0.0
  0
LINE
  5
589
  8
0
 62
     0
 10
1249.6795078594459
 20
3545.839869903125
 30
0.0
 11
1251.3555078594461
 21
3545.839869903125
 31
0.0
  0
LINE
  5
58A
  8
0
 62
     0
 10
1168.399507859446
 20
3545.839869903125
 30
0.0
 11
1170.0755078594459
 21
3545.839869903125
 31
0.0
  0
LINE
  5
58B
  8
0
 62
     0
 10
1772.919507859446
 20
3540.759869903125
 30
0.0
 11
1774.5955078594459
 21
3540.759869903125
 31
0.0
  0
LINE
  5
58C
  8
0
 62
     0
 10
1757.6795078594459
 20
3540.759869903125
 30
0.0
 11
1759.3555078594461
 21
3540.759869903125
 31
0.0
  0
LINE
  5
58D
  8
0
 62
     0
 10
1661.159507859446
 20
3540.759869903125
 30
0.0
 11
1662.8355078594459
 21
3540.759869903125
 31
0.0
  0
LINE
  5
58E
  8
0
 62
     0
 10
1645.919507859446
 20
3540.759869903125
 30
0.0
 11
1647.5955078594459
 21
3540.759869903125
 31
0.0
  0
LINE
  5
58F
  8
0
 62
     0
 10
1549.399507859446
 20
3540.759869903125
 30
0.0
 11
1551.0755078594459
 21
3540.759869903125
 31
0.0
  0
LINE
  5
590
  8
0
 62
     0
 10
1534.159507859446
 20
3540.759869903125
 30
0.0
 11
1535.8355078594459
 21
3540.759869903125
 31
0.0
  0
LINE
  5
591
  8
0
 62
     0
 10
1437.639507859446
 20
3540.759869903125
 30
0.0
 11
1439.3155078594459
 21
3540.759869903125
 31
0.0
  0
LINE
  5
592
  8
0
 62
     0
 10
1422.399507859446
 20
3540.759869903125
 30
0.0
 11
1424.0755078594459
 21
3540.759869903125
 31
0.0
  0
LINE
  5
593
  8
0
 62
     0
 10
1325.879507859446
 20
3540.759869903125
 30
0.0
 11
1327.5555078594459
 21
3540.759869903125
 31
0.0
  0
LINE
  5
594
  8
0
 62
     0
 10
1310.639507859446
 20
3540.759869903125
 30
0.0
 11
1312.3155078594459
 21
3540.759869903125
 31
0.0
  0
LINE
  5
595
  8
0
 62
     0
 10
1214.119507859446
 20
3540.759869903125
 30
0.0
 11
1215.7955078594459
 21
3540.759869903125
 31
0.0
  0
LINE
  5
596
  8
0
 62
     0
 10
1198.879507859446
 20
3540.759869903125
 30
0.0
 11
1200.5555078594459
 21
3540.759869903125
 31
0.0
  0
LINE
  5
597
  8
0
 62
     0
 10
1681.4795078594459
 20
3545.839869903125
 30
0.0
 11
1683.1555078594461
 21
3545.839869903125
 31
0.0
  0
LINE
  5
598
  8
0
 62
     0
 10
1666.2395078594459
 20
3545.839869903125
 30
0.0
 11
1667.9155078594461
 21
3545.839869903125
 31
0.0
  0
LINE
  5
599
  8
0
 62
     0
 10
1569.7195078594459
 20
3545.839869903125
 30
0.0
 11
1571.3955078594461
 21
3545.839869903125
 31
0.0
  0
LINE
  5
59A
  8
0
 62
     0
 10
1554.4795078594459
 20
3545.839869903125
 30
0.0
 11
1556.1555078594461
 21
3545.839869903125
 31
0.0
  0
LINE
  5
59B
  8
0
 62
     0
 10
1457.9595078594459
 20
3545.839869903125
 30
0.0
 11
1459.6355078594461
 21
3545.839869903125
 31
0.0
  0
LINE
  5
59C
  8
0
 62
     0
 10
1442.7195078594459
 20
3545.839869903125
 30
0.0
 11
1444.3955078594461
 21
3545.839869903125
 31
0.0
  0
LINE
  5
59D
  8
0
 62
     0
 10
1346.1995078594459
 20
3545.839869903125
 30
0.0
 11
1347.8755078594461
 21
3545.839869903125
 31
0.0
  0
LINE
  5
59E
  8
0
 62
     0
 10
1330.9595078594459
 20
3545.839869903125
 30
0.0
 11
1332.6355078594461
 21
3545.839869903125
 31
0.0
  0
LINE
  5
59F
  8
0
 62
     0
 10
1234.4395078594459
 20
3545.839869903125
 30
0.0
 11
1236.1155078594461
 21
3545.839869903125
 31
0.0
  0
LINE
  5
5A0
  8
0
 62
     0
 10
1219.1995078594459
 20
3545.839869903125
 30
0.0
 11
1220.8755078594461
 21
3545.839869903125
 31
0.0
  0
ENDBLK
  5
5A2
  8
0
  0
BLOCK
  8
0
  2
*X32
 70
     1
 10
0.0
 20
0.0
 30
0.0
  3
*X32
  1

  0
LINE
  5
5A4
  8
0
 62
     0
 10
1415.9999611916339
 20
2907.2246187925489
 30
0.0
 11
1415.9999611916339
 21
3369.1208699031299
 31
0.0
  0
LINE
  5
5A5
  8
0
 62
     0
 10
1405.833961191651
 20
2915.9999308007818
 30
0.0
 11
1425.833961191651
 21
2915.9999308007818
 31
0.0
  0
LINE
  5
5A6
  8
0
 62
     0
 10
1405.833961191651
 20
2927.9999308007818
 30
0.0
 11
1425.833961191651
 21
2927.9999308007818
 31
0.0
  0
LINE
  5
5A7
  8
0
 62
     0
 10
1405.833961191651
 20
2939.9999308007818
 30
0.0
 11
1425.833961191651
 21
2939.9999308007818
 31
0.0
  0
LINE
  5
5A8
  8
0
 62
     0
 10
1405.833961191651
 20
2951.9999308007818
 30
0.0
 11
1425.833961191651
 21
2951.9999308007818
 31
0.0
  0
LINE
  5
5A9
  8
0
 62
     0
 10
1405.833961191652
 20
2963.9999308007832
 30
0.0
 11
1425.833961191651
 21
2963.9999308007832
 31
0.0
  0
LINE
  5
5AA
  8
0
 62
     0
 10
1405.833961191652
 20
2975.9999308007818
 30
0.0
 11
1425.833961191652
 21
2975.9999308007818
 31
0.0
  0
LINE
  5
5AB
  8
0
 62
     0
 10
1405.833961191652
 20
2987.9999308007818
 30
0.0
 11
1425.833961191652
 21
2987.9999308007818
 31
0.0
  0
LINE
  5
5AC
  8
0
 62
     0
 10
1405.833961191652
 20
2999.9999308007818
 30
0.0
 11
1425.833961191652
 21
2999.9999308007818
 31
0.0
  0
LINE
  5
5AD
  8
0
 62
     0
 10
1405.833961191652
 20
3011.9999308007818
 30
0.0
 11
1425.833961191652
 21
3011.9999308007818
 31
0.0
  0
LINE
  5
5AE
  8
0
 62
     0
 10
1405.833961191652
 20
3023.9999308007818
 30
0.0
 11
1425.833961191652
 21
3023.9999308007818
 31
0.0
  0
LINE
  5
5AF
  8
0
 62
     0
 10
1405.833961191652
 20
3035.9999308007832
 30
0.0
 11
1425.833961191652
 21
3035.9999308007832
 31
0.0
  0
LINE
  5
5B0
  8
0
 62
     0
 10
1405.833961191652
 20
3047.9999308007832
 30
0.0
 11
1425.833961191652
 21
3047.9999308007832
 31
0.0
  0
LINE
  5
5B1
  8
0
 62
     0
 10
1405.833961191652
 20
3059.9999308007832
 30
0.0
 11
1425.833961191652
 21
3059.9999308007832
 31
0.0
  0
LINE
  5
5B2
  8
0
 62
     0
 10
1405.833961191652
 20
3071.9999308007832
 30
0.0
 11
1425.833961191652
 21
3071.9999308007832
 31
0.0
  0
LINE
  5
5B3
  8
0
 62
     0
 10
1405.833961191652
 20
3083.9999308007832
 30
0.0
 11
1425.833961191652
 21
3083.9999308007832
 31
0.0
  0
LINE
  5
5B4
  8
0
 62
     0
 10
1405.833961191652
 20
3095.9999308007832
 30
0.0
 11
1425.833961191652
 21
3095.9999308007832
 31
0.0
  0
LINE
  5
5B5
  8
0
 62
     0
 10
1405.833961191652
 20
3107.9999308007832
 30
0.0
 11
1425.833961191652
 21
3107.9999308007832
 31
0.0
  0
LINE
  5
5B6
  8
0
 62
     0
 10
1405.833961191652
 20
3119.9999308007818
 30
0.0
 11
1425.833961191652
 21
3119.9999308007818
 31
0.0
  0
LINE
  5
5B7
  8
0
 62
     0
 10
1405.8339611916531
 20
3131.9999308007832
 30
0.0
 11
1425.833961191652
 21
3131.9999308007832
 31
0.0
  0
LINE
  5
5B8
  8
0
 62
     0
 10
1405.8339611916531
 20
3143.9999308007832
 30
0.0
 11
1425.833961191652
 21
3143.9999308007832
 31
0.0
  0
LINE
  5
5B9
  8
0
 62
     0
 10
1405.8339611916531
 20
3155.9999308007832
 30
0.0
 11
1425.8339611916531
 21
3155.9999308007832
 31
0.0
  0
LINE
  5
5BA
  8
0
 62
     0
 10
1405.8339611916531
 20
3167.9999308007818
 30
0.0
 11
1425.8339611916531
 21
3167.9999308007818
 31
0.0
  0
LINE
  5
5BB
  8
0
 62
     0
 10
1405.8339611916531
 20
3179.9999308007832
 30
0.0
 11
1425.8339611916531
 21
3179.9999308007832
 31
0.0
  0
LINE
  5
5BC
  8
0
 62
     0
 10
1405.8339611916531
 20
3191.9999308007832
 30
0.0
 11
1425.8339611916531
 21
3191.9999308007832
 31
0.0
  0
LINE
  5
5BD
  8
0
 62
     0
 10
1405.8339611916531
 20
3203.9999308007818
 30
0.0
 11
1425.8339611916531
 21
3203.9999308007818
 31
0.0
  0
LINE
  5
5BE
  8
0
 62
     0
 10
1405.8339611916531
 20
3215.9999308007832
 30
0.0
 11
1425.8339611916531
 21
3215.9999308007832
 31
0.0
  0
LINE
  5
5BF
  8
0
 62
     0
 10
1405.8339611916531
 20
3227.9999308007832
 30
0.0
 11
1425.8339611916531
 21
3227.9999308007832
 31
0.0
  0
LINE
  5
5C0
  8
0
 62
     0
 10
1405.8339611916531
 20
3239.9999308007818
 30
0.0
 11
1425.8339611916531
 21
3239.9999308007818
 31
0.0
  0
LINE
  5
5C1
  8
0
 62
     0
 10
1405.8339611916531
 20
3251.9999308007832
 30
0.0
 11
1425.8339611916531
 21
3251.9999308007832
 31
0.0
  0
LINE
  5
5C2
  8
0
 62
     0
 10
1405.8339611916531
 20
3263.9999308007818
 30
0.0
 11
1425.8339611916531
 21
3263.9999308007818
 31
0.0
  0
LINE
  5
5C3
  8
0
 62
     0
 10
1405.8339611916531
 20
3275.9999308007818
 30
0.0
 11
1425.8339611916531
 21
3275.9999308007818
 31
0.0
  0
LINE
  5
5C4
  8
0
 62
     0
 10
1405.8339611916531
 20
3287.9999308007832
 30
0.0
 11
1425.8339611916531
 21
3287.9999308007832
 31
0.0
  0
LINE
  5
5C5
  8
0
 62
     0
 10
1405.8339611916531
 20
3299.9999308007818
 30
0.0
 11
1425.8339611916531
 21
3299.9999308007818
 31
0.0
  0
LINE
  5
5C6
  8
0
 62
     0
 10
1405.8339611916531
 20
3311.9999308007818
 30
0.0
 11
1425.8339611916531
 21
3311.9999308007818
 31
0.0
  0
LINE
  5
5C7
  8
0
 62
     0
 10
1405.8339611916531
 20
3323.9999308007832
 30
0.0
 11
1425.833961191654
 21
3323.9999308007832
 31
0.0
  0
LINE
  5
5C8
  8
0
 62
     0
 10
1405.8339611916531
 20
3335.9999308007818
 30
0.0
 11
1425.833961191654
 21
3335.9999308007818
 31
0.0
  0
LINE
  5
5C9
  8
0
 62
     0
 10
1405.8339611916531
 20
3347.9999308007832
 30
0.0
 11
1425.833961191654
 21
3347.9999308007832
 31
0.0
  0
LINE
  5
5CA
  8
0
 62
     0
 10
1405.8339611916531
 20
3359.9999308007818
 30
0.0
 11
1425.833961191654
 21
3359.9999308007818
 31
0.0
  0
ENDBLK
  5
5CC
  8
0
  0
BLOCK
  8
0
  2
*X33
 70
     1
 10
0.0
 20
0.0
 30
0.0
  3
*X33
  1

  0
LINE
  5
5CE
  8
0
 62
     0
 10
1763.9995819817859
 20
3420.1208699031281
 30
0.0
 11
1763.9995819817859
 21
3440.120869903129
 31
0.0
  0
LINE
  5
5CF
  8
0
 62
     0
 10
1751.9995819817859
 20
3420.1208699031281
 30
0.0
 11
1751.9995819817859
 21
3440.120869903129
 31
0.0
  0
LINE
  5
5D0
  8
0
 62
     0
 10
1739.9995819817859
 20
3420.1208699031281
 30
0.0
 11
1739.9995819817859
 21
3440.120869903129
 31
0.0
  0
LINE
  5
5D1
  8
0
 62
     0
 10
1727.9995819817859
 20
3420.1208699031281
 30
0.0
 11
1727.9995819817859
 21
3440.120869903129
 31
0.0
  0
LINE
  5
5D2
  8
0
 62
     0
 10
1715.9995819817859
 20
3420.1208699031281
 30
0.0
 11
1715.9995819817859
 21
3440.120869903129
 31
0.0
  0
LINE
  5
5D3
  8
0
 62
     0
 10
1703.9995819817859
 20
3420.1208699031281
 30
0.0
 11
1703.9995819817859
 21
3440.120869903129
 31
0.0
  0
LINE
  5
5D4
  8
0
 62
     0
 10
1691.9995819817859
 20
3420.1208699031281
 30
0.0
 11
1691.9995819817859
 21
3440.120869903129
 31
0.0
  0
LINE
  5
5D5
  8
0
 62
     0
 10
1679.9995819817859
 20
3420.1208699031281
 30
0.0
 11
1679.9995819817859
 21
3440.120869903129
 31
0.0
  0
LINE
  5
5D6
  8
0
 62
     0
 10
1667.9995819817859
 20
3420.1208699031281
 30
0.0
 11
1667.9995819817859
 21
3440.120869903129
 31
0.0
  0
LINE
  5
5D7
  8
0
 62
     0
 10
1655.9995819817859
 20
3420.1208699031281
 30
0.0
 11
1655.9995819817859
 21
3440.120869903129
 31
0.0
  0
LINE
  5
5D8
  8
0
 62
     0
 10
1643.9995819817859
 20
3420.1208699031281
 30
0.0
 11
1643.9995819817859
 21
3440.120869903129
 31
0.0
  0
LINE
  5
5D9
  8
0
 62
     0
 10
1631.9995819817859
 20
3420.1208699031281
 30
0.0
 11
1631.9995819817859
 21
3440.120869903129
 31
0.0
  0
LINE
  5
5DA
  8
0
 62
     0
 10
1619.9995819817859
 20
3420.1208699031281
 30
0.0
 11
1619.9995819817859
 21
3440.120869903129
 31
0.0
  0
LINE
  5
5DB
  8
0
 62
     0
 10
1607.9995819817859
 20
3420.1208699031281
 30
0.0
 11
1607.9995819817859
 21
3440.120869903129
 31
0.0
  0
LINE
  5
5DC
  8
0
 62
     0
 10
1595.9995819817859
 20
3420.1208699031281
 30
0.0
 11
1595.9995819817859
 21
3440.120869903129
 31
0.0
  0
LINE
  5
5DD
  8
0
 62
     0
 10
1583.9995819817859
 20
3420.1208699031281
 30
0.0
 11
1583.9995819817859
 21
3440.120869903129
 31
0.0
  0
LINE
  5
5DE
  8
0
 62
     0
 10
1571.9995819817859
 20
3420.1208699031281
 30
0.0
 11
1571.9995819817859
 21
3440.120869903129
 31
0.0
  0
LINE
  5
5DF
  8
0
 62
     0
 10
1559.9995819817859
 20
3420.1208699031281
 30
0.0
 11
1559.9995819817859
 21
3440.120869903129
 31
0.0
  0
LINE
  5
5E0
  8
0
 62
     0
 10
1547.9995819817859
 20
3420.1208699031281
 30
0.0
 11
1547.9995819817859
 21
3440.120869903129
 31
0.0
  0
LINE
  5
5E1
  8
0
 62
     0
 10
1535.9995819817859
 20
3420.1208699031281
 30
0.0
 11
1535.9995819817859
 21
3440.120869903129
 31
0.0
  0
LINE
  5
5E2
  8
0
 62
     0
 10
1523.9995819817859
 20
3420.1208699031281
 30
0.0
 11
1523.9995819817859
 21
3440.120869903129
 31
0.0
  0
LINE
  5
5E3
  8
0
 62
     0
 10
1511.9995819817859
 20
3420.1208699031281
 30
0.0
 11
1511.9995819817859
 21
3440.120869903129
 31
0.0
  0
LINE
  5
5E4
  8
0
 62
     0
 10
1499.9995819817859
 20
3420.1208699031281
 30
0.0
 11
1499.9995819817859
 21
3440.120869903129
 31
0.0
  0
LINE
  5
5E5
  8
0
 62
     0
 10
1487.9995819817859
 20
3420.1208699031281
 30
0.0
 11
1487.9995819817859
 21
3440.120869903129
 31
0.0
  0
LINE
  5
5E6
  8
0
 62
     0
 10
1475.9995819817859
 20
3420.1208699031281
 30
0.0
 11
1475.9995819817859
 21
3440.120869903129
 31
0.0
  0
LINE
  5
5E7
  8
0
 62
     0
 10
1474.833961191654
 20
3431.9998699031248
 30
0.0
 11
1775.8339611916499
 21
3431.9998699031248
 31
0.0
  0
ENDBLK
  5
5E9
  8
0
  0
ENDSEC
  0
SECTION
  2
ENTITIES
  0
LINE
  5
1F2
  8
_LINES
 10
1451.3022016214391
 20
3267.1544873064372
 30
0.0
 11
1457.5522016214391
 21
3273.4044873064372
 31
0.0
1001
REVIT
1002
{
1070
     1
1000
464700
1002
}
1002
{
1070
     5
1000
256069
1002
}
1002
{
1070
     2
1000
-2005022
1002
}
  0
LINE
  5
1F3
  8
_LINES
 10
1451.3022016214391
 20
3267.1544873064372
 30
0.0
 11
1457.5522016214391
 21
3260.9044873064372
 31
0.0
1001
REVIT
1002
{
1070
     1
1000
464700
1002
}
1002
{
1070
     5
1000
256069
1002
}
1002
{
1070
     2
1000
-2005022
1002
}
  0
LINE
  5
1F4
  8
_LINES
 10
1451.3022016214391
 20
3267.1544873064372
 30
0.0
 11
1507.8177264140691
 21
3267.1544873064381
 31
0.0
1001
REVIT
1002
{
1070
     1
1000
464700
1002
}
1002
{
1070
     5
1000
256069
1002
}
1002
{
1070
     2
1000
-2005022
1002
}
  0
INSERT
  5
1F6
  8
_HATCH
  2
*U20
 10
0.0
 20
0.0
 30
0.0
  0
LINE
  5
1F7
  8
_LINES
 10
1425.6787264772349
 20
3377.961171748595
 30
0.0
 11
1434.254498580932
 21
3375.8208136417688
 31
0.0
1001
REVIT
1002
{
1070
     1
1000
464701
1002
}
1002
{
1070
     5
1000
256069
1002
}
1002
{
1070
     2
1000
-2005022
1002
}
  0
LINE
  5
1F8
  8
_LINES
 10
1425.6787264772349
 20
3377.961171748595
 30
0.0
 11
1423.538368370409
 21
3369.3853996448988
 31
0.0
1001
REVIT
1002
{
1070
     1
1000
464701
1002
}
1002
{
1070
     5
1000
256069
1002
}
1002
{
1070
     2
1000
-2005022
1002
}
  0
LINE
  5
1F9
  8
_LINES
 10
1466.748226445653
 20
3309.57301372851
 30
0.0
 11
1507.8177264140691
 21
3309.57301372851
 31
0.0
1001
REVIT
1002
{
1070
     1
1000
464701
1002
}
1002
{
1070
     5
1000
256069
1002
}
1002
{
1070
     2
1000
-2005022
1002
}
  0
LINE
  5
1FA
  8
_LINES
 10
1425.6787264772349
 20
3377.961171748595
 30
0.0
 11
1466.748226445653
 21
3309.57301372851
 31
0.0
1001
REVIT
1002
{
1070
     1
1000
464701
1002
}
1002
{
1070
     5
1000
256069
1002
}
1002
{
1070
     2
1000
-2005022
1002
}
  0
INSERT
  5
1FB
  8
_HATCH
  2
*U21
 10
0.0
 20
0.0
 30
0.0
  0
LINE
  5
1FC
  8
_LINES
 10
1425.6787264772349
 20
3147.3383115347228
 30
0.0
 11
1431.9287264772349
 21
3153.5883115347228
 31
0.0
1001
REVIT
1002
{
1070
     1
1000
464702
1002
}
1002
{
1070
     5
1000
256069
1002
}
1002
{
1070
     2
1000
-2005022
1002
}
  0
LINE
  5
1FD
  8
_LINES
 10
1425.6787264772349
 20
3147.3383115347228
 30
0.0
 11
1431.9287264772349
 21
3141.0883115347228
 31
0.0
1001
REVIT
1002
{
1070
     1
1000
464702
1002
}
1002
{
1070
     5
1000
256069
1002
}
1002
{
1070
     2
1000
-2005022
1002
}
  0
LINE
  5
1FE
  8
_LINES
 10
1425.6787264772349
 20
3147.3383115347228
 30
0.0
 11
1507.81772641407
 21
3147.3383115347219
 31
0.0
1001
REVIT
1002
{
1070
     1
1000
464702
1002
}
1002
{
1070
     5
1000
256069
1002
}
1002
{
1070
     2
1000
-2005022
1002
}
  0
INSERT
  5
1FF
  8
_HATCH
  2
*U22
 10
0.0
 20
0.0
 30
0.0
  0
LINE
  5
200
  8
_LINES
 10
1400.907424611823
 20
3044.728103395194
 30
0.0
 11
1407.157424611823
 21
3050.978103395194
 31
0.0
1001
REVIT
1002
{
1070
     1
1000
464703
1002
}
1002
{
1070
     5
1000
256069
1002
}
1002
{
1070
     2
1000
-2005022
1002
}
  0
LINE
  5
201
  8
_LINES
 10
1400.907424611823
 20
3044.728103395194
 30
0.0
 11
1407.157424611823
 21
3038.478103395194
 31
0.0
1001
REVIT
1002
{
1070
     1
1000
464703
1002
}
1002
{
1070
     5
1000
256069
1002
}
1002
{
1070
     2
1000
-2005022
1002
}
  0
LINE
  5
202
  8
_LINES
 10
1400.907424611823
 20
3044.728103395194
 30
0.0
 11
1507.8177264140711
 21
3044.728103395194
 31
0.0
1001
REVIT
1002
{
1070
     1
1000
464703
1002
}
1002
{
1070
     5
1000
256069
1002
}
1002
{
1070
     2
1000
-2005022
1002
}
  0
INSERT
  5
203
  8
_HATCH
  2
*U23
 10
0.0
 20
0.0
 30
0.0
  0
LINE
  5
204
  8
_LINES
 10
1308.204588772368
 20
2955.082215161221
 30
0.0
 11
1314.454588772368
 21
2961.332215161221
 31
0.0
1001
REVIT
1002
{
1070
     1
1000
464704
1002
}
1002
{
1070
     5
1000
256069
1002
}
1002
{
1070
     2
1000
-2005022
1002
}
  0
LINE
  5
205
  8
_LINES
 10
1308.204588772368
 20
2955.082215161221
 30
0.0
 11
1314.454588772368
 21
2948.832215161221
 31
0.0
1001
REVIT
1002
{
1070
     1
1000
464704
1002
}
1002
{
1070
     5
1000
256069
1002
}
1002
{
1070
     2
1000
-2005022
1002
}
  0
LINE
  5
206
  8
_LINES
 10
1308.204588772368
 20
2955.082215161221
 30
0.0
 11
1507.8177264140711
 21
2955.0822151612201
 31
0.0
1001
REVIT
1002
{
1070
     1
1000
464704
1002
}
1002
{
1070
     5
1000
256069
1002
}
1002
{
1070
     2
1000
-2005022
1002
}
  0
INSERT
  5
207
  8
_HATCH
  2
*U24
 10
0.0
 20
0.0
 30
0.0
  0
LINE
  5
208
  8
_LINES
 10
1402.86904212224
 20
3091.3747799715438
 30
0.0
 11
1409.1190421222391
 21
3097.6247799715438
 31
0.0
1001
REVIT
1002
{
1070
     1
1000
464712
1002
}
1002
{
1070
     5
1000
256069
1002
}
1002
{
1070
     2
1000
-2005022
1002
}
  0
LINE
  5
209
  8
_LINES
 10
1402.86904212224
 20
3091.3747799715438
 30
0.0
 11
1409.1190421222391
 21
3085.1247799715438
 31
0.0
1001
REVIT
1002
{
1070
     1
1000
464712
1002
}
1002
{
1070
     5
1000
256069
1002
}
1002
{
1070
     2
1000
-2005022
1002
}
  0
LINE
  5
20A
  8
_LINES
 10
1402.86904212224
 20
3091.3747799715438
 30
0.0
 11
1507.81772641407
 21
3091.3747799715438
 31
0.0
1001
REVIT
1002
{
1070
     1
1000
464712
1002
}
1002
{
1070
     5
1000
256069
1002
}
1002
{
1070
     2
1000
-2005022
1002
}
  0
INSERT
  5
20B
  8
_HATCH
  2
*U25
 10
0.0
 20
0.0
 30
0.0
  0
LINE
  5
20C
  8
_LINES
 10
1451.0022016214391
 20
3207.039742282338
 30
0.0
 11
1457.2522016214391
 21
3213.289742282338
 31
0.0
1001
REVIT
1002
{
1070
     1
1000
465877
1002
}
1002
{
1070
     5
1000
256069
1002
}
1002
{
1070
     2
1000
-2005022
1002
}
  0
LINE
  5
20D
  8
_LINES
 10
1451.0022016214391
 20
3207.039742282338
 30
0.0
 11
1457.2522016214391
 21
3200.7897422823389
 31
0.0
1001
REVIT
1002
{
1070
     1
1000
465877
1002
}
1002
{
1070
     5
1000
256069
1002
}
1002
{
1070
     2
1000
-2005022
1002
}
  0
LINE
  5
20E
  8
_LINES
 10
1451.0022016214391
 20
3207.039742282338
 30
0.0
 11
1507.5177264140721
 21
3207.0397422823389
 31
0.0
1001
REVIT
1002
{
1070
     1
1000
465877
1002
}
1002
{
1070
     5
1000
256069
1002
}
1002
{
1070
     2
1000
-2005022
1002
}
  0
INSERT
  5
20F
  8
_HATCH
  2
*U26
 10
0.0
 20
0.0
 30
0.0
  0
INSERT
  5
212
  8
_HATCH
  2
*U27
 10
0.0
 20
0.0
 30
0.0
  0
LINE
  5
213
  8
_LINES
 10
1713.9108159452439
 20
3394.3367384814028
 30
0.0
 11
1720.1608159452439
 21
3388.0867384814019
 31
0.0
1001
REVIT
1002
{
1070
     1
1000
468217
1002
}
1002
{
1070
     5
1000
256069
1002
}
1002
{
1070
     2
1000
-2005022
1002
}
  0
LINE
  5
214
  8
_LINES
 10
1713.9108159452439
 20
3394.3367384814028
 30
0.0
 11
1707.6608159452439
 21
3388.0867384814019
 31
0.0
1001
REVIT
1002
{
1070
     1
1000
468217
1002
}
1002
{
1070
     5
1000
256069
1002
}
1002
{
1070
     2
1000
-2005022
1002
}
  0
LINE
  5
215
  8
_LINES
 10
1713.9108159452439
 20
3352.9004138216842
 30
0.0
 11
1694.0563154751731
 21
3352.9004138216842
 31
0.0
1001
REVIT
1002
{
1070
     1
1000
468217
1002
}
1002
{
1070
     5
1000
256069
1002
}
1002
{
1070
     2
1000
-2005022
1002
}
  0
LINE
  5
216
  8
_LINES
 10
1713.9108159452439
 20
3394.3367384814028
 30
0.0
 11
1713.9108159452439
 21
3352.9004138216842
 31
0.0
1001
REVIT
1002
{
1070
     1
1000
468217
1002
}
1002
{
1070
     5
1000
256069
1002
}
1002
{
1070
     2
1000
-2005022
1002
}
  0
INSERT
  5
217
  8
_HATCH
  2
*U28
 10
0.0
 20
0.0
 30
0.0
  0
LINE
  5
276
  8
_LINES
 10
1484.1903958740199
 20
2907.224618792548
 30
0.0
 11
1387.92575046603
 21
2907.224618792548
 31
0.0
  0
LINE
  5
277
  8
_LINES
 10
1387.92575046603
 20
2907.224618792548
 30
0.0
 11
1386.058073170025
 21
2917.816743086295
 31
0.0
  0
LINE
  5
278
  8
_LINES
 10
1386.058073170025
 20
2917.816743086295
 30
0.0
 11
1382.3320854495851
 21
2896.6856166672428
 31
0.0
  0
LINE
  5
279
  8
_LINES
 10
1382.3320854495851
 20
2896.6856166672428
 30
0.0
 11
1380.47377502515
 21
2907.224618792548
 31
0.0
  0
LINE
  5
27A
  8
_LINES
 10
1380.47377502515
 20
2907.224618792548
 30
0.0
 11
1284.1903958740199
 21
2907.224618792548
 31
0.0
  0
LINE
  5
27B
  8
_LINES
 10
1775.8339611916499
 20
3560.0234606763338
 30
0.0
 11
1775.833961191649
 21
3463.7588152683438
 31
0.0
  0
LINE
  5
27C
  8
_LINES
 10
1775.833961191649
 20
3463.7588152683438
 30
0.0
 11
1765.241836897902
 21
3461.891137972339
 31
0.0
  0
LINE
  5
27D
  8
_LINES
 10
1765.2418368979031
 20
3461.891137972339
 30
0.0
 11
1786.3729633169539
 21
3458.1651502518989
 31
0.0
  0
LINE
  5
27E
  8
_LINES
 10
1786.3729633169539
 20
3458.1651502518989
 30
0.0
 11
1775.833961191649
 21
3456.306839827464
 31
0.0
  0
LINE
  5
27F
  8
_LINES
 10
1775.833961191649
 20
3456.306839827464
 30
0.0
 11
1775.8339611916481
 21
3360.0234606763338
 31
0.0
  0
LINE
  5
280
  8
_LINES
 10
1451.8339611916449
 20
3022.1208699031258
 30
0.0
 11
1451.8339611916431
 21
2907.2246187925471
 31
0.0
1001
REVIT
1002
{
1070
     3
1000
241982
1002
}
  0
LINE
  5
281
  8
_LINES
 10
1432.433961191645
 20
3024.1208699031249
 30
0.0
 11
1449.8339611916431
 21
3024.1208699031249
 31
0.0
1001
REVIT
1002
{
1070
     3
1000
241982
1002
}
  0
ARC
  5
282
  8
_LINES
 10
1449.8339611916431
 20
3022.1208699031258
 30
0.0
 40
1.999999999999952
 50
0.0
 51
90.0
1001
REVIT
1002
{
1070
     3
1000
241982
1002
}
  0
LINE
  5
283
  8
_LINES
 10
1430.433961191645
 20
3026.1208699031249
 30
0.0
 11
1430.433961191645
 21
3056.4827141784099
 31
0.0
1001
REVIT
1002
{
1070
     3
1000
241982
1002
}
  0
ARC
  5
284
  8
_LINES
 10
1432.433961191645
 20
3026.1208699031249
 30
0.0
 40
1.999999999999972
 50
180.0
 51
270.0
1001
REVIT
1002
{
1070
     3
1000
241982
1002
}
  0
LINE
  5
285
  8
_LINES
 10
1430.433961191645
 20
3062.1208699031258
 30
0.0
 11
1431.460021621622
 21
3059.3017920407679
 31
0.0
1001
REVIT
1002
{
1070
     3
1000
241982
1002
}
  0
LINE
  5
286
  8
_LINES
 10
1430.433961191645
 20
3056.4827141784099
 30
0.0
 11
1431.460021621622
 21
3059.3017920407679
 31
0.0
1001
REVIT
1002
{
1070
     3
1000
241982
1002
}
  0
LINE
  5
287
  8
_LINES
 10
1451.833961191646
 20
3232.1208699031272
 30
0.0
 11
1451.8339611916419
 21
3036.1208699031258
 31
0.0
1001
REVIT
1002
{
1070
     3
1000
241982
1002
}
  0
LINE
  5
288
  8
_LINES
 10
1432.4339611916459
 20
3234.1208699031272
 30
0.0
 11
1449.8339611916431
 21
3234.1208699031272
 31
0.0
1001
REVIT
1002
{
1070
     3
1000
241982
1002
}
  0
ARC
  5
289
  8
_LINES
 10
1449.8339611916431
 20
3232.1208699031272
 30
0.0
 40
1.999999999999952
 50
0.0
 51
90.0
1001
REVIT
1002
{
1070
     3
1000
241982
1002
}
  0
ARC
  5
28A
  8
_LINES
 10
1449.833961191644
 20
3036.1208699031258
 30
0.0
 40
1.9999999999999529
 50
270.0
 51
0.0
1001
REVIT
1002
{
1070
     3
1000
241982
1002
}
  0
LINE
  5
28B
  8
_LINES
 10
1433.833961191644
 20
3034.1208699031258
 30
0.0
 11
1449.833961191644
 21
3034.1208699031258
 31
0.0
1001
REVIT
1002
{
1070
     3
1000
241982
1002
}
  0
ARC
  5
28C
  8
_LINES
 10
1433.833961191644
 20
3036.1208699031258
 30
0.0
 40
1.9999999999999489
 50
180.0
 51
270.0
1001
REVIT
1002
{
1070
     3
1000
241982
1002
}
  0
LINE
  5
28D
  8
_LINES
 10
1431.833961191644
 20
3036.1208699031258
 30
0.0
 11
1431.8339611916419
 21
3071.5208699031282
 31
0.0
1001
REVIT
1002
{
1070
     3
1000
241982
1002
}
  0
LINE
  5
28E
  8
_LINES
 10
1429.6339611916451
 20
3029.1208699031258
 30
0.0
 11
1429.6339611916439
 21
3071.5208699031282
 31
0.0
1001
REVIT
1002
{
1070
     3
1000
241982
1002
}
  0
ARC
  5
28F
  8
_LINES
 10
1430.7339611916429
 20
3071.5208699031282
 30
0.0
 40
1.0999999999994829
 50
0.0
 51
180.0
1001
REVIT
1002
{
1070
     3
1000
241982
1002
}
  0
LINE
  5
290
  8
_LINES
 10
1427.2339611916441
 20
3014.1208699031258
 30
0.0
 11
1429.6339611916451
 21
3029.1208699031258
 31
0.0
1001
REVIT
1002
{
1070
     3
1000
241982
1002
}
  0
LINE
  5
291
  8
_LINES
 10
1430.4339611916459
 20
3236.1208699031272
 30
0.0
 11
1430.433961191645
 21
3266.4827141784122
 31
0.0
1001
REVIT
1002
{
1070
     3
1000
241982
1002
}
  0
ARC
  5
292
  8
_LINES
 10
1432.4339611916459
 20
3236.1208699031272
 30
0.0
 40
1.999999999999972
 50
180.0
 51
270.0
1001
REVIT
1002
{
1070
     3
1000
241982
1002
}
  0
LINE
  5
293
  8
_LINES
 10
1430.433961191645
 20
3272.1208699031272
 30
0.0
 11
1431.460021621622
 21
3269.3017920407692
 31
0.0
1001
REVIT
1002
{
1070
     3
1000
241982
1002
}
  0
LINE
  5
294
  8
_LINES
 10
1430.433961191645
 20
3266.4827141784122
 30
0.0
 11
1431.460021621622
 21
3269.3017920407692
 31
0.0
1001
REVIT
1002
{
1070
     3
1000
241982
1002
}
  0
LINE
  5
295
  8
_LINES
 10
1427.2339611916441
 20
3014.1208699031258
 30
0.0
 11
1427.2339611916441
 21
2999.1208699031258
 31
0.0
1001
REVIT
1002
{
1070
     3
1000
241982
1002
}
  0
LINE
  5
296
  8
_LINES
 10
1775.833961191649
 20
3394.1208699031231
 30
0.0
 11
1613.833961191644
 21
3394.1208699031258
 31
0.0
1001
REVIT
1002
{
1070
     3
1000
241982
1002
}
  0
ARC
  5
297
  8
_LINES
 10
1613.833961191644
 20
3396.1208699031249
 30
0.0
 40
1.9999999999999529
 50
180.0
 51
270.0
1001
REVIT
1002
{
1070
     3
1000
241982
1002
}
  0
LINE
  5
298
  8
_LINES
 10
1611.8339611916431
 20
3412.1208699031258
 30
0.0
 11
1611.8339611916431
 21
3396.1208699031249
 31
0.0
1001
REVIT
1002
{
1070
     3
1000
241982
1002
}
  0
ARC
  5
299
  8
_LINES
 10
1613.8339611916431
 20
3412.1208699031258
 30
0.0
 40
1.999999999999948
 50
90.0
 51
180.0
1001
REVIT
1002
{
1070
     3
1000
241982
1002
}
  0
LINE
  5
29A
  8
_LINES
 10
1613.8339611916431
 20
3414.1208699031258
 30
0.0
 11
1649.2339611916459
 21
3414.1208699031281
 31
0.0
1001
REVIT
1002
{
1070
     3
1000
241982
1002
}
  0
LINE
  5
29B
  8
_LINES
 10
1606.833961191644
 20
3416.3208699031238
 30
0.0
 11
1649.2339611916459
 21
3416.3208699031238
 31
0.0
1001
REVIT
1002
{
1070
     3
1000
241982
1002
}
  0
ARC
  5
29C
  8
_LINES
 10
1649.2339611916459
 20
3415.2208699031271
 30
0.0
 40
1.0999999999994821
 50
270.0
 51
90.0
1001
REVIT
1002
{
1070
     3
1000
241982
1002
}
  0
LINE
  5
29D
  8
_LINES
 10
1591.833961191644
 20
3418.7208699031248
 30
0.0
 11
1606.833961191644
 21
3416.3208699031238
 31
0.0
1001
REVIT
1002
{
1070
     3
1000
241982
1002
}
  0
LINE
  5
29E
  8
_LINES
 10
1591.833961191644
 20
3418.7208699031248
 30
0.0
 11
1576.833961191644
 21
3418.7208699031248
 31
0.0
1001
REVIT
1002
{
1070
     3
1000
241982
1002
}
  0
LINE
  5
29F
  8
_LINES
 10
1451.833961191644
 20
3394.1208699031258
 30
0.0
 11
1451.8339611916469
 21
3246.1208699031249
 31
0.0
1001
REVIT
1002
{
1070
     3
1000
241982
1002
}
  0
LINE
  5
2A0
  8
_LINES
 10
1451.833961191644
 20
3394.1208699031258
 30
0.0
 11
1599.8339611916449
 21
3394.1208699031249
 31
0.0
1001
REVIT
1002
{
1070
     3
1000
241982
1002
}
  0
ARC
  5
2A1
  8
_LINES
 10
1449.833961191649
 20
3246.1208699031249
 30
0.0
 40
1.999999999999954
 50
270.0
 51
0.0
1001
REVIT
1002
{
1070
     3
1000
241982
1002
}
  0
LINE
  5
2A2
  8
_LINES
 10
1433.8339611916481
 20
3244.120869903124
 30
0.0
 11
1449.833961191649
 21
3244.1208699031249
 31
0.0
1001
REVIT
1002
{
1070
     3
1000
241982
1002
}
  0
ARC
  5
2A3
  8
_LINES
 10
1433.8339611916481
 20
3246.1208699031249
 30
0.0
 40
1.9999999999999509
 50
180.0
 51
270.0
1001
REVIT
1002
{
1070
     3
1000
241982
1002
}
  0
LINE
  5
2A4
  8
_LINES
 10
1431.8339611916481
 20
3246.120869903124
 30
0.0
 11
1431.8339611916449
 21
3281.5208699031268
 31
0.0
1001
REVIT
1002
{
1070
     3
1000
241982
1002
}
  0
LINE
  5
2A5
  8
_LINES
 10
1429.633961191649
 20
3239.1208699031249
 30
0.0
 11
1429.633961191648
 21
3281.5208699031268
 31
0.0
1001
REVIT
1002
{
1070
     3
1000
241982
1002
}
  0
ARC
  5
2A6
  8
_LINES
 10
1430.7339611916459
 20
3281.5208699031268
 30
0.0
 40
1.0999999999994869
 50
0.0
 51
180.0
1001
REVIT
1002
{
1070
     3
1000
241982
1002
}
  0
LINE
  5
2A7
  8
_LINES
 10
1427.833961191649
 20
3224.1208699031249
 30
0.0
 11
1427.8339611916499
 21
3209.120869903124
 31
0.0
1001
REVIT
1002
{
1070
     3
1000
241982
1002
}
  0
LINE
  5
2A8
  8
_LINES
 10
1427.833961191649
 20
3224.1208699031249
 30
0.0
 11
1429.633961191649
 21
3239.1208699031249
 31
0.0
1001
REVIT
1002
{
1070
     3
1000
241982
1002
}
  0
LINE
  5
2A9
  8
_LINES
 10
1601.8339611916449
 20
3413.5208699031218
 30
0.0
 11
1601.8339611916449
 21
3396.120869903124
 31
0.0
1001
REVIT
1002
{
1070
     3
1000
241982
1002
}
  0
ARC
  5
2AA
  8
_LINES
 10
1599.8339611916449
 20
3396.120869903124
 30
0.0
 40
1.999999999999944
 50
270.0
 51
0.0
1001
REVIT
1002
{
1070
     3
1000
241982
1002
}
  0
LINE
  5
2AB
  8
_LINES
 10
1603.8339611916449
 20
3415.5208699031209
 30
0.0
 11
1634.1958054669301
 21
3415.5208699031209
 31
0.0
1001
REVIT
1002
{
1070
     3
1000
241982
1002
}
  0
ARC
  5
2AC
  8
_LINES
 10
1603.8339611916449
 20
3413.5208699031218
 30
0.0
 40
1.999999999999944
 50
90.0
 51
180.0
1001
REVIT
1002
{
1070
     3
1000
241982
1002
}
  0
LINE
  5
2AD
  8
_LINES
 10
1639.8339611916449
 20
3415.5208699031209
 30
0.0
 11
1637.0148833292881
 21
3414.4948094731431
 31
0.0
1001
REVIT
1002
{
1070
     3
1000
241982
1002
}
  0
LINE
  5
2AE
  8
_LINES
 10
1634.1958054669301
 20
3415.5208699031209
 30
0.0
 11
1637.0148833292881
 21
3414.4948094731431
 31
0.0
1001
REVIT
1002
{
1070
     3
1000
241982
1002
}
  0
LINE
  5
2AF
  8
_LINES
 10
1400.8339611916481
 20
2969.1208699031272
 30
0.0
 11
1400.8339611916481
 21
3014.1208699031272
 31
0.0
  0
LINE
  5
2B0
  8
_LINES
 10
1400.8339611916481
 20
3014.1208699031272
 30
0.0
 11
1310.833961191649
 21
3014.1208699031272
 31
0.0
  0
LINE
  5
2B1
  8
_LINES
 10
1310.833961191649
 20
3014.1208699031272
 30
0.0
 11
1310.8339611916481
 21
2969.1208699031272
 31
0.0
  0
LINE
  5
2B2
  8
_LINES
 10
1310.8339611916481
 20
2969.1208699031272
 30
0.0
 11
1400.8339611916481
 21
2969.1208699031272
 31
0.0
  0
LINE
  5
2B3
  8
_LINES
 10
1310.833961191649
 20
3014.1208699031272
 30
0.0
 11
1400.8339611916481
 21
2969.1208699031272
 31
0.0
  0
LINE
  5
2B4
  8
_LINES
 10
1400.833961191649
 20
3014.1208699031272
 30
0.0
 11
1310.8339611916481
 21
2969.1208699031272
 31
0.0
  0
LINE
  5
2B5
  8
_LINES
 10
1167.8038569611549
 20
3424.2003538070621
 30
0.0
 11
1167.8038569611549
 21
3485.4439910062229
 31
0.0
  0
LINE
  5
2B6
  8
_LINES
 10
1167.8038569611549
 20
3485.4439910062229
 30
0.0
 11
1157.26485483585
 21
3487.3023014306582
 31
0.0
  0
LINE
  5
2B7
  8
_LINES
 10
1157.26485483585
 20
3487.3023014306582
 30
0.0
 11
1178.3959812549019
 21
3491.0282891510992
 31
0.0
  0
LINE
  5
2B8
  8
_LINES
 10
1178.3959812549019
 20
3491.0282891510992
 30
0.0
 11
1167.8038569611549
 21
3492.895966447104
 31
0.0
  0
LINE
  5
2B9
  8
_LINES
 10
1167.8038569611549
 20
3492.895966447104
 30
0.0
 11
1167.803856961154
 21
3554.1208699031249
 31
0.0
  0
LINE
  5
2BA
  8
_LINES
 10
1400.8339611916481
 20
3369.1208699031258
 30
0.0
 11
1400.8339611916481
 21
3414.1208699031272
 31
0.0
  0
LINE
  5
2BB
  8
_LINES
 10
1400.8339611916481
 20
3414.1208699031272
 30
0.0
 11
1310.833961191649
 21
3414.1208699031281
 31
0.0
  0
LINE
  5
2BC
  8
_LINES
 10
1310.833961191649
 20
3414.1208699031281
 30
0.0
 11
1310.8339611916481
 21
3369.1208699031258
 31
0.0
  0
LINE
  5
2BD
  8
_LINES
 10
1310.8339611916481
 20
3369.1208699031258
 30
0.0
 11
1400.8339611916481
 21
3369.1208699031258
 31
0.0
  0
LINE
  5
2BE
  8
_LINES
 10
1310.833961191649
 20
3414.1208699031281
 30
0.0
 11
1400.8339611916481
 21
3369.1208699031258
 31
0.0
  0
LINE
  5
2BF
  8
_LINES
 10
1400.833961191649
 20
3414.1208699031272
 30
0.0
 11
1310.8339611916481
 21
3369.1208699031258
 31
0.0
  0
INSERT
  5
2C0
  8
_HATCH
  6
CONTINUOUS
  2
*X29
 10
0.0
 20
0.0
 30
0.0
1001
ACAD
1000
HATCH
1002
{
1070
    19
1000
FP_5
1040
1.0
1040
1.570796326794887
1000
R14_HATCH_DATA
1000
2C0
1011
1.0
1021
0.0
1031
0.0000000001964509
1021
0.0
1031
0.0
1011
0.0
1021
0.0
1031
0.0000000001964509
1021
1.0
1031
0.0
1011
0.0
1021
0.0
1031
0.0000000001964509
1021
0.0
1031
1.0
1040
0.0
1010
0.0
1020
0.0
1030
1.0
1000
FP_5
1070
     0
1070
     0
1071
        1
1071
        0
1071
        4
1070
     1
1040
1298.8339611916431
1040
2907.2246187925521
1040
1308.833961191644
1040
2907.2246187925521
1070
     1
1040
1308.833961191644
1040
2907.2246187925521
1040
1308.8339611916481
1040
3432.1208699031299
1070
     1
1040
1308.8339611916481
1040
3432.1208699031299
1040
1298.8339611916481
1040
3432.1208699031299
1070
     1
1040
1298.8339611916481
1040
3432.1208699031299
1040
1298.8339611916431
1040
2907.2246187925521
1071
        0
1070
     0
1070
     2
1040
1.570796326794887
1040
1.0
1070
     0
1070
     9
1040
6.2831853071795756
1040
-0.0000388083840335
1040
-0.0000691992045176
1040
20.32000000000005
1040
5.0799999999998144
1070
     5
1040
1.675999999999999
1040
-13.564
1040
1.675999999999999
1040
-13.564
1040
-81.280000000000001
1040
6.2831853071795756
1040
-0.0000388083840335
1040
-0.0000691992045176
1040
20.32000000000005
1040
5.0799999999998144
1070
     6
1040
-30.48
1040
1.675999999999999
1040
-28.803999999999998
1040
1.675999999999999
1040
-13.564
1040
-35.560000000000002
1040
6.2831853071795756
1040
-0.0000388083840335
1040
-0.0000691992045176
1040
20.32000000000005
1040
5.0799999999998144
1070
     5
1040
-76.200000000000003
1040
1.675999999999999
1040
-8.4839999999999982
1040
1.675999999999999
1040
-23.724
1040
2.094395102393185
1040
7.6199611916158574
1040
2.5399308007954451
1040
-14.55940905122481
1040
15.05763620489993
1070
     5
1040
1.675999999999999
1040
-13.564
1040
1.675999999999999
1040
-13.564
1040
-81.279999999999987
1040
2.094395102393185
1040
7.6199611916158574
1040
2.5399308007954451
1040
-14.55940905122481
1040
15.05763620489993
1070
     6
1040
-30.48
1040
1.675999999999999
1040
-28.803999999999998
1040
1.675999999999999
1040
-13.564
1040
-35.560000000000002
1040
2.094395102393185
1040
7.6199611916158574
1040
2.5399308007954451
1040
-14.55940905122481
1040
15.05763620489993
1070
     5
1040
-76.199999999999989
1040
1.675999999999999
1040
-8.4839999999999982
1040
1.675999999999999
1040
-23.724
1040
4.1887902047863808
1040
10.15996119161605
1040
12.69993080079575
1040
-5.760590948775234
1040
-20.137636204899739
1070
     5
1040
1.675999999999999
1040
-13.564
1040
1.675999999999999
1040
-13.564
1040
-81.280000000000001
1040
4.1887902047863808
1040
10.15996119161605
1040
12.69993080079575
1040
-5.760590948775234
1040
-20.137636204899739
1070
     6
1040
-30.48
1040
1.675999999999999
1040
-28.803999999999998
1040
1.675999999999999
1040
-13.564
1040
-35.560000000000002
1040
4.1887902047863808
1040
10.15996119161605
1040
12.69993080079575
1040
-5.760590948775234
1040
-20.137636204899739
1070
     5
1040
-76.200000000000003
1040
1.675999999999999
1040
-8.4839999999999982
1040
1.675999999999999
1040
-23.724
1071
        1
1040
1303.833961191644
1040
3150.5779308007841
1040
0.0
1002
}
  0
LINE
  5
2C1
  8
_LINES
 10
1308.8339611916469
 20
3432.1208699031272
 30
0.0
 11
1298.8339611916469
 21
3432.1208699031272
 31
0.0
  0
LINE
  5
2C2
  8
_LINES
 10
1298.8339611916469
 20
3432.1208699031272
 30
0.0
 11
1298.8339611916419
 21
2907.224618792548
 31
0.0
  0
LINE
  5
2C3
  8
_LINES
 10
1308.8339611916419
 20
2907.224618792548
 30
0.0
 11
1308.8339611916469
 21
3432.1208699031272
 31
0.0
  0
INSERT
  5
2C4
  8
_HATCH
  6
CONTINUOUS
  2
*X30
 10
0.0
 20
0.0
 30
0.0
1001
ACAD
1000
HATCH
1002
{
1070
    19
1000
FP_4
1040
1.0
1040
0.0
1000
R14_HATCH_DATA
1000
2C4
1011
1.0
1021
0.0
1031
0.0000000001964509
1021
0.0
1031
0.0
1011
0.0
1021
0.0
1031
0.0000000001964509
1021
1.0
1031
0.0
1011
0.0
1021
0.0
1031
0.0000000001964509
1021
0.0
1031
1.0
1040
0.0
1010
0.0
1020
0.0
1030
1.0
1000
FP_4
1070
     0
1070
     0
1071
        1
1071
        0
1071
        5
1070
     1
1040
1308.8339611916469
1040
3432.1208699031299
1040
1308.8339611916469
1040
3442.1208699031299
1070
     1
1040
1308.8339611916469
1040
3442.1208699031299
1040
1167.803856961157
1040
3442.1208699031299
1070
     1
1040
1167.803856961157
1040
3442.1208699031299
1040
1167.803856961157
1040
3432.1208699031299
1070
     1
1040
1167.803856961157
1040
3432.1208699031299
1040
1298.8339611916431
1040
3432.1208699031299
1070
     1
1040
1298.8339611916431
1040
3432.1208699031299
1040
1308.8339611916469
1040
3432.1208699031299
1071
        0
1070
     0
1070
     2
1040
0.0
1040
1.0
1070
     0
1070
     9
1040
0.0
1040
-0.0004921405529785
1040
-0.0001300968738178
1040
20.32
1040
5.0800000000000001
1070
     5
1040
1.675999999999999
1040
-13.564
1040
1.675999999999999
1040
-13.564
1040
-81.280000000000001
1040
0.0
1040
-0.0004921405529785
1040
-0.0001300968738178
1040
20.32
1040
5.0800000000000001
1070
     6
1040
-30.48
1040
1.675999999999999
1040
-28.803999999999998
1040
1.675999999999999
1040
-13.564
1040
-35.560000000000002
1040
0.0
1040
-0.0004921405529785
1040
-0.0001300968738178
1040
20.32
1040
5.0800000000000001
1070
     5
1040
-76.200000000000003
1040
1.675999999999999
1040
-8.4839999999999982
1040
1.675999999999999
1040
-23.724
1040
2.0943951023931948
1040
7.6195078594469123
1040
2.5398699031261449
1040
-14.559409051224939
1040
15.057636204899801
1070
     5
1040
1.675999999999999
1040
-13.564
1040
1.675999999999999
1040
-13.564
1040
-81.279999999999987
1040
2.0943951023931948
1040
7.6195078594469123
1040
2.5398699031261449
1040
-14.559409051224939
1040
15.057636204899801
1070
     6
1040
-30.48
1040
1.675999999999999
1040
-28.803999999999998
1040
1.675999999999999
1040
-13.564
1040
-35.559999999999988
1040
2.0943951023931948
1040
7.6195078594469123
1040
2.5398699031261449
1040
-14.559409051224939
1040
15.057636204899801
1070
     5
1040
-76.199999999999974
1040
1.675999999999999
1040
-8.4839999999999964
1040
1.675999999999999
1040
-23.72399999999999
1040
4.1887902047863914
1040
10.159507859446871
1040
12.699869903126
1040
-5.7605909487750449
1040
-20.137636204899799
1070
     5
1040
1.675999999999999
1040
-13.564
1040
1.675999999999999
1040
-13.564
1040
-81.280000000000001
1040
4.1887902047863914
1040
10.159507859446871
1040
12.699869903126
1040
-5.7605909487750449
1040
-20.137636204899799
1070
     6
1040
-30.48
1040
1.675999999999999
1040
-28.803999999999998
1040
1.675999999999999
1040
-13.564
1040
-35.560000000000002
1040
4.1887902047863914
1040
10.159507859446871
1040
12.699869903126
1040
-5.7605909487750449
1040
-20.137636204899799
1070
     5
1040
-76.200000000000003
1040
1.675999999999999
1040
-8.4839999999999982
1040
1.675999999999999
1040
-23.724
1071
        1
1040
1226.1785078594471
1040
3437.1208699031258
1040
0.0
1002
}
  0
LINE
  5
2C5
  8
_LINES
 10
1308.833961191646
 20
3432.1208699031258
 30
0.0
 11
1308.833961191646
 21
3442.1208699031258
 31
0.0
  0
LINE
  5
2C6
  8
_LINES
 10
1308.833961191646
 20
3442.1208699031258
 30
0.0
 11
1167.8038569611549
 21
3442.1208699031258
 31
0.0
  0
LINE
  5
2C7
  8
_LINES
 10
1298.8339611916469
 20
3432.1208699031258
 30
0.0
 11
1308.833961191646
 21
3432.1208699031258
 31
0.0
  0
LINE
  5
2C8
  8
_LINES
 10
1167.8038569611549
 20
3432.1208699031258
 30
0.0
 11
1298.8339611916469
 21
3432.1208699031258
 31
0.0
  0
INSERT
  5
2C9
  8
_HATCH
  6
CONTINUOUS
  2
*X31
 10
0.0
 20
0.0
 30
0.0
1001
ACAD
1000
HATCH
1002
{
1070
    19
1000
FP_3
1040
1.0
1040
0.0
1000
R14_HATCH_DATA
1000
2C9
1011
1.0
1021
0.0
1031
0.0000000001964509
1021
0.0
1031
0.0
1011
0.0
1021
0.0
1031
0.0000000001964509
1021
1.0
1031
0.0
1011
0.0
1021
0.0
1031
0.0000000001964509
1021
0.0
1031
1.0
1040
0.0
1010
0.0
1020
0.0
1030
1.0
1000
FP_3
1070
     0
1070
     0
1071
        1
1071
        0
1071
        4
1070
     1
1040
1775.833961191651
1040
3536.1208699031281
1040
1775.833961191651
1040
3546.1208699031272
1070
     1
1040
1775.833961191651
1040
3546.1208699031272
1040
1167.803856961156
1040
3546.1208699031272
1070
     1
1040
1167.803856961156
1040
3546.1208699031272
1040
1167.803856961156
1040
3536.1208699031281
1070
     1
1040
1167.803856961156
1040
3536.1208699031281
1040
1775.833961191651
1040
3536.1208699031281
1071
        0
1070
     0
1070
     2
1040
0.0
1040
1.0
1070
     0
1070
     9
1040
0.0
1040
-0.000492140553888
1040
-0.0001300968756368
1040
20.32
1040
5.0800000000000001
1070
     5
1040
1.675999999999999
1040
-13.564
1040
1.675999999999999
1040
-13.564
1040
-81.280000000000001
1040
0.0
1040
-0.000492140553888
1040
-0.0001300968756368
1040
20.32
1040
5.0800000000000001
1070
     6
1040
-30.48
1040
1.675999999999999
1040
-28.803999999999998
1040
1.675999999999999
1040
-13.564
1040
-35.560000000000002
1040
0.0
1040
-0.000492140553888
1040
-0.0001300968756368
1040
20.32
1040
5.0800000000000001
1070
     5
1040
-76.200000000000003
1040
1.675999999999999
1040
-8.4839999999999982
1040
1.675999999999999
1040
-23.724
1040
2.0943951023931948
1040
7.619507859446002
1040
2.5398699031243259
1040
-14.559409051224939
1040
15.057636204899801
1070
     5
1040
1.675999999999999
1040
-13.564
1040
1.675999999999999
1040
-13.564
1040
-81.279999999999987
1040
2.0943951023931948
1040
7.619507859446002
1040
2.5398699031243259
1040
-14.559409051224939
1040
15.057636204899801
1070
     6
1040
-30.48
1040
1.675999999999999
1040
-28.803999999999998
1040
1.675999999999999
1040
-13.564
1040
-35.559999999999988
1040
2.0943951023931948
1040
7.619507859446002
1040
2.5398699031243259
1040
-14.559409051224939
1040
15.057636204899801
1070
     5
1040
-76.199999999999974
1040
1.675999999999999
1040
-8.4839999999999964
1040
1.675999999999999
1040
-23.72399999999999
1040
4.1887902047863914
1040
10.159507859445959
1040
12.69986990312418
1040
-5.7605909487750449
1040
-20.137636204899799
1070
     5
1040
1.675999999999999
1040
-13.564
1040
1.675999999999999
1040
-13.564
1040
-81.280000000000001
1040
4.1887902047863914
1040
10.159507859445959
1040
12.69986990312418
1040
-5.7605909487750449
1040
-20.137636204899799
1070
     6
1040
-30.48
1040
1.675999999999999
1040
-28.803999999999998
1040
1.675999999999999
1040
-13.564
1040
-35.560000000000002
1040
4.1887902047863914
1040
10.159507859445959
1040
12.69986990312418
1040
-5.7605909487750449
1040
-20.137636204899799
1070
     5
1040
-76.200000000000003
1040
1.675999999999999
1040
-8.4839999999999982
1040
1.675999999999999
1040
-23.724
1071
        1
1040
1477.678507859446
1040
3541.120869903124
1040
0.0
1002
}
  0
LINE
  5
2CA
  8
_LINES
 10
1775.8339611916499
 20
3546.120869903124
 30
0.0
 11
1167.803856961154
 21
3546.120869903124
 31
0.0
  0
LINE
  5
2CB
  8
_LINES
 10
1167.803856961154
 20
3536.120869903124
 30
0.0
 11
1775.8339611916499
 21
3536.120869903124
 31
0.0
  0
LINE
  5
2CC
  8
_LINES
 10
1405.833961191649
 20
3369.1208699031258
 30
0.0
 11
1425.833961191649
 21
3369.1208699031258
 31
0.0
  0
LINE
  5
2CD
  8
_LINES
 10
1425.833961191649
 20
3369.1208699031258
 30
0.0
 11
1425.833961191649
 21
3414.1208699031272
 31
0.0
  0
LINE
  5
2CE
  8
_LINES
 10
1425.833961191649
 20
3414.1208699031272
 30
0.0
 11
1405.833961191649
 21
3414.1208699031272
 31
0.0
  0
LINE
  5
2CF
  8
_LINES
 10
1405.833961191649
 20
3414.1208699031272
 30
0.0
 11
1405.833961191649
 21
3369.1208699031258
 31
0.0
  0
LINE
  5
2D0
  8
_LINES
 10
1425.833961191649
 20
3414.1208699031272
 30
0.0
 11
1405.833961191649
 21
3369.1208699031258
 31
0.0
  0
LINE
  5
2D1
  8
_LINES
 10
1425.833961191649
 20
3369.1208699031272
 30
0.0
 11
1405.833961191649
 21
3414.1208699031281
 31
0.0
  0
LINE
  5
2D2
  8
_LINES
  6
DASH
 10
1402.833961191651
 20
3442.1208699031258
 30
0.0
 11
1402.8339611916469
 21
2907.2246187925471
 31
0.0
1001
REVIT
1002
{
1070
     3
1000
247276
1002
}
  0
INSERT
  5
2D3
  8
_HATCH
  6
CONTINUOUS
  2
*X32
 10
0.0
 20
0.0
 30
0.0
1001
ACAD
1000
HATCH
1002
{
1070
    19
1000
FP_2
1040
1.0
1040
1.570796326794891
1000
R14_HATCH_DATA
1000
2D3
1011
1.0
1021
0.0
1031
0.0000000001964509
1021
0.0
1031
0.0
1011
0.0
1021
0.0
1031
0.0000000001964509
1021
1.0
1031
0.0
1011
0.0
1021
0.0
1031
0.0000000001964509
1021
0.0
1031
1.0
1040
0.0
1010
0.0
1020
0.0
1030
1.0
1000
FP_2
1070
     0
1070
     0
1071
        1
1071
        0
1071
        4
1070
     1
1040
1425.833961191651
1040
2907.2246187925489
1040
1425.833961191654
1040
3369.1208699031299
1070
     1
1040
1425.833961191654
1040
3369.1208699031299
1040
1405.8339611916531
1040
3369.1208699031299
1070
     1
1040
1405.8339611916531
1040
3369.1208699031299
1040
1405.833961191651
1040
2907.2246187925489
1070
     1
1040
1405.833961191651
1040
2907.2246187925489
1040
1425.833961191651
1040
2907.2246187925489
1071
        0
1070
     0
1070
     2
1040
1.570796326794891
1040
1.0
1070
     0
1070
     2
1040
6.28318530717958
1040
-0.0000388083658436
1040
-0.0000691992099746
1040
0.0000000000000586
1040
12.0
1070
     0
1040
1.5707963267948959
1040
-0.0000388083658436
1040
-0.0000691992099746
1040
-12.0
1040
0.0000000000000594
1070
     0
1071
        1
1040
1415.833961191649
1040
3119.0779308007832
1040
0.0
1002
}
  0
LINE
  5
2D4
  8
_LINES
 10
1405.833961191652
 20
3369.1208699031258
 30
0.0
 11
1405.833961191649
 21
2907.2246187925471
 31
0.0
  0
LINE
  5
2D5
  8
_LINES
 10
1425.833961191649
 20
2907.2246187925471
 30
0.0
 11
1425.833961191652
 21
3369.1208699031258
 31
0.0
  0
LINE
  5
2D6
  8
_LINES
  6
DASH
 10
1402.833961191651
 20
3442.1208699031258
 30
0.0
 11
1775.833961191649
 21
3442.1208699031258
 31
0.0
1001
REVIT
1002
{
1070
     3
1000
247276
1002
}
  0
LINE
  5
2D7
  8
_LINES
 10
1474.833961191652
 20
3420.1208699031258
 30
0.0
 11
1474.833961191652
 21
3440.1208699031249
 31
0.0
  0
LINE
  5
2D8
  8
_LINES
 10
1474.833961191652
 20
3440.1208699031249
 30
0.0
 11
1429.833961191652
 21
3440.1208699031249
 31
0.0
  0
LINE
  5
2D9
  8
_LINES
 10
1429.833961191652
 20
3440.1208699031249
 30
0.0
 11
1429.833961191652
 21
3420.1208699031258
 31
0.0
  0
LINE
  5
2DA
  8
_LINES
 10
1429.833961191652
 20
3420.1208699031258
 30
0.0
 11
1474.833961191652
 21
3420.1208699031258
 31
0.0
  0
LINE
  5
2DB
  8
_LINES
 10
1429.833961191652
 20
3440.1208699031249
 30
0.0
 11
1474.833961191652
 21
3420.1208699031258
 31
0.0
  0
LINE
  5
2DC
  8
_LINES
 10
1474.833961191651
 20
3440.1208699031249
 30
0.0
 11
1429.833961191651
 21
3420.1208699031258
 31
0.0
  0
INSERT
  5
2DD
  8
_HATCH
  6
CONTINUOUS
  2
*X33
 10
0.0
 20
0.0
 30
0.0
1001
ACAD
1000
HATCH
1002
{
1070
    19
1000
FP_1
1040
1.0
1040
3.1415926535897931
1000
R14_HATCH_DATA
1000
2DD
1011
1.0
1021
0.0
1031
0.0000000001964509
1021
0.0
1031
0.0
1011
0.0
1021
0.0
1031
0.0000000001964509
1021
1.0
1031
0.0
1011
0.0
1021
0.0
1031
0.0000000001964509
1021
0.0
1031
1.0
1040
0.0
1010
0.0
1020
0.0
1030
1.0
1000
FP_1
1070
     0
1070
     0
1071
        1
1071
        0
1071
        4
1070
     1
1040
1775.8339611916499
1040
3420.1208699031281
1040
1775.8339611916499
1040
3440.120869903129
1070
     1
1040
1775.8339611916499
1040
3440.120869903129
1040
1474.833961191654
1040
3440.120869903129
1070
     1
1040
1474.833961191654
1040
3440.120869903129
1040
1474.833961191654
1040
3420.1208699031281
1070
     1
1040
1474.833961191654
1040
3420.1208699031281
1040
1775.8339611916499
1040
3420.1208699031281
1071
        0
1070
     0
1070
     2
1040
3.1415926535897931
1040
1.0
1070
     0
1070
     2
1040
6.2831853071795862
1040
-0.0004180182143045
1040
-0.0001300968751821
1040
0.0
1040
12.0
1070
     0
1040
1.5707963267948959
1040
-0.0004180182143045
1040
-0.0001300968751821
1040
-12.0
1040
0.0000000000000007
1070
     0
1071
        1
1040
1642.754581981786
1040
3430.120869903124
1040
0.0
1002
}
  0
LINE
  5
2DE
  8
_LINES
 10
1474.8339611916531
 20
3420.1208699031258
 30
0.0
 11
1775.833961191649
 21
3420.1208699031258
 31
0.0
  0
LINE
  5
2DF
  8
_LINES
 10
1775.833961191649
 20
3440.1208699031258
 30
0.0
 11
1474.8339611916531
 21
3440.1208699031258
 31
0.0
  0
LINE
  5
2E0
  8
_LINES
 10
1310.8339611916481
 20
3444.1208699031258
 30
0.0
 11
1310.8339611916481
 21
3414.1208699031281
 31
0.0
  0
LINE
  5
2E1
  8
_LINES
 10
1310.8339611916469
 20
3369.1208699031272
 30
0.0
 11
1310.8339611916431
 21
3014.1208699031272
 31
0.0
  0
LINE
  5
2E2
  8
_LINES
 10
1310.8339611916419
 20
2969.1208699031272
 30
0.0
 11
1310.833961191641
 21
2907.224618792548
 31
0.0
  0
LINE
  5
2E3
  8
_LINES
 10
1400.833961191641
 20
2907.2246187925471
 30
0.0
 11
1400.8339611916419
 21
2969.1208699031258
 31
0.0
  0
LINE
  5
2E4
  8
_LINES
 10
1400.8339611916431
 20
3014.1208699031258
 30
0.0
 11
1400.8339611916469
 21
3369.1208699031258
 31
0.0
  0
LINE
  5
2E5
  8
_LINES
 10
1400.8339611916481
 20
3414.1208699031272
 30
0.0
 11
1400.8339611916481
 21
3444.120869903124
 31
0.0
  0
LINE
  5
2E6
  8
_LINES
 10
1400.8339611916481
 20
3444.120869903124
 30
0.0
 11
1310.8339611916481
 21
3444.1208699031258
 31
0.0
  0
LINE
  5
2E7
  8
_LINES
 10
1429.833961191652
 20
3444.1208699031272
 30
0.0
 11
1474.833961191652
 21
3444.1208699031272
 31
0.0
  0
LINE
  5
2E8
  8
_LINES
 10
1474.833961191652
 20
3444.1208699031272
 30
0.0
 11
1474.833961191652
 21
3534.1208699031258
 31
0.0
  0
LINE
  5
2E9
  8
_LINES
 10
1474.833961191652
 20
3534.1208699031258
 30
0.0
 11
1429.833961191652
 21
3534.1208699031258
 31
0.0
  0
LINE
  5
2EA
  8
_LINES
 10
1429.833961191652
 20
3534.1208699031258
 30
0.0
 11
1429.833961191652
 21
3444.1208699031272
 31
0.0
  0
LINE
  5
2EB
  8
_LINES
 10
1474.833961191652
 20
3534.1208699031258
 30
0.0
 11
1429.833961191652
 21
3444.1208699031272
 31
0.0
  0
LINE
  5
2EC
  8
_LINES
 10
1474.833961191652
 20
3444.1208699031258
 30
0.0
 11
1429.833961191651
 21
3534.1208699031272
 31
0.0
  0
LINE
  5
2ED
  8
_LINES
 10
1167.803856961156
 20
3444.120869903124
 30
0.0
 11
1310.8339611916481
 21
3444.120869903124
 31
0.0
  0
LINE
  5
2EE
  8
_LINES
 10
1400.833961191649
 20
3444.120869903124
 30
0.0
 11
1429.833961191652
 21
3444.120869903124
 31
0.0
  0
LINE
  5
2EF
  8
_LINES
 10
1474.833961191652
 20
3444.120869903124
 30
0.0
 11
1775.833961191649
 21
3444.120869903124
 31
0.0
  0
LINE
  5
2F0
  8
_LINES
 10
1775.8339611916499
 20
3534.1208699031249
 30
0.0
 11
1474.833961191652
 21
3534.1208699031249
 31
0.0
  0
LINE
  5
2F1
  8
_LINES
 10
1429.833961191652
 20
3534.1208699031249
 30
0.0
 11
1167.803856961154
 21
3534.1208699031249
 31
0.0
  0
VIEWPORT
  5
265
 67
     1
  8
0
 10
128.5
 20
97.5
 30
0.0
 40
625.60341753343243
 41
222.18000000000001
 68
     1
 69
     1
1001
ACAD
1000
MVIEW
1002
{
1070
    16
1010
0.0
1020
0.0
1030
0.0
1010
0.0
1020
0.0
1030
1.0
1040
0.0
1040
222.18000000000001
1040
128.5
1040
97.5
1040
50.0
1040
0.0
1040
0.0
1070
     0
1070
   100
1070
     1
1070
     1
1070
     0
1070
     0
1070
     0
1070
     0
1040
0.0
1040
0.0
1040
0.0
1040
10.0
1040
10.0
1040
10.0
1040
10.0
1070
     0
1002
{
1002
}
1002
}
  0
VIEWPORT
  5
269
 67
     1
  8
0
 10
128.5
 20
97.5
 30
0.0
 40
205.59999999999999
 41
156.0
 68
     2
 69
     2
1001
ACAD
1000
MVIEW
1002
{
1070
    16
1010
0.0
1020
0.0
1030
0.0
1010
0.0
1020
0.0
1030
1.0
1040
0.0
1040
745.66839805671452
1040
1489.6940914316619
1040
3191.8691888324329
1040
50.0
1040
0.0
1040
0.0
1070
     0
1070
  1000
1070
     1
1070
     1
1070
     0
1070
     0
1070
     0
1070
     0
1040
0.0
1040
0.0
1040
0.0
1040
1.0
1040
1.0
1040
0.0
1040
0.0
1070
     0
1002
{
1002
}
1002
}
  0
ENDSEC
  0
EOF
