  0
SECTION
  2
HEADER
  9
$ACADVER
  1
AC1015
  9
$ACADMAINTVER
 70
     6
  9
$DWGCODEPAGE
  3
ANSI_949
  9
$INSBASE
 10
0.0
 20
0.0
 30
0.0
  9
$EXTMIN
 10
1.000000000000000E+20
 20
1.000000000000000E+20
 30
1.000000000000000E+20
  9
$EXTMAX
 10
-1.000000000000000E+20
 20
-1.000000000000000E+20
 30
-1.000000000000000E+20
  9
$LIMMIN
 10
0.0
 20
0.0
  9
$LIMMAX
 10
12.0
 20
9.0
  9
$ORTHOMODE
 70
     0
  9
$REGENMODE
 70
     1
  9
$FILLMODE
 70
     1
  9
$QTEXTMODE
 70
     0
  9
$MIRRTEXT
 70
     1
  9
$LTSCALE
 40
1.0
  9
$ATTMODE
 70
     1
  9
$TEXTSIZE
 40
0.2
  9
$TRACEWID
 40
0.05
  9
$TEXTSTYLE
  7
Standard
  9
$CLAYER
  8
0
  9
$CELTYPE
  6
ByLayer
  9
$CECOLOR
 62
   256
  9
$CELTSCALE
 40
1.0
  9
$DISPSILH
 70
     0
  9
$DIMSCALE
 40
1.0
  9
$DIMASZ
 40
0.18
  9
$DIMEXO
 40
0.0625
  9
$DIMDLI
 40
0.38
  9
$DIMRND
 40
0.0
  9
$DIMDLE
 40
0.0
  9
$DIMEXE
 40
0.18
  9
$DIMTP
 40
0.0
  9
$DIMTM
 40
0.0
  9
$DIMTXT
 40
0.18
  9
$DIMCEN
 40
0.09
  9
$DIMTSZ
 40
0.0
  9
$DIMTOL
 70
     0
  9
$DIMLIM
 70
     0
  9
$DIMTIH
 70
     1
  9
$DIMTOH
 70
     1
  9
$DIMSE1
 70
     0
  9
$DIMSE2
 70
     0
  9
$DIMTAD
 70
     0
  9
$DIMZIN
 70
     0
  9
$DIMBLK
  1

  9
$DIMASO
 70
     1
  9
$DIMSHO
 70
     1
  9
$DIMPOST
  1

  9
$DIMAPOST
  1

  9
$DIMALT
 70
     0
  9
$DIMALTD
 70
     2
  9
$DIMALTF
 40
25.4
  9
$DIMLFAC
 40
1.0
  9
$DIMTOFL
 70
     0
  9
$DIMTVP
 40
0.0
  9
$DIMTIX
 70
     0
  9
$DIMSOXD
 70
     0
  9
$DIMSAH
 70
     0
  9
$DIMBLK1
  1

  9
$DIMBLK2
  1

  9
$DIMSTYLE
  2
Standard
  9
$DIMCLRD
 70
     0
  9
$DIMCLRE
 70
     0
  9
$DIMCLRT
 70
     0
  9
$DIMTFAC
 40
1.0
  9
$DIMGAP
 40
0.09
  9
$DIMJUST
 70
     0
  9
$DIMSD1
 70
     0
  9
$DIMSD2
 70
     0
  9
$DIMTOLJ
 70
     1
  9
$DIMTZIN
 70
     0
  9
$DIMALTZ
 70
     0
  9
$DIMALTTZ
 70
     0
  9
$DIMUPT
 70
     0
  9
$DIMDEC
 70
     4
  9
$DIMTDEC
 70
     4
  9
$DIMALTU
 70
     2
  9
$DIMALTTD
 70
     2
  9
$DIMTXSTY
  7
Standard
  9
$DIMAUNIT
 70
     0
  9
$DIMADEC
 70
     0
  9
$DIMALTRND
 40
0.0
  9
$DIMAZIN
 70
     0
  9
$DIMDSEP
 70
    46
  9
$DIMATFIT
 70
     3
  9
$DIMFRAC
 70
     0
  9
$DIMLDRBLK
  1

  9
$DIMLUNIT
 70
     2
  9
$DIMLWD
 70
    -2
  9
$DIMLWE
 70
    -2
  9
$DIMTMOVE
 70
     0
  9
$LUNITS
 70
     2
  9
$LUPREC
 70
     4
  9
$SKETCHINC
 40
0.1
  9
$FILLETRAD
 40
0.5
  9
$AUNITS
 70
     0
  9
$AUPREC
 70
     0
  9
$MENU
  1
.
  9
$ELEVATION
 40
0.0
  9
$PELEVATION
 40
0.0
  9
$THICKNESS
 40
0.0
  9
$LIMCHECK
 70
     0
  9
$CHAMFERA
 40
0.5
  9
$CHAMFERB
 40
0.5
  9
$CHAMFERC
 40
1.0
  9
$CHAMFERD
 40
0.0
  9
$SKPOLY
 70
     0
  9
$TDCREATE
 40
2456522.58095338
  9
$TDUCREATE
 40
2456522.08095338
  9
$TDUPDATE
 40
2456522.580982824
  9
$TDUUPDATE
 40
2456522.080982824
  9
$TDINDWG
 40
0.0000000116
  9
$TDUSRTIMER
 40
0.0000000116
  9
$USRTIMER
 70
     1
  9
$ANGBASE
 50
0.0
  9
$ANGDIR
 70
     0
  9
$PDMODE
 70
     0
  9
$PDSIZE
 40
0.0
  9
$PLINEWID
 40
0.0
  9
$SPLFRAME
 70
     0
  9
$SPLINETYPE
 70
     6
  9
$SPLINESEGS
 70
     8
  9
$HANDSEED
  5
51D
  9
$SURFTAB1
 70
     6
  9
$SURFTAB2
 70
     6
  9
$SURFTYPE
 70
     6
  9
$SURFU
 70
     6
  9
$SURFV
 70
     6
  9
$UCSBASE
  2

  9
$UCSNAME
  2

  9
$UCSORG
 10
0.0
 20
0.0
 30
0.0
  9
$UCSXDIR
 10
1.0
 20
0.0
 30
0.0
  9
$UCSYDIR
 10
0.0
 20
1.0
 30
0.0
  9
$UCSORTHOREF
  2

  9
$UCSORTHOVIEW
 70
     0
  9
$UCSORGTOP
 10
0.0
 20
0.0
 30
0.0
  9
$UCSORGBOTTOM
 10
0.0
 20
0.0
 30
0.0
  9
$UCSORGLEFT
 10
0.0
 20
0.0
 30
0.0
  9
$UCSORGRIGHT
 10
0.0
 20
0.0
 30
0.0
  9
$UCSORGFRONT
 10
0.0
 20
0.0
 30
0.0
  9
$UCSORGBACK
 10
0.0
 20
0.0
 30
0.0
  9
$PUCSBASE
  2

  9
$PUCSNAME
  2

  9
$PUCSORG
 10
0.0
 20
0.0
 30
0.0
  9
$PUCSXDIR
 10
1.0
 20
0.0
 30
0.0
  9
$PUCSYDIR
 10
0.0
 20
1.0
 30
0.0
  9
$PUCSORTHOREF
  2

  9
$PUCSORTHOVIEW
 70
     0
  9
$PUCSORGTOP
 10
0.0
 20
0.0
 30
0.0
  9
$PUCSORGBOTTOM
 10
0.0
 20
0.0
 30
0.0
  9
$PUCSORGLEFT
 10
0.0
 20
0.0
 30
0.0
  9
$PUCSORGRIGHT
 10
0.0
 20
0.0
 30
0.0
  9
$PUCSORGFRONT
 10
0.0
 20
0.0
 30
0.0
  9
$PUCSORGBACK
 10
0.0
 20
0.0
 30
0.0
  9
$USERI1
 70
     0
  9
$USERI2
 70
     0
  9
$USERI3
 70
     0
  9
$USERI4
 70
     0
  9
$USERI5
 70
     0
  9
$USERR1
 40
0.0
  9
$USERR2
 40
0.0
  9
$USERR3
 40
0.0
  9
$USERR4
 40
0.0
  9
$USERR5
 40
0.0
  9
$WORLDVIEW
 70
     1
  9
$SHADEDGE
 70
     3
  9
$SHADEDIF
 70
    70
  9
$TILEMODE
 70
     1
  9
$MAXACTVP
 70
    64
  9
$PINSBASE
 10
0.0
 20
0.0
 30
0.0
  9
$PLIMCHECK
 70
     0
  9
$PEXTMIN
 10
1.000000000000000E+20
 20
1.000000000000000E+20
 30
1.000000000000000E+20
  9
$PEXTMAX
 10
-1.000000000000000E+20
 20
-1.000000000000000E+20
 30
-1.000000000000000E+20
  9
$PLIMMIN
 10
0.0
 20
0.0
  9
$PLIMMAX
 10
12.0
 20
9.0
  9
$UNITMODE
 70
     0
  9
$VISRETAIN
 70
     1
  9
$PLINEGEN
 70
     0
  9
$PSLTSCALE
 70
     1
  9
$TREEDEPTH
 70
  3020
  9
$CMLSTYLE
  2
Standard
  9
$CMLJUST
 70
     0
  9
$CMLSCALE
 40
1.0
  9
$PROXYGRAPHICS
 70
     1
  9
$MEASUREMENT
 70
     0
  9
$CELWEIGHT
370
    -1
  9
$ENDCAPS
280
     0
  9
$JOINSTYLE
280
     0
  9
$LWDISPLAY
290
     1
  9
$INSUNITS
 70
     4
  9
$HYPERLINKBASE
  1

  9
$STYLESHEET
  1

  9
$XEDIT
290
     1
  9
$CEPSNTYPE
380
     0
  9
$PSTYLEMODE
290
     1
  9
$FINGERPRINTGUID
  2
{49AAFF9E-850B-40D0-A917-02BF0BB7C0FF}
  9
$VERSIONGUID
  2
{FAEB1C32-E019-11D5-929B-00C0DF256EC4}
  9
$EXTNAMES
290
     1
  9
$PSVPSCALE
 40
0.0
  9
$OLESTARTUP
290
     0
  0
ENDSEC
  0
SECTION
  2
CLASSES
  0
CLASS
  1
ACDBDICTIONARYWDFLT
  2
AcDbDictionaryWithDefault
  3
ObjectDBX Classes
 90
        0
280
     0
281
     0
  0
CLASS
  1
VISUALSTYLE
  2
AcDbVisualStyle
  3
ObjectDBX Classes
 90
     4095
280
     0
281
     0
  0
CLASS
  1
MATERIAL
  2
AcDbMaterial
  3
ObjectDBX Classes
 90
     1153
280
     0
281
     0
  0
CLASS
  1
SPATIAL_FILTER
  2
AcDbSpatialFilter
  3
ObjectDBX Classes
 90
        0
280
     0
281
     0
  0
CLASS
  1
SCALE
  2
AcDbScale
  3
ObjectDBX Classes
 90
     1153
280
     0
281
     0
  0
CLASS
  1
DICTIONARYVAR
  2
AcDbDictionaryVar
  3
ObjectDBX Classes
 90
        0
280
     0
281
     0
  0
CLASS
  1
ACDBPLACEHOLDER
  2
AcDbPlaceHolder
  3
ObjectDBX Classes
 90
        0
280
     0
281
     0
  0
CLASS
  1
LAYOUT
  2
AcDbLayout
  3
ObjectDBX Classes
 90
        0
280
     0
281
     0
  0
ENDSEC
  0
SECTION
  2
TABLES
  0
TABLE
  2
VPORT
  5
8
330
0
100
AcDbSymbolTable
 70
     1
  0
VPORT
  5
29
330
8
100
AcDbSymbolTableRecord
100
AcDbViewportTableRecord
  2
*Active
 70
     0
 10
0.0
 20
0.0
 11
1.0
 21
1.0
 12
148.6203422501967
 22
100.4660812394923
 13
0.0
 23
0.0
 14
0.5
 24
0.5
 15
0.5
 25
0.5
 16
0.0
 26
0.0
 36
1.0
 17
0.0
 27
0.0
 37
0.0
 40
200.8158936151757
 41
1.438658524413834
 42
50.0
 43
0.0
 44
0.0
 50
0.0
 51
0.0
 71
     0
 72
   100
 73
     1
 74
     3
 75
     0
 76
     0
 77
     0
 78
     0
281
     0
 65
     1
110
0.0
120
0.0
130
0.0
111
1.0
121
0.0
131
0.0
112
0.0
122
1.0
132
0.0
 79
     0
146
0.0
  0
ENDTAB
  0
TABLE
  2
LTYPE
  5
5
330
0
100
AcDbSymbolTable
 70
     2
  0
LTYPE
  5
14
330
5
100
AcDbSymbolTableRecord
100
AcDbLinetypeTableRecord
  2
ByBlock
 70
     0
  3

 72
    65
 73
     0
 40
0.0
  0
LTYPE
  5
15
330
5
100
AcDbSymbolTableRecord
100
AcDbLinetypeTableRecord
  2
ByLayer
 70
     0
  3

 72
    65
 73
     0
 40
0.0
  0
LTYPE
  5
16
330
5
100
AcDbSymbolTableRecord
100
AcDbLinetypeTableRecord
  2
Continuous
 70
     0
  3
Solid line
 72
    65
 73
     0
 40
0.0
  0
LTYPE
  5
12D
330
5
100
AcDbSymbolTableRecord
100
AcDbLinetypeTableRecord
  2
Dashed
 70
     0
  3
- - - - - 
 72
    65
 73
     2
 40
5.644444465637207
 49
2.822222232818604
 74
     0
 49
-2.822222232818603
 74
     0
  0
ENDTAB
  0
TABLE
  2
LAYER
  5
2
330
0
100
AcDbSymbolTable
 70
     3
  0
LAYER
  5
10
330
2
100
AcDbSymbolTableRecord
100
AcDbLayerTableRecord
  2
0
 70
     0
 62
     7
  6
Continuous
370
    -3
390
F
  0
LAYER
  5
40
330
2
100
AcDbSymbolTableRecord
100
AcDbLayerTableRecord
  2
Doc_ Finishes
 70
     0
 62
     7
  6
Continuous
370
    -3
390
F
  0
LAYER
  5
DB
330
2
100
AcDbSymbolTableRecord
100
AcDbLayerTableRecord
  2
Doc_ Floor
 70
     0
 62
     7
  6
Continuous
370
    -3
390
F
  0
ENDTAB
  0
TABLE
  2
STYLE
  5
3
330
0
100
AcDbSymbolTable
 70
     4
  0
STYLE
  5
11
330
3
100
AcDbSymbolTableRecord
100
AcDbTextStyleTableRecord
  2
Standard
 70
     0
 40
0.0
 41
1.0
 50
0.0
 71
     0
 42
0.2
  3
txt
  4

  0
STYLE
  5
D6
330
3
100
AcDbSymbolTableRecord
100
AcDbTextStyleTableRecord
  2
GENERATED_STYLE_1
 70
     0
 40
0.0
 41
1.0
 50
0.0
 71
     0
 42
0.2
  3

  4

1001
ACAD
1000
Century Gothic
1071
       34
  0
STYLE
  5
D9
330
3
100
AcDbSymbolTableRecord
100
AcDbTextStyleTableRecord
  2
GENERATED_STYLE_2
 70
     0
 40
0.0
 41
1.0
 50
0.0
 71
     0
 42
0.2
  3

  4

1001
ACAD
1000
DilleniaUPC
1071
 33554450
  0
STYLE
  5
169
330
3
100
AcDbSymbolTableRecord
100
AcDbTextStyleTableRecord
  2
GENERATED_STYLE_3
 70
     0
 40
0.0
 41
1.0
 50
0.0
 71
     0
 42
0.2
  3

  4

1001
ACAD
1000
Arial
1071
       34
  0
ENDTAB
  0
TABLE
  2
VIEW
  5
6
330
0
100
AcDbSymbolTable
 70
     0
  0
ENDTAB
  0
TABLE
  2
UCS
  5
7
330
0
100
AcDbSymbolTable
 70
     0
  0
ENDTAB
  0
TABLE
  2
APPID
  5
9
330
0
100
AcDbSymbolTable
 70
     1
  0
APPID
  5
12
330
9
100
AcDbSymbolTableRecord
100
AcDbRegAppTableRecord
  2
ACAD
 70
     0
  0
ENDTAB
  0
TABLE
  2
DIMSTYLE
  5
A
330
0
100
AcDbSymbolTable
 70
     1
100
AcDbDimStyleTable
  0
DIMSTYLE
105
27
330
A
100
AcDbSymbolTableRecord
100
AcDbDimStyleTableRecord
  2
Standard
 70
     0
178
     0
340
11
  0
ENDTAB
  0
TABLE
  2
BLOCK_RECORD
  5
1
330
0
100
AcDbSymbolTable
 70
     3
  0
BLOCK_RECORD
  5
1F
330
1
100
AcDbSymbolTableRecord
100
AcDbBlockTableRecord
  2
*Model_Space
340
22
  0
BLOCK_RECORD
  5
1B
330
1
100
AcDbSymbolTableRecord
100
AcDbBlockTableRecord
  2
*Paper_Space
340
1E
  0
BLOCK_RECORD
  5
E3
330
1
100
AcDbSymbolTableRecord
100
AcDbBlockTableRecord
  2
Drawing_1_2
340
0
102
{BLKREFS
331
4C3
102
}
  0
BLOCK_RECORD
  5
4C7
330
1
100
AcDbSymbolTableRecord
100
AcDbBlockTableRecord
  2
R-TRS6-09 APRON DETAIL - SIDE_STORY_MARKER
340
0
  0
ENDTAB
  0
ENDSEC
  0
SECTION
  2
BLOCKS
  0
BLOCK
  5
20
330
1F
100
AcDbEntity
  8
0
100
AcDbBlockBegin
  2
*Model_Space
 70
     0
 10
0.0
 20
0.0
 30
0.0
  3
*Model_Space
  1

  0
ENDBLK
  5
21
330
1F
100
AcDbEntity
  8
0
100
AcDbBlockEnd
  0
BLOCK
  5
1C
330
1B
100
AcDbEntity
 67
     1
  8
0
100
AcDbBlockBegin
  2
*Paper_Space
 70
     0
 10
0.0
 20
0.0
 30
0.0
  3
*Paper_Space
  1

  0
ENDBLK
  5
1D
330
1B
100
AcDbEntity
 67
     1
  8
0
100
AcDbBlockEnd
  0
BLOCK
  5
E4
330
E3
100
AcDbEntity
  8
0
100
AcDbBlockBegin
  2
Drawing_1_2
 70
     0
 10
-1488.68793027213
 20
350.9956652514564
 30
0.0
  3
Drawing_1_2
  1

  0
HATCH
  5
E6
330
E3
100
AcDbEntity
  8
0
  6
Continuous
 62
   255
370
     0
100
AcDbHatch
 10
0.0
 20
0.0
 30
0.0
210
0.0
220
0.0
230
1.0
  2
SOLID
 70
     1
 71
     0
 91
        1
 92
        3
 72
     0
 73
     1
 93
        4
 10
168.1174859022492
 20
115.0117335009554
 10
168.1174859022492
 20
124.0117335009554
 10
79.43972639502928
 20
124.0117335009554
 10
79.43972639502928
 20
115.0117335009554
 97
        0
 75
     0
 76
     1
 98
        0
  0
LINE
  5
E7
330
E3
100
AcDbEntity
  8
0
  6
Continuous
100
AcDbLine
 10
168.1174872315822
 20
124.0117327594818
 30
0.0
 11
168.1174872315822
 21
115.0117343705166
 31
0.0
  0
LINE
  5
E8
330
E3
100
AcDbEntity
  8
0
  6
Continuous
100
AcDbLine
 10
79.43972579803209
 20
124.0117327594818
 30
0.0
 11
168.1174872315822
 21
124.0117327594818
 31
0.0
  0
LINE
  5
E9
330
E3
100
AcDbEntity
  8
0
  6
Continuous
100
AcDbLine
 10
79.43972579803209
 20
115.0117343705166
 30
0.0
 11
79.43972579803209
 21
124.0117327594818
 31
0.0
  0
LINE
  5
EA
330
E3
100
AcDbEntity
  8
0
  6
Continuous
100
AcDbLine
 10
168.1174872315822
 20
115.0117343705166
 30
0.0
 11
79.43972579803209
 21
115.0117343705166
 31
0.0
  0
HATCH
  5
EB
330
E3
100
AcDbEntity
  8
0
  6
Continuous
 62
   255
370
     0
100
AcDbHatch
 10
0.0
 20
0.0
 30
0.0
210
0.0
220
0.0
230
1.0
  2
SOLID
 70
     1
 71
     0
 91
        1
 92
        3
 72
     0
 73
     1
 93
        4
 10
168.1174859022492
 20
124.0117335009554
 10
154.1174859022492
 20
124.0117335009554
 10
154.1174859022492
 20
115.0117335009554
 10
168.1174859022492
 20
115.0117335009554
 97
        0
 75
     0
 76
     1
 98
        0
  0
LINE
  5
EC
330
E3
100
AcDbEntity
  8
0
  6
Continuous
100
AcDbLine
 10
168.1174872315822
 20
124.0117327594818
 30
0.0
 11
154.1174851055383
 21
115.0117343705166
 31
0.0
  0
LINE
  5
ED
330
E3
100
AcDbEntity
  8
0
  6
Continuous
100
AcDbLine
 10
168.1174872315822
 20
124.0117327594818
 30
0.0
 11
168.1174872315822
 21
115.0117343705166
 31
0.0
  0
LINE
  5
EE
330
E3
100
AcDbEntity
  8
0
  6
Continuous
100
AcDbLine
 10
168.1174872315822
 20
115.0117343705166
 30
0.0
 11
154.1174851055383
 21
115.0117343705166
 31
0.0
  0
LINE
  5
EF
330
E3
100
AcDbEntity
  8
0
  6
Continuous
100
AcDbLine
 10
154.1174851055383
 20
115.0117343705166
 30
0.0
 11
154.1174851055383
 21
124.0117327594818
 31
0.0
  0
LINE
  5
F0
330
E3
100
AcDbEntity
  8
0
  6
Continuous
100
AcDbLine
 10
154.1174851055383
 20
124.0117327594818
 30
0.0
 11
168.1174872315822
 21
124.0117327594818
 31
0.0
  0
HATCH
  5
F1
330
E3
100
AcDbEntity
  8
0
  6
Continuous
 62
   255
370
     0
100
AcDbHatch
 10
0.0
 20
0.0
 30
0.0
210
0.0
220
0.0
230
1.0
  2
SOLID
 70
     1
 71
     0
 91
        1
 92
        3
 72
     0
 73
     1
 93
        4
 10
168.1174859022492
 20
97.01173350095543
 10
168.1174859022492
 20
115.0117335009554
 10
79.43972639502928
 20
115.0117335009554
 10
79.43972639502928
 20
97.01173350095543
 97
        0
 75
     0
 76
     1
 98
        0
  0
LINE
  5
F2
330
E3
100
AcDbEntity
  8
0
  6
Continuous
100
AcDbLine
 10
168.1174872315822
 20
115.0117343705166
 30
0.0
 11
168.1174872315822
 21
97.01173461480893
 31
0.0
  0
LINE
  5
F3
330
E3
100
AcDbEntity
  8
0
  6
Continuous
100
AcDbLine
 10
79.43972579803209
 20
115.0117343705166
 30
0.0
 11
168.1174872315822
 21
115.0117343705166
 31
0.0
  0
LINE
  5
F4
330
E3
100
AcDbEntity
  8
0
  6
Continuous
100
AcDbLine
 10
79.43972579803209
 20
97.01173461480893
 30
0.0
 11
79.43972579803209
 21
115.0117343705166
 31
0.0
  0
LINE
  5
F5
330
E3
100
AcDbEntity
  8
0
  6
Continuous
100
AcDbLine
 10
168.1174872315822
 20
97.01173461480893
 30
0.0
 11
79.43972579803209
 21
97.01173461480893
 31
0.0
  0
HATCH
  5
F6
330
E3
100
AcDbEntity
  8
0
  6
Continuous
 62
   255
370
     0
100
AcDbHatch
 10
0.0
 20
0.0
 30
0.0
210
0.0
220
0.0
230
1.0
  2
SOLID
 70
     1
 71
     0
 91
        1
 92
        3
 72
     0
 73
     1
 93
        4
 10
160.0358502083052
 20
198.9052436658045
 10
160.0358502083052
 20
140.1784417112909
 10
164.035849010746
 20
140.1784417112909
 10
164.035849010746
 20
198.9052436658045
 97
        0
 75
     0
 76
     1
 98
        0
  0
LINE
  5
F7
330
E3
100
AcDbEntity
  8
0
  6
Continuous
100
AcDbLine
 10
160.0358502083052
 20
198.9052436658045
 30
0.0
 11
160.0358502083052
 21
140.1784417112909
 31
0.0
  0
LINE
  5
F8
330
E3
100
AcDbEntity
  8
0
  6
Continuous
100
AcDbLine
 10
160.0358502519228
 20
140.1784430738089
 30
0.0
 11
164.0358478815866
 21
140.1784430738089
 31
0.0
  0
LINE
  5
F9
330
E3
100
AcDbEntity
  8
0
  6
Continuous
100
AcDbLine
 10
164.035849010746
 20
140.1784417112909
 30
0.0
 11
164.035849010746
 21
198.9052436658045
 31
0.0
  0
HATCH
  5
FA
330
E3
100
AcDbEntity
  8
0
  6
Continuous
 62
   255
370
     0
100
AcDbHatch
 10
0.0
 20
0.0
 30
0.0
210
0.0
220
0.0
230
1.0
  2
SOLID
 70
     1
 71
     0
 91
        1
 92
        3
 72
     0
 73
     1
 93
        4
 10
160.0358492924565
 20
138.1784425109963
 10
164.0358492924563
 20
138.1784425109963
 10
164.0358492924563
 20
147.1784425109963
 10
160.0358492924565
 20
147.1784425109963
 97
        0
 75
     0
 76
     1
 98
        0
  0
LINE
  5
FB
330
E3
100
AcDbEntity
  8
0
  6
Continuous
100
AcDbLine
 10
160.0358502519228
 20
138.1784427700884
 30
0.0
 11
164.0358478815866
 21
147.1784411590535
 31
0.0
  0
LINE
  5
FC
330
E3
100
AcDbEntity
  8
0
  6
Continuous
100
AcDbLine
 10
160.0358502519228
 20
138.1784427700884
 30
0.0
 11
164.0358478815866
 21
138.1784427700884
 31
0.0
  0
LINE
  5
FD
330
E3
100
AcDbEntity
  8
0
  6
Continuous
100
AcDbLine
 10
164.0358478815866
 20
138.1784427700884
 30
0.0
 11
164.0358478815866
 21
147.1784411590535
 31
0.0
  0
LINE
  5
FE
330
E3
100
AcDbEntity
  8
0
  6
Continuous
100
AcDbLine
 10
164.0358478815866
 20
147.1784411590535
 30
0.0
 11
160.0358502519228
 21
147.1784411590535
 31
0.0
  0
LINE
  5
FF
330
E3
100
AcDbEntity
  8
0
  6
Continuous
100
AcDbLine
 10
160.0358502519228
 20
147.1784411590535
 30
0.0
 11
160.0358502519228
 21
138.1784427700884
 31
0.0
  0
HATCH
  5
100
330
E3
100
AcDbEntity
  8
0
  6
Continuous
 62
   255
370
     0
100
AcDbHatch
 10
0.0
 20
0.0
 30
0.0
210
0.0
220
0.0
230
1.0
  2
SOLID
 70
     1
 71
     0
 91
        1
 92
        3
 72
     0
 73
     1
 93
        4
 10
168.1174868787372
 20
198.9052482462201
 10
168.1174868787372
 20
23.56187983551988
 10
186.117485075695
 20
23.56187983551988
 10
186.117485075695
 20
198.9052482462201
 97
        0
 75
     0
 76
     1
 98
        0
  0
LINE
  5
101
330
E3
100
AcDbEntity
  8
0
  6
Continuous
100
AcDbLine
 10
186.117485075695
 20
23.56187983551988
 30
0.0
 11
186.117485075695
 21
198.9052482462201
 31
0.0
  0
LINE
  5
102
330
E3
100
AcDbEntity
  8
0
  6
Continuous
100
AcDbLine
 10
168.1174868787372
 20
198.9052482462201
 30
0.0
 11
168.1174868787372
 21
23.56187983551988
 31
0.0
  0
HATCH
  5
103
330
E3
100
AcDbEntity
  8
0
  6
Continuous
 62
   255
370
     0
100
AcDbHatch
 10
0.0
 20
0.0
 30
0.0
210
0.0
220
0.0
230
1.0
  2
SOLID
 70
     1
 71
     0
 91
        1
 92
        3
 72
     0
 73
     1
 93
        4
 10
168.1174872315822
 20
194.1691040313079
 10
186.1174869872899
 20
194.1691040313079
 10
186.1174869872899
 20
198.9052439437405
 10
168.1174872315822
 20
198.9052439437405
 97
        0
 75
     0
 76
     1
 98
        0
  0
LINE
  5
104
330
E3
100
AcDbEntity
  8
0
  6
Continuous
100
AcDbLine
 10
186.1174869872899
 20
194.1691040313079
 30
0.0
 11
186.1174869872899
 21
198.9052439437405
 31
0.0
  0
LINE
  5
105
330
E3
100
AcDbEntity
  8
0
  6
Continuous
100
AcDbLine
 10
168.1174872315822
 20
198.9052439437405
 30
0.0
 11
168.1174872315822
 21
194.1691040313079
 31
0.0
  0
LINE
  5
106
330
E3
100
AcDbEntity
  8
0
  6
Continuous
100
AcDbLine
 10
168.1174872315822
 20
194.1691040313079
 30
0.0
 11
186.1174869872899
 21
194.1691040313079
 31
0.0
  0
HATCH
  5
107
330
E3
100
AcDbEntity
  8
0
  6
Continuous
 62
   255
370
     0
100
AcDbHatch
 10
0.0
 20
0.0
 30
0.0
210
0.0
220
0.0
230
1.0
  2
SOLID
 70
     1
 71
     0
 91
        1
 92
        3
 72
     0
 73
     1
 93
        4
 10
186.1174859022492
 20
45.66910478962427
 10
186.1174859022492
 20
54.66910478962428
 10
168.1174859022492
 20
54.66910478962428
 10
168.1174859022492
 20
45.66910478962427
 97
        0
 75
     0
 76
     1
 98
        0
  0
LINE
  5
108
330
E3
100
AcDbEntity
  8
0
  6
Continuous
100
AcDbLine
 10
186.1174869872899
 20
45.66910381338675
 30
0.0
 11
186.1174869872899
 21
54.66910518012923
 31
0.0
  0
LINE
  5
109
330
E3
100
AcDbEntity
  8
0
  6
Continuous
100
AcDbLine
 10
186.1174869872899
 20
54.66910518012923
 30
0.0
 11
168.1174872315822
 21
54.66910518012923
 31
0.0
  0
LINE
  5
10A
330
E3
100
AcDbEntity
  8
0
  6
Continuous
100
AcDbLine
 10
168.1174872315822
 20
54.66910518012923
 30
0.0
 11
168.1174872315822
 21
45.66910381338675
 31
0.0
  0
LINE
  5
10B
330
E3
100
AcDbEntity
  8
0
  6
Continuous
100
AcDbLine
 10
168.1174872315822
 20
45.66910381338675
 30
0.0
 11
186.1174869872899
 21
45.66910381338675
 31
0.0
  0
LINE
  5
10C
330
E3
100
AcDbEntity
  8
0
  6
Continuous
100
AcDbLine
 10
186.1174869872899
 20
194.1691040313079
 30
0.0
 11
176.6452101402021
 21
198.9052439437405
 31
0.0
  0
LINE
  5
10D
330
E3
100
AcDbEntity
  8
0
  6
Continuous
100
AcDbLine
 10
177.5897670564473
 20
198.9052439437405
 30
0.0
 11
168.1174872315822
 21
194.1691040313079
 31
0.0
  0
LINE
  5
10E
330
E3
100
AcDbEntity
  8
0
  6
Continuous
100
AcDbLine
 10
168.1174872315822
 20
45.66910381338675
 30
0.0
 11
186.1174869872899
 21
54.66910518012923
 31
0.0
  0
HATCH
  5
10F
330
E3
100
AcDbEntity
  8
0
  6
Continuous
 62
   255
370
     0
100
AcDbHatch
 10
0.0
 20
0.0
 30
0.0
210
0.0
220
0.0
230
1.0
  2
SOLID
 70
     1
 71
     0
 91
        1
 92
        3
 72
     0
 73
     1
 93
        4
 10
157.2358500486121
 20
198.9052435940085
 10
157.2358500486121
 20
137.178442239569
 10
159.0358498307589
 20
137.178442239569
 10
159.0358498307589
 20
198.9052435940085
 97
        0
 75
     0
 76
     1
 98
        0
  0
HATCH
  5
110
330
E3
100
AcDbEntity
  8
0
  6
Continuous
100
AcDbHatch
 10
0.0
 20
0.0
 30
0.0
210
0.0
220
0.0
230
1.0
  2
Plaster_0002
 70
     0
 71
     0
 91
        1
 92
        3
 72
     0
 73
     1
 93
        4
 10
157.2358500486121
 20
198.9052435940085
 10
157.2358500486121
 20
137.178442239569
 10
159.0358498307589
 20
137.178442239569
 10
159.0358498307589
 20
198.9052435940085
 97
        0
 75
     0
 76
     2
 52
0.0
 41
1.0
 77
     0
 78
     2
 53
0.0
 43
-1488.68793027213
 44
350.9956652514564
 45
0.0
 46
1.732050807568877
 79
     2
 49
0.0
 49
-1.0
 53
0.0
 43
-1488.18793027213
 44
351.8616906396973
 45
0.0
 46
1.732050807568877
 79
     2
 49
0.0
 49
-1.0
 98
        0
  0
LINE
  5
111
330
E3
100
AcDbEntity
  8
0
  6
Continuous
100
AcDbLine
 10
157.2358500486121
 20
198.9052435940085
 30
0.0
 11
157.2358500486121
 21
137.178442239569
 31
0.0
  0
LINE
  5
112
330
E3
100
AcDbEntity
  8
0
  6
Continuous
100
AcDbLine
 10
157.2358492311586
 20
137.1784426182281
 30
0.0
 11
159.0358501000625
 21
137.1784426182281
 31
0.0
  0
LINE
  5
113
330
E3
100
AcDbEntity
  8
0
  6
Continuous
100
AcDbLine
 10
159.0358498307589
 20
137.178442239569
 30
0.0
 11
159.0358498307589
 21
198.9052435940085
 31
0.0
  0
HATCH
  5
114
330
E3
100
AcDbEntity
  8
0
  6
Continuous
 62
   255
370
     0
100
AcDbHatch
 10
0.0
 20
0.0
 30
0.0
210
0.0
220
0.0
230
1.0
  2
SOLID
 70
     1
 71
     0
 91
        1
 92
        3
 72
     0
 73
     1
 93
        4
 10
177.1174859022491
 20
151.3784425109963
 10
168.1174859022492
 20
151.3784425109963
 10
168.1174859022492
 20
133.3784425109963
 10
177.1174859022491
 20
133.3784425109963
 97
        0
 75
     0
 76
     1
 98
        0
  0
LINE
  5
115
330
E3
100
AcDbEntity
  8
0
  6
Continuous
100
AcDbLine
 10
177.1174856205474
 20
151.3784412013113
 30
0.0
 11
168.1174872315822
 21
133.3784414456036
 31
0.0
  0
LINE
  5
116
330
E3
100
AcDbEntity
  8
0
  6
Continuous
100
AcDbLine
 10
177.1174856205474
 20
151.3784412013113
 30
0.0
 11
168.1174872315822
 21
151.3784412013113
 31
0.0
  0
LINE
  5
117
330
E3
100
AcDbEntity
  8
0
  6
Continuous
100
AcDbLine
 10
168.1174872315822
 20
151.3784412013113
 30
0.0
 11
168.1174872315822
 21
133.3784414456036
 31
0.0
  0
LINE
  5
118
330
E3
100
AcDbEntity
  8
0
  6
Continuous
100
AcDbLine
 10
168.1174872315822
 20
133.3784414456036
 30
0.0
 11
177.1174856205474
 21
133.3784414456036
 31
0.0
  0
LINE
  5
119
330
E3
100
AcDbEntity
  8
0
  6
Continuous
100
AcDbLine
 10
177.1174856205474
 20
133.3784414456036
 30
0.0
 11
177.1174856205474
 21
151.3784412013113
 31
0.0
  0
HATCH
  5
11A
330
E3
100
AcDbEntity
  8
0
  6
Continuous
 62
   255
370
     0
100
AcDbHatch
 10
0.0
 20
0.0
 30
0.0
210
0.0
220
0.0
230
1.0
  2
SOLID
 70
     1
 71
     0
 91
        1
 92
        3
 72
     0
 73
     1
 93
        4
 10
177.1174859022491
 20
130.736097640514
 10
168.1174859022492
 20
130.736097640514
 10
168.1174859022492
 20
112.736097640514
 10
177.1174859022491
 20
112.736097640514
 97
        0
 75
     0
 76
     1
 98
        0
  0
LINE
  5
11B
330
E3
100
AcDbEntity
  8
0
  6
Continuous
100
AcDbLine
 10
177.1174856205474
 20
130.7360988441766
 30
0.0
 11
168.1174872315822
 21
112.7360990884689
 31
0.0
  0
LINE
  5
11C
330
E3
100
AcDbEntity
  8
0
  6
Continuous
100
AcDbLine
 10
177.1174856205474
 20
130.7360988441766
 30
0.0
 11
168.1174872315822
 21
130.7360988441766
 31
0.0
  0
LINE
  5
11D
330
E3
100
AcDbEntity
  8
0
  6
Continuous
100
AcDbLine
 10
168.1174872315822
 20
130.7360988441766
 30
0.0
 11
168.1174872315822
 21
112.7360990884689
 31
0.0
  0
LINE
  5
11E
330
E3
100
AcDbEntity
  8
0
  6
Continuous
100
AcDbLine
 10
168.1174872315822
 20
112.7360990884689
 30
0.0
 11
177.1174856205474
 21
112.7360990884689
 31
0.0
  0
LINE
  5
11F
330
E3
100
AcDbEntity
  8
0
  6
Continuous
100
AcDbLine
 10
177.1174856205474
 20
112.7360990884689
 30
0.0
 11
177.1174856205474
 21
130.7360988441766
 31
0.0
  0
HATCH
  5
120
330
E3
100
AcDbEntity
  8
0
  6
Continuous
 62
   255
370
     0
100
AcDbHatch
 10
0.0
 20
0.0
 30
0.0
210
0.0
220
0.0
230
1.0
  2
SOLID
 70
     1
 71
     0
 91
        1
 92
        3
 72
     0
 73
     1
 93
        4
 10
159.1174859022493
 20
115.0117335009554
 10
159.1174859022493
 20
97.01173350095537
 10
168.1174859022492
 20
97.01173350095537
 10
168.1174859022492
 20
115.0117335009554
 97
        0
 75
     0
 76
     1
 98
        0
  0
LINE
  5
121
330
E3
100
AcDbEntity
  8
0
  6
Continuous
100
AcDbLine
 10
168.1174872315822
 20
115.0117343705166
 30
0.0
 11
159.1174858648397
 21
97.01173461480893
 31
0.0
  0
LINE
  5
122
330
E3
100
AcDbEntity
  8
0
  6
Continuous
100
AcDbLine
 10
159.1174858648397
 20
115.0117343705166
 30
0.0
 11
168.1174872315822
 21
97.01173461480893
 31
0.0
  0
LINE
  5
123
330
E3
100
AcDbEntity
  8
0
  6
Continuous
100
AcDbLine
 10
159.1174858648397
 20
115.0117343705166
 30
0.0
 11
168.1174872315822
 21
115.0117343705166
 31
0.0
  0
LINE
  5
124
330
E3
100
AcDbEntity
  8
0
  6
Continuous
100
AcDbLine
 10
168.1174872315822
 20
115.0117343705166
 30
0.0
 11
168.1174872315822
 21
97.01173461480893
 31
0.0
  0
LINE
  5
125
330
E3
100
AcDbEntity
  8
0
  6
Continuous
100
AcDbLine
 10
168.1174872315822
 20
97.01173461480893
 30
0.0
 11
159.1174858648397
 21
97.01173461480893
 31
0.0
  0
LINE
  5
126
330
E3
100
AcDbEntity
  8
0
  6
Continuous
100
AcDbLine
 10
159.1174858648397
 20
97.01173461480893
 30
0.0
 11
159.1174858648397
 21
115.0117343705166
 31
0.0
  0
HATCH
  5
127
330
E3
100
AcDbEntity
  8
0
  6
Continuous
 62
   255
370
     0
100
AcDbHatch
 10
0.0
 20
0.0
 30
0.0
210
0.0
220
0.0
230
1.0
  2
SOLID
 70
     1
 71
     0
 91
        1
 92
        3
 72
     0
 73
     1
 93
        8
 10
149.4538248712417
 20
75.11660877879062
 10
149.4538248712417
 20
23.56188081484578
 10
197.2913994821194
 20
23.56188081484578
 10
197.2913994821194
 20
83.55166601136033
 10
175.3422270631407
 20
79.68143322333098
 10
174.0291528644072
 20
85.44990124193052
 10
172.7160714889538
 20
73.21837354822041
 10
171.4029972902203
 20
78.98684156681995
 97
        0
 75
     0
 76
     1
 98
        0
  0
LINE
  5
128
330
E3
100
AcDbEntity
  8
0
  6
Continuous
100
AcDbLine
 10
149.4538272704519
 20
75.11661156829169
 30
0.0
 11
171.4029969750288
 21
78.98684361862077
 31
0.0
  0
LINE
  5
129
330
E3
100
AcDbEntity
  8
0
  6
Continuous
100
AcDbLine
 10
175.3422300810361
 20
79.68143399689558
 30
0.0
 11
197.291399785613
 21
83.55166604722464
 31
0.0
  0
LINE
  5
12A
330
E3
100
AcDbEntity
  8
0
  6
Continuous
100
AcDbLine
 10
175.3422300810361
 20
79.68143399689558
 30
0.0
 11
174.0291523790336
 21
85.4499037893732
 31
0.0
  0
LINE
  5
12B
330
E3
100
AcDbEntity
  8
0
  6
Continuous
100
AcDbLine
 10
174.0291523790336
 20
85.4499037893732
 30
0.0
 11
172.7160746770312
 21
73.21837382614316
 31
0.0
  0
LINE
  5
12C
330
E3
100
AcDbEntity
  8
0
  6
Continuous
100
AcDbLine
 10
172.7160746770312
 20
73.21837382614316
 30
0.0
 11
171.4029969750288
 21
78.98684361862077
 31
0.0
  0
LINE
  5
12E
330
E3
100
AcDbEntity
  8
0
  6
Dashed
100
AcDbLine
 10
165.2377532457378
 20
155.5934432856243
 30
0.0
 11
165.2377532457378
 21
141.9242275513469
 31
0.0
  0
LINE
  5
12F
330
E3
100
AcDbEntity
  8
0
  6
Dashed
100
AcDbLine
 10
167.2960554512848
 20
125.3229374395602
 30
0.0
 11
167.2960554512848
 21
156.0923668950592
 31
0.0
  0
LINE
  5
130
330
E3
100
AcDbEntity
  8
0
  6
Dashed
100
AcDbLine
 10
165.2377532457378
 20
155.5934432856243
 30
0.0
 11
165.9827901493122
 21
156.23606251662
 31
0.0
  0
LINE
  5
131
330
E3
100
AcDbEntity
  8
0
  6
Dashed
100
AcDbLine
 10
165.9827901493122
 20
156.23606251662
 30
0.0
 11
165.9827901493122
 21
198.9052439437405
 31
0.0
  0
LINE
  5
132
330
E3
100
AcDbEntity
  8
0
  6
Continuous
100
AcDbLine
 10
77.03935738029271
 20
52.93717332260744
 30
0.0
 11
201.4024595753678
 21
52.93717332260744
 31
0.0
  0
LINE
  5
133
330
E3
100
AcDbEntity
  8
0
  6
Continuous
100
AcDbLine
 10
177.4324421481681
 20
61.02354199040224
 30
0.0
 11
177.4324421481681
 21
31.41598763876262
 31
0.0
  0
LINE
  5
134
330
E3
100
AcDbEntity
  8
0
  6
Continuous
100
AcDbLine
 10
77.03935738029271
 20
31.41598763876262
 30
0.0
 11
77.03935738029271
 21
52.93717332260744
 31
0.0
  0
LINE
  5
135
330
E3
100
AcDbEntity
  8
0
  6
Continuous
100
AcDbLine
 10
153.4624247209684
 20
61.02354199040224
 30
0.0
 11
153.4624247209684
 21
31.41598763876262
 31
0.0
  0
LINE
  5
136
330
E3
100
AcDbEntity
  8
0
  6
Continuous
100
AcDbLine
 10
77.03935738029271
 20
42.17658196957368
 30
0.0
 11
201.4024595753678
 21
42.17658196957368
 31
0.0
  0
LINE
  5
137
330
E3
100
AcDbEntity
  8
0
  6
Continuous
100
AcDbLine
 10
77.03935738029271
 20
31.41598763876262
 30
0.0
 11
201.4024595753678
 21
31.41598763876262
 31
0.0
  0
LINE
  5
138
330
E3
100
AcDbEntity
  8
0
  6
Continuous
100
AcDbLine
 10
153.4624247209684
 20
61.02354199040224
 30
0.0
 11
177.4324421481681
 21
61.02354199040224
 31
0.0
  0
LINE
  5
139
330
E3
100
AcDbEntity
  8
0
  6
Continuous
100
AcDbLine
 10
201.4024595753678
 20
61.02354199040224
 30
0.0
 11
201.4024595753678
 21
31.41598763876262
 31
0.0
  0
LINE
  5
13A
330
E3
100
AcDbEntity
  8
0
  6
Continuous
100
AcDbLine
 10
177.4324421481681
 20
61.02354199040224
 30
0.0
 11
201.4024595753678
 21
61.02354199040224
 31
0.0
  0
LINE
  5
13B
330
E3
100
AcDbEntity
  8
0
  6
Dashed
100
AcDbLine
 10
167.4693352903565
 20
124.9637758078681
 30
0.0
 11
78.7596788841079
 21
124.9637758078681
 31
0.0
  0
LINE
  5
13C
330
E3
100
AcDbEntity
  8
0
  6
Dashed
100
AcDbLine
 10
128.7542222557697
 20
132.0659771657257
 30
0.0
 11
126.0464102425465
 21
132.0659771657257
 31
0.0
  0
LWPOLYLINE
  5
13D
330
E3
100
AcDbEntity
  8
0
  6
Continuous
100
AcDbPolyline
 90
        4
 70
   128
 43
0.0
 10
159.5560999963057
 20
139.571883683396
 10
159.5560999963057
 20
137.6222694051577
 10
164.6300565694887
 20
137.6222694051577
 10
164.6300565694887
 20
149.5449105682306
  0
LWPOLYLINE
  5
13E
330
E3
100
AcDbEntity
  8
0
  6
Continuous
100
AcDbPolyline
 90
        7
 70
   128
 43
0.0
 10
120.598464714204
 20
127.2591394428956
 10
124.4355766189806
 20
131.4668977820831
 10
166.3967878498427
 20
131.4668977820831
 10
166.3589507698966
 20
153.1141126125359
 10
166.0986788213128
 20
153.3547790195425
 10
165.8135209527043
 20
153.0436977083335
 10
165.8135209527043
 20
150.9179754150719
  0
LWPOLYLINE
  5
13F
330
E3
100
AcDbEntity
  8
0
  6
Continuous
100
AcDbPolyline
 90
        3
 70
   128
 43
0.0
 10
92.06513356143708
 20
127.5011779545818
 42
0.5012060838038215
 10
99.71990934907127
 20
127.723502625549
 42
-0.4736328287552234
 10
107.0402104810115
 20
127.6183838804715
  0
LWPOLYLINE
  5
140
330
E3
100
AcDbEntity
  8
0
  6
Continuous
100
AcDbPolyline
 90
       34
 70
   128
 43
0.0
 10
166.2151624388173
 20
125.7310263186787
 10
165.2151624388176
 20
125.7310263186787
 10
160.5151624388172
 20
130.9310263186787
 10
155.9151624388173
 20
130.9310263186787
 10
151.2151624388176
 20
125.7310263186787
 10
144.8151624388174
 20
125.7310263186787
 10
144.181363418344
 20
126.4322507668616
 10
141.4489614592904
 20
126.4322507668616
 10
140.8151624388177
 20
125.7310263186787
 10
134.4151624388177
 20
125.7310263186787
 10
129.7151624388171
 20
130.9310263186787
 10
125.1151624388172
 20
130.9310263186787
 10
120.4151624388174
 20
125.7310263186787
 10
114.0151624388175
 20
125.7310263186787
 10
113.381363418344
 20
126.4322507668616
 10
110.6489614592903
 20
126.4322507668616
 10
110.0151624388177
 20
125.7310263186787
 10
103.6151624388175
 20
125.7310263186787
 10
98.91516243881715
 20
130.9310263186787
 10
94.31516243881721
 20
130.9310263186787
 10
89.6151624388175
 20
125.7310263186787
 10
83.21516243881754
 20
125.7310263186787
 10
82.5813634183441
 20
126.4322507668616
 10
79.84896145929032
 20
126.4322507668616
 10
79.21516243881754
 20
125.7310263186787
 10
72.81516243881737
 20
125.7310263186787
 10
68.11516243881744
 20
130.9310263186787
 10
63.5151624388175
 20
130.9310263186787
 10
58.81516243881735
 20
125.7310263186787
 10
52.41516243881739
 20
125.7310263186787
 10
51.78136341834438
 20
126.4322507668616
 10
49.04896145929061
 20
126.4322507668616
 10
48.41516243881738
 20
125.7310263186787
 10
46.37732444102409
 20
125.7310263186787
  0
HATCH
  5
141
330
E3
100
AcDbEntity
  8
0
  6
Continuous
 62
   255
370
     0
100
AcDbHatch
 10
0.0
 20
0.0
 30
0.0
210
0.0
220
0.0
230
1.0
  2
SOLID
 70
     1
 71
     0
 91
        1
 92
        3
 72
     0
 73
     1
 93
        8
 10
148.5420028568649
 20
168.5444418697064
 10
170.6903458823079
 20
172.4497925871144
 10
172.003424149476
 20
166.6813263966904
 10
173.316502416644
 20
178.9128544981364
 10
174.6295755922893
 20
173.1443883077123
 10
196.7779237092551
 20
177.0497390251203
 10
196.7779237092551
 20
198.9052431179118
 10
148.5420028568649
 20
198.9052431179118
 97
        0
 75
     0
 76
     1
 98
        0
  0
LINE
  5
142
330
E3
100
AcDbEntity
  8
0
  6
Continuous
100
AcDbLine
 10
148.5420020823274
 20
168.5444429565004
 30
0.0
 11
170.6903463774079
 21
172.4497949123478
 31
0.0
  0
LINE
  5
143
330
E3
100
AcDbEntity
  8
0
  6
Continuous
100
AcDbLine
 10
174.6295765056378
 20
173.1443882683998
 30
0.0
 11
196.7779237784955
 21
177.0497402242472
 31
0.0
  0
LINE
  5
144
330
E3
100
AcDbEntity
  8
0
  6
Continuous
100
AcDbLine
 10
174.6295765056378
 20
173.1443882683998
 30
0.0
 11
173.3165017814127
 21
178.9128580608775
 31
0.0
  0
LINE
  5
145
330
E3
100
AcDbEntity
  8
0
  6
Continuous
100
AcDbLine
 10
173.3165017814127
 20
178.9128580608775
 30
0.0
 11
172.0034240794103
 21
166.6813251198701
 31
0.0
  0
LINE
  5
146
330
E3
100
AcDbEntity
  8
0
  6
Continuous
100
AcDbLine
 10
172.0034240794103
 20
166.6813251198701
 30
0.0
 11
170.6903463774079
 21
172.4497949123478
 31
0.0
  0
LINE
  5
147
330
E3
100
AcDbEntity
  8
Doc_ Floor
  6
Continuous
100
AcDbLine
 10
151.1802413066301
 20
136.2004422850866
 30
0.0
 11
151.1802413066301
 21
137.1784426182281
 31
0.0
  0
LINE
  5
148
330
E3
100
AcDbEntity
  8
Doc_ Floor
  6
Continuous
100
AcDbLine
 10
151.1802413066301
 20
137.1784426182281
 30
0.0
 11
151.1802413066301
 21
153.1141131471263
 31
0.0
  0
LINE
  5
149
330
E3
100
AcDbEntity
  8
Doc_ Floor
  6
Continuous
100
AcDbLine
 10
150.1802411547698
 20
137.755791948507
 30
0.0
 11
152.1802414584904
 21
136.6010932879492
 31
0.0
  0
LINE
  5
14A
330
E3
100
AcDbEntity
  8
Doc_ Floor
  6
Continuous
100
AcDbLine
 10
152.1802414584904
 20
152.5367638168474
 30
0.0
 11
150.1802411547698
 21
153.6914624774052
 31
0.0
  0
LINE
  5
14B
330
E3
100
AcDbEntity
  8
Doc_ Floor
  6
Continuous
100
AcDbLine
 10
151.1802413066301
 20
153.1141131471263
 30
0.0
 11
151.1802413066301
 21
154.0921134802679
 31
0.0
  0
LINE
  5
14C
330
E3
100
AcDbEntity
  8
Doc_ Floor
  6
Continuous
100
AcDbLine
 10
152.6802400455319
 20
137.1784426182281
 30
0.0
 11
149.6802425677284
 21
137.1784426182281
 31
0.0
  0
LINE
  5
14D
330
E3
100
AcDbEntity
  8
Doc_ Floor
  6
Continuous
100
AcDbLine
 10
152.6802400455319
 20
153.1141131471263
 30
0.0
 11
149.6802425677284
 21
153.1141131471263
 31
0.0
  0
MTEXT
  5
14E
330
E3
100
AcDbEntity
  8
Doc_ Floor
  6
Continuous
100
AcDbMText
 10
147.8961667906316
 20
145.0805991717929
 30
0.0
 40
2.5
 41
0.0
 71
     7
 72
     1
  1
{A}
  7
GENERATED_STYLE_1
 73
     1
 44
1.0
  0
LINE
  5
14F
330
E3
100
AcDbEntity
  8
Doc_ Floor
  6
Continuous
100
AcDbLine
 10
151.1802413066301
 20
130.4888986613212
 30
0.0
 11
151.1802413066301
 21
131.4668989944627
 31
0.0
  0
LINE
  5
150
330
E3
100
AcDbEntity
  8
Doc_ Floor
  6
Continuous
100
AcDbLine
 10
151.1802413066301
 20
131.4668989944627
 30
0.0
 11
151.1802413066301
 21
137.1784426182281
 31
0.0
  0
LINE
  5
151
330
E3
100
AcDbEntity
  8
Doc_ Floor
  6
Continuous
100
AcDbLine
 10
150.1802411547698
 20
132.0442483247416
 30
0.0
 11
152.1802414584904
 21
130.8895466864065
 31
0.0
  0
LINE
  5
152
330
E3
100
AcDbEntity
  8
Doc_ Floor
  6
Continuous
100
AcDbLine
 10
152.1802414584904
 20
136.6010932879492
 30
0.0
 11
150.1802411547698
 21
137.755791948507
 31
0.0
  0
LINE
  5
153
330
E3
100
AcDbEntity
  8
Doc_ Floor
  6
Continuous
100
AcDbLine
 10
151.1802413066301
 20
137.1784426182281
 30
0.0
 11
151.1802413066301
 21
138.1564429513696
 31
0.0
  0
LINE
  5
154
330
E3
100
AcDbEntity
  8
Doc_ Floor
  6
Continuous
100
AcDbLine
 10
152.6802400455319
 20
131.4668989944627
 30
0.0
 11
149.6802425677284
 21
131.4668989944627
 31
0.0
  0
LINE
  5
155
330
E3
100
AcDbEntity
  8
Doc_ Floor
  6
Continuous
100
AcDbLine
 10
152.6802400455319
 20
137.1784426182281
 30
0.0
 11
149.6802425677284
 21
137.1784426182281
 31
0.0
  0
MTEXT
  5
156
330
E3
100
AcDbEntity
  8
Doc_ Floor
  6
Continuous
100
AcDbMText
 10
138.5379121124755
 20
132.8936866203525
 30
0.0
 40
2.5
 41
0.0
 71
     7
 72
     1
  1
{35 MIN.}
  7
GENERATED_STYLE_1
 73
     1
 44
1.0
  0
LINE
  5
157
330
E3
100
AcDbEntity
  8
Doc_ Floor
  6
Continuous
100
AcDbLine
 10
123.4575753214872
 20
135.9485759251965
 30
0.0
 11
124.4355756546287
 21
135.9485759251965
 31
0.0
  0
LINE
  5
158
330
E3
100
AcDbEntity
  8
Doc_ Floor
  6
Continuous
100
AcDbLine
 10
124.4355756546287
 20
135.9485759251965
 30
0.0
 11
166.3967875500495
 21
135.9485759251965
 31
0.0
  0
LINE
  5
159
330
E3
100
AcDbEntity
  8
Doc_ Floor
  6
Continuous
100
AcDbLine
 10
125.0129279626849
 20
136.9485760770567
 30
0.0
 11
123.8582263243499
 21
134.9485757733362
 31
0.0
  0
LINE
  5
15A
330
E3
100
AcDbEntity
  8
Doc_ Floor
  6
Continuous
100
AcDbLine
 10
165.8194382197706
 20
134.9485757733362
 30
0.0
 11
166.9741368803284
 21
136.9485760770567
 31
0.0
  0
LINE
  5
15B
330
E3
100
AcDbEntity
  8
Doc_ Floor
  6
Continuous
100
AcDbLine
 10
166.3967875500495
 20
135.9485759251965
 30
0.0
 11
167.374787883191
 21
135.9485759251965
 31
0.0
  0
LINE
  5
15C
330
E3
100
AcDbEntity
  8
Doc_ Floor
  6
Continuous
100
AcDbLine
 10
124.4355756546287
 20
134.4485742085174
 30
0.0
 11
124.4355756546287
 21
137.4485746640982
 31
0.0
  0
LINE
  5
15D
330
E3
100
AcDbEntity
  8
Doc_ Floor
  6
Continuous
100
AcDbLine
 10
166.3967875500495
 20
134.4485742085174
 30
0.0
 11
166.3967875500495
 21
137.4485746640982
 31
0.0
  0
MTEXT
  5
15E
330
E3
100
AcDbEntity
  8
Doc_ Floor
  6
Continuous
100
AcDbMText
 10
134.5673215097305
 20
136.4485755531038
 30
0.0
 40
2.5
 41
0.0
 71
     7
 72
     1
  1
{B}
  7
GENERATED_STYLE_1
 73
     1
 44
1.0
  0
MTEXT
  5
15F
330
E3
100
AcDbEntity
  8
Doc_ Floor
  6
Continuous
100
AcDbMText
 10
196.4204054808611
 20
171.8545330605044
 30
0.0
 40
2.499999999999999
 41
0.0
 71
     4
 72
     1
  1
{HEM TO FLASHING EDGE}
  7
GENERATED_STYLE_1
 73
     1
 44
1.0
  0
LINE
  5
160
330
E3
100
AcDbEntity
  8
Doc_ Floor
  6
Continuous
100
AcDbLine
 10
166.3589519116304
 20
152.1125615732909
 30
0.0
 11
168.6210234180603
 21
155.2448497855825
 31
0.0
  0
LINE
  5
161
330
E3
100
AcDbEntity
  8
Doc_ Floor
  6
Continuous
100
AcDbLine
 10
166.3589519116304
 20
152.1125615732909
 30
0.0
 11
169.8841072169132
 21
153.6941662991968
 31
0.0
  0
LINE
  5
162
330
E3
100
AcDbEntity
  8
Doc_ Floor
  6
Continuous
100
AcDbLine
 10
168.6210234180603
 20
155.2448497855825
 30
0.0
 11
169.8841072169132
 21
153.6941662991968
 31
0.0
  0
LWPOLYLINE
  5
163
330
E3
100
AcDbEntity
  8
Doc_ Floor
  6
Continuous
100
AcDbPolyline
 90
        8
 70
   128
 43
0.0
 10
169.2525651739379
 20
154.4695078430173
 10
179.6112532404657
 20
162.6699253916852
 10
183.6567927397811
 20
165.6856301659465
 10
187.0422612359303
 20
168.043471927233
 10
189.8395077435132
 20
169.7923054158503
 10
192.1203812771295
 20
170.9809853721035
 10
193.9567308513788
 20
171.6583665362982
 10
195.420405480861
 20
171.8733036487397
  0
MTEXT
  5
164
330
E3
100
AcDbEntity
  8
Doc_ Floor
  6
Continuous
100
AcDbMText
 10
110.2044393979538
 20
170.8655649609201
 30
0.0
 40
2.5
 41
56.71228972547948
 71
     6
 72
     1
  1
{CLADDING ON CAVITY BATTENS WITH BUILDING WRAP OVER METAL HIDDEN GUTTER}
  7
GENERATED_STYLE_1
 73
     1
 44
1.065340909090909
  0
LINE
  5
165
330
E3
100
AcDbEntity
  8
Doc_ Floor
  6
Continuous
100
AcDbLine
 10
157.0358497963419
 20
150.9436529594405
 30
0.0
 11
153.4468688123345
 21
152.3745285537946
 31
0.0
  0
LINE
  5
166
330
E3
100
AcDbEntity
  8
Doc_ Floor
  6
Continuous
100
AcDbLine
 10
157.0358497963419
 20
150.9436529594405
 30
0.0
 11
154.6431402218273
 21
153.9773201652154
 31
0.0
  0
LINE
  5
167
330
E3
100
AcDbEntity
  8
Doc_ Floor
  6
Continuous
100
AcDbLine
 10
153.4468688123345
 20
152.3745285537946
 30
0.0
 11
154.6431402218273
 21
153.9773201652154
 31
0.0
  0
LWPOLYLINE
  5
168
330
E3
100
AcDbEntity
  8
Doc_ Floor
  6
Continuous
100
AcDbPolyline
 90
       15
 70
   128
 43
0.0
 10
154.0450034690336
 20
153.1759243893217
 10
147.6123693558259
 20
157.7334386206432
 10
141.7167589291798
 20
161.5215493634779
 10
138.9345331653421
 20
163.1426564909121
 10
136.2435980035747
 20
164.590106423264
 10
133.6296316706874
 20
165.8701303862132
 10
131.0783123934904
 20
166.9889596054397
 10
128.5753183987934
 20
167.9528253066231
 10
126.1063279134064
 20
168.7679587154432
 10
123.6570191641395
 20
169.4405910575798
 10
121.2130703778026
 20
169.9769535587127
 10
118.7601597812055
 20
170.3832774445216
 10
116.2839656011584
 20
170.6657939406864
 10
113.7701660644711
 20
170.8307342728867
 10
111.2044393979537
 20
170.8843296668024
  0
MTEXT
  5
16A
330
E3
100
AcDbEntity
  8
Doc_ Floor
  6
Continuous
100
AcDbMText
 10
100.5528247465177
 20
153.1428715949729
 30
0.0
 40
2.5
 41
56.68353220040024
 71
     6
 72
     1
  1
\A1;{\fCentury Gothic|b0|i0|c0|p34;TRS 6\PMIN. ROOF PITCH 4\fArial|b0|i0|c0|p34;\H1.029412x;\U+00B0}
  7
GENERATED_STYLE_1
 73
     1
 44
1.056356172275314
  0
LINE
  5
16B
330
E3
100
AcDbEntity
  8
Doc_ Floor
  6
Continuous
100
AcDbLine
 10
134.0745365640608
 20
125.7310269301272
 30
0.0
 11
132.3715993241438
 21
129.1991965111517
 31
0.0
  0
LINE
  5
16C
330
E3
100
AcDbEntity
  8
Doc_ Floor
  6
Continuous
100
AcDbLine
 10
134.0745365640608
 20
125.7310269301272
 30
0.0
 11
134.3338354561006
 21
129.5860187162166
 31
0.0
  0
LINE
  5
16D
330
E3
100
AcDbEntity
  8
Doc_ Floor
  6
Continuous
100
AcDbLine
 10
132.3715993241438
 20
129.1991965111517
 30
0.0
 11
134.3338354561006
 21
129.5860187162166
 31
0.0
  0
LWPOLYLINE
  5
16E
330
E3
100
AcDbEntity
  8
Doc_ Floor
  6
Continuous
100
AcDbPolyline
 90
       17
 70
   128
 43
0.0
 10
133.3527185794827
 20
129.3926073276914
 10
132.5619358902586
 20
132.5819335283635
 10
131.6574827626523
 20
135.505384850441
 10
130.6295254141645
 20
138.1712556655935
 10
129.4682300622963
 20
140.5878403454904
 10
128.1637629245484
 20
142.7634332618014
 10
126.7062902184218
 20
144.7063287861958
 10
125.0859781614174
 20
146.4248212903433
 10
123.2929929710359
 20
147.9272051459134
 10
121.3175008647784
 20
149.2217747245757
 10
119.1496680601456
 20
150.3168243979996
 10
116.7796607746384
 20
151.2206485378547
 10
114.1976452257578
 20
151.9415415158105
 10
111.3937876310045
 20
152.4877977035366
 10
108.3582542078795
 20
152.8677114727025
 10
105.0812111738837
 20
153.0895771949777
 10
101.5528247465178
 20
153.1616892420317
  0
MTEXT
  5
16F
330
E3
100
AcDbEntity
  8
Doc_ Floor
  6
Continuous
100
AcDbMText
 10
100.5528247465177
 20
139.0084227469098
 30
0.0
 40
2.5
 41
0.0
 71
     6
 72
     1
  1
{UNDERLAY}
  7
GENERATED_STYLE_1
 73
     1
 44
1.0
  0
LINE
  5
170
330
E3
100
AcDbEntity
  8
Doc_ Floor
  6
Continuous
100
AcDbLine
 10
113.8171493456217
 20
124.9637758078681
 30
0.0
 11
111.8637750789204
 21
128.2973200769985
 31
0.0
  0
LINE
  5
171
330
E3
100
AcDbEntity
  8
Doc_ Floor
  6
Continuous
100
AcDbLine
 10
113.8171493456217
 20
124.9637758078681
 30
0.0
 11
113.7922521495866
 21
128.8273971925833
 31
0.0
  0
LINE
  5
172
330
E3
100
AcDbEntity
  8
Doc_ Floor
  6
Continuous
100
AcDbLine
 10
111.8637750789204
 20
128.2973200769985
 30
0.0
 11
113.7922521495866
 21
128.8273971925833
 31
0.0
  0
LWPOLYLINE
  5
173
330
E3
100
AcDbEntity
  8
Doc_ Floor
  6
Continuous
100
AcDbPolyline
 90
        9
 70
   128
 43
0.0
 10
112.8280133526868
 20
128.5623595735138
 10
111.8860875303899
 20
131.249653425282
 10
110.8590016674151
 20
133.4883981007656
 10
109.7225539621764
 20
135.3064083247743
 10
108.452542613088
 20
136.7314988221175
 10
107.0247658185638
 20
137.7914843176049
 10
105.415021777018
 20
138.514179536046
 10
103.5991086868647
 20
138.9273992022503
 10
101.5528247465178
 20
139.0589580410274
  0
MTEXT
  5
174
330
E3
100
AcDbEntity
  8
Doc_ Floor
  6
Continuous
100
AcDbMText
 10
196.4204054808611
 20
104.0446282221472
 30
0.0
 40
2.499999999999999
 41
0.0
 71
     4
 72
     1
  1
{PURLIN}
  7
GENERATED_STYLE_1
 73
     1
 44
1.0
  0
LINE
  5
175
330
E3
100
AcDbEntity
  8
Doc_ Floor
  6
Continuous
100
AcDbLine
 10
162.6100761975308
 20
118.954519964847
 30
0.0
 11
165.9896181926693
 21
117.0818494186269
 31
0.0
  0
LINE
  5
176
330
E3
100
AcDbEntity
  8
Doc_ Floor
  6
Continuous
100
AcDbLine
 10
162.6100761975308
 20
118.954519964847
 30
0.0
 11
164.6005089027749
 21
115.6429665811035
 31
0.0
  0
LINE
  5
177
330
E3
100
AcDbEntity
  8
Doc_ Floor
  6
Continuous
100
AcDbLine
 10
165.9896181926693
 20
117.0818494186269
 30
0.0
 11
164.6005089027749
 21
115.6429665811035
 31
0.0
  0
LWPOLYLINE
  5
178
330
E3
100
AcDbEntity
  8
Doc_ Floor
  6
Continuous
100
AcDbPolyline
 90
       13
 70
   128
 43
0.0
 10
165.2950634778693
 20
116.3624076779615
 10
168.9074832343356
 20
113.2121847392251
 10
172.4149347682818
 20
110.5912780233338
 10
174.1525401648782
 20
109.4687919381767
 10
175.8917947615264
 20
108.4660033357969
 10
177.6419956434537
 20
107.5787016918832
 10
179.4124398958874
 20
106.8026764821242
 10
181.2124246040548
 20
106.1337171822085
 10
183.0512468531832
 20
105.567613267825
 10
184.9382037284998
 20
105.1001542146623
 10
186.8825923152319
 20
104.727129498409
 10
190.9808529638518
 20
104.2475409793858
 10
195.420405480861
 20
104.0951635162648
  0
MTEXT
  5
179
330
E3
100
AcDbEntity
  8
0
  6
Continuous
100
AcDbMText
 10
80.59528482672773
 20
44.09353246607213
 30
0.0
 40
2.499999999999999
 41
69.01187578516166
 71
     7
 72
     1
  1
\A1;{\fCentury Gothic|b0|i0|c0|p34;LOW, MEDIUM OR HIGH WIND ZONE.\P ROOF PITCH \fArial|b0|i0|c0|p34;\H1.029412x;\U+2265\fCentury Gothic|b0|i0|c0|p34;\H0.971429x; 10\fArial|b0|i0|c0|p34;\H1.029412x;\U+00B0}
  7
GENERATED_STYLE_1
 73
     1
 44
1.056355725756043
  0
MTEXT
  5
17A
330
E3
100
AcDbEntity
  8
0
  6
Continuous
100
AcDbMText
 10
80.59528482672773
 20
33.67068007994492
 30
0.0
 40
2.5
 41
69.01187578516166
 71
     7
 72
     1
  1
\A1;{\fCentury Gothic|b0|i0|c0|p34;VERY HIGH OR EXTRA WIND ZONE.\P ROOF PITCH \fArial|b0|i0|c0|p34;\H1.029412x;<\fCentury Gothic|b0|i0|c0|p34;\H0.971429x; 10\fArial|b0|i0|c0|p34;\H1.029412x;\U+00B0}
  7
GENERATED_STYLE_1
 73
     1
 44
1.056355725756043
  0
MTEXT
  5
17B
330
E3
100
AcDbEntity
  8
0
  6
Continuous
100
AcDbMText
 10
165.0946188833159
 20
46.13336019751755
 30
0.0
 40
2.499999999999999
 41
0.0
 71
     8
 72
     1
  1
{75MM}
  7
GENERATED_STYLE_1
 73
     1
 44
1.0
  0
MTEXT
  5
17C
330
E3
100
AcDbEntity
  8
0
  6
Continuous
100
AcDbMText
 10
165.0946188833159
 20
34.89458067605981
 30
0.0
 40
2.499999999999999
 41
0.0
 71
     8
 72
     1
  1
{100MM}
  7
GENERATED_STYLE_1
 73
     1
 44
1.0
  0
MTEXT
  5
17D
330
E3
100
AcDbEntity
  8
0
  6
Continuous
100
AcDbMText
 10
165.0946188833159
 20
56.01542426293395
 30
0.0
 40
2.499999999999999
 41
0.0
 71
     8
 72
     1
  1
{A}
  7
GENERATED_STYLE_1
 73
     1
 44
1.0
  0
MTEXT
  5
17E
330
E3
100
AcDbEntity
  8
0
  6
Continuous
100
AcDbMText
 10
189.0646357201038
 20
46.13335364306047
 30
0.0
 40
2.5
 41
0.0
 71
     8
 72
     1
  1
{2 CRESTS}
  7
GENERATED_STYLE_1
 73
     1
 44
1.0
  0
MTEXT
  5
17F
330
E3
100
AcDbEntity
  8
0
  6
Continuous
100
AcDbMText
 10
189.0646357201038
 20
34.89457336032336
 30
0.0
 40
2.499999999999999
 41
0.0
 71
     8
 72
     1
  1
{2 CRESTS}
  7
GENERATED_STYLE_1
 73
     1
 44
1.0
  0
MTEXT
  5
180
330
E3
100
AcDbEntity
  8
0
  6
Continuous
100
AcDbMText
 10
189.0646357201038
 20
56.015424262934
 30
0.0
 40
2.499999999999999
 41
0.0
 71
     8
 72
     1
  1
{B}
  7
GENERATED_STYLE_1
 73
     1
 44
1.0
  0
MTEXT
  5
181
330
E3
100
AcDbEntity
  8
Doc_ Floor
  6
Continuous
100
AcDbMText
 10
109.0617621256458
 20
82.3994032760864
 30
0.0
 40
2.499999999999999
 41
0.0
 71
     6
 72
     1
  1
{ROOF FRAME}
  7
GENERATED_STYLE_1
 73
     1
 44
1.0
  0
LINE
  5
182
330
E3
100
AcDbEntity
  8
Doc_ Floor
  6
Continuous
100
AcDbLine
 10
129.6189777180566
 20
108.030668993368
 30
0.0
 11
129.2825722605184
 21
104.1816387174403
 31
0.0
  0
LINE
  5
183
330
E3
100
AcDbEntity
  8
Doc_ Floor
  6
Continuous
100
AcDbLine
 10
129.6189777180566
 20
108.030668993368
 30
0.0
 11
127.4031272709326
 21
104.8655150529769
 31
0.0
  0
LINE
  5
184
330
E3
100
AcDbEntity
  8
Doc_ Floor
  6
Continuous
100
AcDbLine
 10
129.2825722605184
 20
104.1816387174403
 30
0.0
 11
127.4031272709326
 21
104.8655150529769
 31
0.0
  0
LWPOLYLINE
  5
185
330
E3
100
AcDbEntity
  8
Doc_ Floor
  6
Continuous
100
AcDbPolyline
 90
       15
 70
   128
 43
0.0
 10
128.3428502201417
 20
104.5235763658809
 10
126.0877698862937
 20
98.8393358963964
 10
123.918216553828
 20
94.11293937167176
 10
122.8508071478098
 20
92.08967416672519
 10
121.7871330537728
 20
90.28275984172554
 10
120.7213121255955
 20
88.68449302792517
 10
119.6474622171564
 20
87.28717035657638
 10
118.5597011823341
 20
86.0830884589315
 10
117.4521468750072
 20
85.06454396624282
 10
116.3189171490541
 20
84.22383350976273
 10
115.1541298583535
 20
83.55325372074348
 10
113.9519028567838
 20
83.04510123043744
 10
112.7063539982236
 20
82.69167267009692
 10
111.4116011365515
 20
82.48526467097423
 10
110.0617621256459
 20
82.41817386432172
  0
HATCH
  5
186
330
E3
100
AcDbEntity
  8
0
  6
Continuous
 62
   255
370
     0
100
AcDbHatch
 10
0.0
 20
0.0
 30
0.0
210
0.0
220
0.0
230
1.0
  2
SOLID
 70
     1
 71
     0
 91
        1
 92
        3
 72
     0
 73
     1
 93
        8
 10
46.37732430882468
 20
132.8215722545748
 10
46.37732430882468
 20
89.3863658790073
 10
114.0931841197398
 20
89.3863658790073
 10
110.6110805753583
 20
109.1343526931698
 10
104.3795485976951
 20
110.4474290254494
 10
116.1480190408145
 20
111.7605091081327
 10
109.9164870631514
 20
113.0735854404123
 10
106.4343835187698
 20
132.8215722545748
 97
        0
 75
     0
 76
     1
 98
        0
  0
LINE
  5
187
330
E3
100
AcDbEntity
  8
0
  6
Continuous
100
AcDbLine
 10
106.4343847879996
 20
132.8215732676186
 30
0.0
 11
109.9164873890275
 21
113.0735854791684
 31
0.0
  0
LINE
  5
188
330
E3
100
AcDbEntity
  8
0
  6
Continuous
100
AcDbLine
 10
110.6110807450796
 20
109.1343523731611
 30
0.0
 11
114.0931833461075
 21
89.38636756248815
 31
0.0
  0
LINE
  5
189
330
E3
100
AcDbEntity
  8
0
  6
Continuous
100
AcDbLine
 10
110.6110807450796
 20
109.1343523731611
 30
0.0
 11
104.3795487152339
 21
110.4474300751635
 31
0.0
  0
LINE
  5
18A
330
E3
100
AcDbEntity
  8
0
  6
Continuous
100
AcDbLine
 10
104.3795487152339
 20
110.4474300751635
 30
0.0
 11
116.1480194188732
 21
111.7605077771659
 31
0.0
  0
LINE
  5
18B
330
E3
100
AcDbEntity
  8
0
  6
Continuous
100
AcDbLine
 10
116.1480194188732
 20
111.7605077771659
 30
0.0
 11
109.9164873890275
 21
113.0735854791684
 31
0.0
  0
HATCH
  5
18C
330
E3
100
AcDbEntity
  8
0
  6
Continuous
 62
   255
370
     0
100
AcDbHatch
 10
0.0
 20
0.0
 30
0.0
210
0.0
220
0.0
230
1.0
  2
SOLID
 70
     1
 71
     0
 91
        1
 92
        3
 72
     0
 73
     1
 93
        4
 10
126.6317362186311
 20
132.8962016853967
 10
126.6317362186311
 20
132.3962016853968
 10
128.1317362186312
 20
132.3962016853968
 10
128.1317362186312
 20
132.8962016853967
 97
        0
 75
     0
 76
     1
 98
        0
  0
HATCH
  5
18D
330
E3
100
AcDbEntity
  8
0
  6
Continuous
 62
   255
370
     0
100
AcDbHatch
 10
0.0
 20
0.0
 30
0.0
210
0.0
220
0.0
230
1.0
  2
SOLID
 70
     1
 71
     0
 91
        1
 92
        3
 72
     1
 73
     1
 93
        4
 10
126.8817362186312
 20
132.8128683520634
 42
0.0
 10
126.8817362186312
 20
132.4795350187301
 42
0.1666666666666667
 10
127.8817362186311
 20
132.4795350187301
 42
0.0
 10
127.8817362186311
 20
132.8128683520634
 42
0.1666666666666667
 97
        0
 75
     0
 76
     1
 98
        0
  0
LINE
  5
18E
330
E3
100
AcDbEntity
  8
0
  6
Continuous
100
AcDbLine
 10
126.8817363317423
 20
132.479533855422
 30
0.0
 11
126.8817363317423
 21
132.8128692245603
 31
0.0
  0
ARC
  5
18F
330
E3
100
AcDbEntity
  8
0
  6
Continuous
100
AcDbCircle
 10
127.3817362186311
 20
133.9378683520633
 30
0.0
 40
1.541666666666497
100
AcDbArc
 50
251.0753555839488
 51
288.9246444160513
  0
LINE
  5
190
330
E3
100
AcDbEntity
  8
0
  6
Continuous
100
AcDbLine
 10
127.8817364836026
 20
132.8128692245603
 30
0.0
 11
127.8817364836026
 21
132.479533855422
 31
0.0
  0
ARC
  5
191
330
E3
100
AcDbEntity
  8
0
  6
Continuous
100
AcDbCircle
 10
127.3817362186311
 20
131.3545350187303
 30
0.0
 40
1.541666666666497
100
AcDbArc
 50
71.07535558394876
 51
108.9246444160512
  0
HATCH
  5
192
330
E3
100
AcDbEntity
  8
0
  6
Continuous
 62
   255
370
     0
100
AcDbHatch
 10
0.0
 20
0.0
 30
0.0
210
0.0
220
0.0
230
1.0
  2
SOLID
 70
     1
 71
     0
 91
        1
 92
        3
 72
     1
 73
     1
 93
        4
 10
126.381736218631
 20
132.8128683520634
 42
0.0
 10
126.381736218631
 20
132.4795350187301
 42
0.3333333333333333
 10
126.8817362186312
 20
132.4795350187301
 42
0.0
 10
126.8817362186312
 20
132.8128683520634
 42
0.3333333333333333
 97
        0
 75
     0
 76
     1
 98
        0
  0
LINE
  5
193
330
E3
100
AcDbEntity
  8
0
  6
Continuous
100
AcDbLine
 10
126.3817347669235
 20
132.479533855422
 30
0.0
 11
126.3817347669235
 21
132.8128692245603
 31
0.0
  0
ARC
  5
194
330
E3
100
AcDbEntity
  8
0
  6
Continuous
100
AcDbCircle
 10
126.6317362186311
 20
132.8128683520635
 30
0.0
 40
0.4166666666667984
100
AcDbArc
 50
233.1301023541552
 51
306.8698976458448
  0
LINE
  5
195
330
E3
100
AcDbEntity
  8
0
  6
Continuous
100
AcDbLine
 10
126.8817363317423
 20
132.8128692245603
 30
0.0
 11
126.8817363317423
 21
132.479533855422
 31
0.0
  0
ARC
  5
196
330
E3
100
AcDbEntity
  8
0
  6
Continuous
100
AcDbCircle
 10
126.6317362186311
 20
132.47953501873
 30
0.0
 40
0.4166666666667984
100
AcDbArc
 50
53.13010235415521
 51
126.8698976458448
  0
HATCH
  5
197
330
E3
100
AcDbEntity
  8
0
  6
Continuous
 62
   255
370
     0
100
AcDbHatch
 10
0.0
 20
0.0
 30
0.0
210
0.0
220
0.0
230
1.0
  2
SOLID
 70
     1
 71
     0
 91
        1
 92
        3
 72
     1
 73
     1
 93
        4
 10
128.3817362186313
 20
132.8128683520634
 42
0.3333333333333333
 10
127.8817362186311
 20
132.8128683520634
 42
0.0
 10
127.8817362186311
 20
132.4795350187301
 42
0.3333333333333333
 10
128.3817362186313
 20
132.4795350187301
 42
0.0
 97
        0
 75
     0
 76
     1
 98
        0
  0
ARC
  5
198
330
E3
100
AcDbEntity
  8
0
  6
Continuous
100
AcDbCircle
 10
128.1317362186312
 20
132.47953501873
 30
0.0
 40
0.4166666666667984
100
AcDbArc
 50
53.13010235415521
 51
126.8698976458448
  0
LINE
  5
199
330
E3
100
AcDbEntity
  8
0
  6
Continuous
100
AcDbLine
 10
127.8817364836026
 20
132.8128692245603
 30
0.0
 11
127.8817364836026
 21
132.479533855422
 31
0.0
  0
ARC
  5
19A
330
E3
100
AcDbEntity
  8
0
  6
Continuous
100
AcDbCircle
 10
128.1317362186312
 20
132.8128683520635
 30
0.0
 40
0.4166666666667984
100
AcDbArc
 50
233.1301023541552
 51
306.8698976458448
  0
LINE
  5
19B
330
E3
100
AcDbEntity
  8
0
  6
Continuous
100
AcDbLine
 10
128.3817350706441
 20
132.479533855422
 30
0.0
 11
128.3817350706441
 21
132.8128692245603
 31
0.0
  0
HATCH
  5
19C
330
E3
100
AcDbEntity
  8
0
  6
Continuous
 62
   255
370
     0
100
AcDbHatch
 10
0.0
 20
0.0
 30
0.0
210
0.0
220
0.0
230
1.0
  2
SOLID
 70
     1
 71
     0
 91
        1
 92
        3
 72
     0
 73
     1
 93
        4
 10
127.7150692186311
 20
132.3962016853968
 10
127.0484032186312
 20
132.3962016853968
 10
127.0484032186312
 20
130.7962016853967
 10
127.7150692186311
 20
130.7962016853967
 97
        0
 75
     0
 76
     1
 98
        0
  0
LINE
  5
19D
330
E3
100
AcDbEntity
  8
0
  6
Continuous
100
AcDbLine
 10
127.0484025274228
 20
132.3962007575818
 30
0.0
 11
127.7150702879221
 21
132.3962007575818
 31
0.0
  0
LINE
  5
19E
330
E3
100
AcDbEntity
  8
0
  6
Continuous
100
AcDbLine
 10
127.0484025274228
 20
130.7962023012717
 30
0.0
 11
127.0484025274228
 21
132.3962007575818
 31
0.0
  0
LINE
  5
19F
330
E3
100
AcDbEntity
  8
0
  6
Continuous
100
AcDbLine
 10
127.7150702879221
 20
130.7962023012717
 30
0.0
 11
127.0484025274228
 21
130.7962023012717
 31
0.0
  0
LINE
  5
1A0
330
E3
100
AcDbEntity
  8
0
  6
Continuous
100
AcDbLine
 10
127.7150702879221
 20
132.3962007575818
 30
0.0
 11
127.7150702879221
 21
130.7962023012717
 31
0.0
  0
HATCH
  5
1A1
330
E3
100
AcDbEntity
  8
0
  6
Continuous
 62
   255
370
     0
100
AcDbHatch
 10
0.0
 20
0.0
 30
0.0
210
0.0
220
0.0
230
1.0
  2
SOLID
 70
     1
 71
     0
 91
        1
 92
        3
 72
     0
 73
     1
 93
        5
 10
127.6817362186311
 20
130.7962016853967
 10
127.0817362186312
 20
130.7962016853967
 10
127.0817362186312
 20
122.3962016853967
 10
127.3817362186311
 20
121.7962016853968
 10
127.6817362186311
 20
122.3962016853967
 97
        0
 75
     0
 76
     1
 98
        0
  0
LINE
  5
1A2
330
E3
100
AcDbEntity
  8
0
  6
Continuous
100
AcDbLine
 10
127.0817357665589
 20
130.7962023012717
 30
0.0
 11
127.681737048786
 21
130.7962023012717
 31
0.0
  0
LINE
  5
1A3
330
E3
100
AcDbEntity
  8
0
  6
Continuous
100
AcDbLine
 10
127.0817357665589
 20
122.3962022167563
 30
0.0
 11
127.0817357665589
 21
130.7962023012717
 31
0.0
  0
LINE
  5
1A4
330
E3
100
AcDbEntity
  8
0
  6
Continuous
100
AcDbLine
 10
127.3817349187838
 20
121.7962009345292
 30
0.0
 11
127.0817357665589
 21
122.3962022167563
 31
0.0
  0
LINE
  5
1A5
330
E3
100
AcDbEntity
  8
0
  6
Continuous
100
AcDbLine
 10
127.681737048786
 20
122.3962022167563
 30
0.0
 11
127.3817349187838
 21
121.7962009345292
 31
0.0
  0
LINE
  5
1A6
330
E3
100
AcDbEntity
  8
0
  6
Continuous
100
AcDbLine
 10
127.681737048786
 20
130.7962023012717
 30
0.0
 11
127.681737048786
 21
122.3962022167563
 31
0.0
  0
LINE
  5
1A7
330
E3
100
AcDbEntity
  8
0
  6
Continuous
100
AcDbLine
 10
126.6317370382216
 20
132.8962023224006
 30
0.0
 11
128.1317357771233
 21
132.8962023224006
 31
0.0
  0
LINE
  5
1A8
330
E3
100
AcDbEntity
  8
0
  6
Continuous
100
AcDbLine
 10
128.1317357771233
 20
132.3962007575818
 30
0.0
 11
126.6317370382216
 21
132.3962007575818
 31
0.0
  0
LINE
  5
1A9
330
E3
100
AcDbEntity
  8
0
  6
Continuous
100
AcDbLine
 10
127.8817362186311
 20
130.7962016853967
 30
0.0
 11
127.879833567677
 21
130.7907669027881
 31
0.0
  0
LINE
  5
1AA
330
E3
100
AcDbEntity
  8
0
  6
Continuous
100
AcDbLine
 10
127.879833567677
 20
130.7907669027881
 30
0.0
 11
127.8741400951373
 21
130.7853321201793
 31
0.0
  0
LINE
  5
1AB
330
E3
100
AcDbEntity
  8
0
  6
Continuous
100
AcDbLine
 10
127.8741400951373
 20
130.7853321201793
 30
0.0
 11
127.8647006196489
 21
130.7798959927574
 31
0.0
  0
LINE
  5
1AC
330
E3
100
AcDbEntity
  8
0
  6
Continuous
100
AcDbLine
 10
127.8647006196489
 20
130.7798959927574
 30
0.0
 11
127.8515835106267
 21
130.7744615491784
 31
0.0
  0
LINE
  5
1AD
330
E3
100
AcDbEntity
  8
0
  6
Continuous
100
AcDbLine
 10
127.8515835106267
 20
130.7744615491784
 30
0.0
 11
127.8348900910629
 21
130.7690271055994
 31
0.0
  0
LINE
  5
1AE
330
E3
100
AcDbEntity
  8
0
  6
Continuous
100
AcDbLine
 10
127.8348900910629
 20
130.7690271055994
 30
0.0
 11
127.8147484053816
 21
130.7635926620204
 31
0.0
  0
LINE
  5
1AF
330
E3
100
AcDbEntity
  8
0
  6
Continuous
100
AcDbLine
 10
127.8147484053816
 20
130.7635926620204
 30
0.0
 11
127.7913132980026
 21
130.7581582184414
 31
0.0
  0
LINE
  5
1B0
330
E3
100
AcDbEntity
  8
0
  6
Continuous
100
AcDbLine
 10
127.7913132980026
 20
130.7581582184414
 30
0.0
 11
127.7647574800094
 21
130.7527237748623
 31
0.0
  0
LINE
  5
1B1
330
E3
100
AcDbEntity
  8
0
  6
Continuous
100
AcDbLine
 10
127.7647574800094
 20
130.7527237748623
 30
0.0
 11
127.7352893958133
 21
130.7472893312834
 31
0.0
  0
LINE
  5
1B2
330
E3
100
AcDbEntity
  8
0
  6
Continuous
100
AcDbLine
 10
127.7352893958133
 20
130.7472893312834
 30
0.0
 11
127.7031294009348
 21
130.7418548877043
 31
0.0
  0
LINE
  5
1B3
330
E3
100
AcDbEntity
  8
0
  6
Continuous
100
AcDbLine
 10
127.7031294009348
 20
130.7418548877043
 30
0.0
 11
127.6685246508901
 21
130.7364204441253
 31
0.0
  0
LINE
  5
1B4
330
E3
100
AcDbEntity
  8
0
  6
Continuous
100
AcDbLine
 10
127.6685246508901
 20
130.7364204441253
 30
0.0
 11
127.6317371900819
 21
130.730983022769
 31
0.0
  0
LINE
  5
1B5
330
E3
100
AcDbEntity
  8
0
  6
Continuous
100
AcDbLine
 10
127.6317371900819
 20
130.730983022769
 30
0.0
 11
127.5930439517993
 21
130.72554857919
 31
0.0
  0
LINE
  5
1B6
330
E3
100
AcDbEntity
  8
0
  6
Continuous
100
AcDbLine
 10
127.5930439517993
 20
130.72554857919
 30
0.0
 11
127.5527456915502
 21
130.720114135611
 31
0.0
  0
LINE
  5
1B7
330
E3
100
AcDbEntity
  8
0
  6
Continuous
100
AcDbLine
 10
127.5527456915502
 20
130.720114135611
 30
0.0
 11
127.5111461426194
 21
130.714679692032
 31
0.0
  0
LINE
  5
1B8
330
E3
100
AcDbEntity
  8
0
  6
Continuous
100
AcDbLine
 10
127.5111461426194
 20
130.714679692032
 30
0.0
 11
127.4685609494011
 21
130.709245248453
 31
0.0
  0
LINE
  5
1B9
330
E3
100
AcDbEntity
  8
0
  6
Continuous
100
AcDbLine
 10
127.4685609494011
 20
130.709245248453
 30
0.0
 11
127.4253146896215
 21
130.703810804874
 31
0.0
  0
LINE
  5
1BA
330
E3
100
AcDbEntity
  8
0
  6
Continuous
100
AcDbLine
 10
127.4253146896215
 20
130.703810804874
 30
0.0
 11
127.3817349187838
 21
130.698376361295
 31
0.0
  0
LINE
  5
1BB
330
E3
100
AcDbEntity
  8
0
  6
Continuous
100
AcDbLine
 10
127.3817349187838
 20
130.698376361295
 30
0.0
 11
127.3381581257235
 21
130.692941917716
 31
0.0
  0
LINE
  5
1BC
330
E3
100
AcDbEntity
  8
0
  6
Continuous
100
AcDbLine
 10
127.3381581257235
 20
130.692941917716
 30
0.0
 11
127.2949118659438
 21
130.687507474137
 31
0.0
  0
LINE
  5
1BD
330
E3
100
AcDbEntity
  8
0
  6
Continuous
100
AcDbLine
 10
127.2949118659438
 20
130.687507474137
 30
0.0
 11
127.2523266727255
 21
130.6820700527807
 31
0.0
  0
LINE
  5
1BE
330
E3
100
AcDbEntity
  8
0
  6
Continuous
100
AcDbLine
 10
127.2523266727255
 20
130.6820700527807
 30
0.0
 11
127.2107271237947
 21
130.6766356092017
 31
0.0
  0
LINE
  5
1BF
330
E3
100
AcDbEntity
  8
0
  6
Continuous
100
AcDbLine
 10
127.2107271237947
 20
130.6766356092017
 30
0.0
 11
127.1704258857683
 21
130.6712011656227
 31
0.0
  0
LINE
  5
1C0
330
E3
100
AcDbEntity
  8
0
  6
Continuous
100
AcDbLine
 10
127.1704258857683
 20
130.6712011656227
 30
0.0
 11
127.1317356252631
 21
130.6657667220437
 31
0.0
  0
LINE
  5
1C1
330
E3
100
AcDbEntity
  8
0
  6
Continuous
100
AcDbLine
 10
127.1317356252631
 20
130.6657667220437
 30
0.0
 11
127.0949481644548
 21
130.6603322784647
 31
0.0
  0
LINE
  5
1C2
330
E3
100
AcDbEntity
  8
0
  6
Continuous
100
AcDbLine
 10
127.0949481644548
 20
130.6603322784647
 30
0.0
 11
127.0603434144101
 21
130.6548978348856
 31
0.0
  0
LINE
  5
1C3
330
E3
100
AcDbEntity
  8
0
  6
Continuous
100
AcDbLine
 10
127.0603434144101
 20
130.6548978348856
 30
0.0
 11
127.0281834195316
 21
130.6494633913067
 31
0.0
  0
LINE
  5
1C4
330
E3
100
AcDbEntity
  8
0
  6
Continuous
100
AcDbLine
 10
127.0281834195316
 20
130.6494633913067
 30
0.0
 11
126.9987153353355
 21
130.6440289477277
 31
0.0
  0
LINE
  5
1C5
330
E3
100
AcDbEntity
  8
0
  6
Continuous
100
AcDbLine
 10
126.9987153353355
 20
130.6440289477277
 30
0.0
 11
126.9721595173424
 21
130.6385915263713
 31
0.0
  0
LINE
  5
1C6
330
E3
100
AcDbEntity
  8
0
  6
Continuous
100
AcDbLine
 10
126.9721595173424
 20
130.6385915263713
 30
0.0
 11
126.9487244099633
 21
130.6331570827923
 31
0.0
  0
LINE
  5
1C7
330
E3
100
AcDbEntity
  8
0
  6
Continuous
100
AcDbLine
 10
126.9487244099633
 20
130.6331570827923
 30
0.0
 11
126.928582724282
 21
130.6277226392133
 31
0.0
  0
LINE
  5
1C8
330
E3
100
AcDbEntity
  8
0
  6
Continuous
100
AcDbLine
 10
126.928582724282
 20
130.6277226392133
 30
0.0
 11
126.9118893047182
 21
130.6222881956344
 31
0.0
  0
LINE
  5
1C9
330
E3
100
AcDbEntity
  8
0
  6
Continuous
100
AcDbLine
 10
126.9118893047182
 20
130.6222881956344
 30
0.0
 11
126.898772195696
 21
130.6168537520553
 31
0.0
  0
LINE
  5
1CA
330
E3
100
AcDbEntity
  8
0
  6
Continuous
100
AcDbLine
 10
126.898772195696
 20
130.6168537520553
 30
0.0
 11
126.8893326416437
 21
130.6114193084763
 31
0.0
  0
LINE
  5
1CB
330
E3
100
AcDbEntity
  8
0
  6
Continuous
100
AcDbLine
 10
126.8893326416437
 20
130.6114193084763
 30
0.0
 11
126.8836388695853
 21
130.6059842940924
 31
0.0
  0
LINE
  5
1CC
330
E3
100
AcDbEntity
  8
0
  6
Continuous
100
AcDbLine
 10
126.8836388695853
 20
130.6059842940924
 30
0.0
 11
126.8817362186312
 21
130.6005495114837
 31
0.0
  0
LINE
  5
1CD
330
E3
100
AcDbEntity
  8
0
  6
Continuous
100
AcDbLine
 10
127.8817362186311
 20
130.4048973375706
 30
0.0
 11
127.879833567677
 21
130.399462554962
 31
0.0
  0
LINE
  5
1CE
330
E3
100
AcDbEntity
  8
0
  6
Continuous
100
AcDbLine
 10
127.879833567677
 20
130.399462554962
 30
0.0
 11
127.8741400951373
 21
130.3940277723533
 31
0.0
  0
LINE
  5
1CF
330
E3
100
AcDbEntity
  8
0
  6
Continuous
100
AcDbLine
 10
127.8741400951373
 20
130.3940277723533
 30
0.0
 11
127.8647006196489
 21
130.3885922328506
 31
0.0
  0
LINE
  5
1D0
330
E3
100
AcDbEntity
  8
0
  6
Continuous
100
AcDbLine
 10
127.8647006196489
 20
130.3885922328506
 30
0.0
 11
127.8515835106267
 21
130.3831577892716
 31
0.0
  0
LINE
  5
1D1
330
E3
100
AcDbEntity
  8
0
  6
Continuous
100
AcDbLine
 10
127.8515835106267
 20
130.3831577892716
 30
0.0
 11
127.8348900910629
 21
130.3777233456926
 31
0.0
  0
LINE
  5
1D2
330
E3
100
AcDbEntity
  8
0
  6
Continuous
100
AcDbLine
 10
127.8348900910629
 20
130.3777233456926
 30
0.0
 11
127.8147484053816
 21
130.3722889021136
 31
0.0
  0
LINE
  5
1D3
330
E3
100
AcDbEntity
  8
0
  6
Continuous
100
AcDbLine
 10
127.8147484053816
 20
130.3722889021136
 30
0.0
 11
127.7913132980026
 21
130.3668544585346
 31
0.0
  0
LINE
  5
1D4
330
E3
100
AcDbEntity
  8
0
  6
Continuous
100
AcDbLine
 10
127.7913132980026
 20
130.3668544585346
 30
0.0
 11
127.7647574800094
 21
130.3614200149556
 31
0.0
  0
LINE
  5
1D5
330
E3
100
AcDbEntity
  8
0
  6
Continuous
100
AcDbLine
 10
127.7647574800094
 20
130.3614200149556
 30
0.0
 11
127.7352893958133
 21
130.3559855713766
 31
0.0
  0
LINE
  5
1D6
330
E3
100
AcDbEntity
  8
0
  6
Continuous
100
AcDbLine
 10
127.7352893958133
 20
130.3559855713766
 30
0.0
 11
127.7031294009348
 21
130.3505481500203
 31
0.0
  0
LINE
  5
1D7
330
E3
100
AcDbEntity
  8
0
  6
Continuous
100
AcDbLine
 10
127.7031294009348
 20
130.3505481500203
 30
0.0
 11
127.6685246508901
 21
130.3451137064413
 31
0.0
  0
LINE
  5
1D8
330
E3
100
AcDbEntity
  8
0
  6
Continuous
100
AcDbLine
 10
127.6685246508901
 20
130.3451137064413
 30
0.0
 11
127.6317371900819
 21
130.3396792628623
 31
0.0
  0
LINE
  5
1D9
330
E3
100
AcDbEntity
  8
0
  6
Continuous
100
AcDbLine
 10
127.6317371900819
 20
130.3396792628623
 30
0.0
 11
127.5930439517993
 21
130.3342448192832
 31
0.0
  0
LINE
  5
1DA
330
E3
100
AcDbEntity
  8
0
  6
Continuous
100
AcDbLine
 10
127.5930439517993
 20
130.3342448192832
 30
0.0
 11
127.5527456915502
 21
130.3288103757043
 31
0.0
  0
LINE
  5
1DB
330
E3
100
AcDbEntity
  8
0
  6
Continuous
100
AcDbLine
 10
127.5527456915502
 20
130.3288103757043
 30
0.0
 11
127.5111461426194
 21
130.3233759321253
 31
0.0
  0
LINE
  5
1DC
330
E3
100
AcDbEntity
  8
0
  6
Continuous
100
AcDbLine
 10
127.5111461426194
 20
130.3233759321253
 30
0.0
 11
127.4685609494011
 21
130.3179414885462
 31
0.0
  0
LINE
  5
1DD
330
E3
100
AcDbEntity
  8
0
  6
Continuous
100
AcDbLine
 10
127.4685609494011
 20
130.3179414885462
 30
0.0
 11
127.4253146896215
 21
130.3125070449672
 31
0.0
  0
LINE
  5
1DE
330
E3
100
AcDbEntity
  8
0
  6
Continuous
100
AcDbLine
 10
127.4253146896215
 20
130.3125070449672
 30
0.0
 11
127.3817349187838
 21
130.3070726013882
 31
0.0
  0
LINE
  5
1DF
330
E3
100
AcDbEntity
  8
0
  6
Continuous
100
AcDbLine
 10
127.3817349187838
 20
130.3070726013882
 30
0.0
 11
127.3381581257235
 21
130.3016351800319
 31
0.0
  0
LINE
  5
1E0
330
E3
100
AcDbEntity
  8
0
  6
Continuous
100
AcDbLine
 10
127.3381581257235
 20
130.3016351800319
 30
0.0
 11
127.2949118659438
 21
130.2962007364529
 31
0.0
  0
LINE
  5
1E1
330
E3
100
AcDbEntity
  8
0
  6
Continuous
100
AcDbLine
 10
127.2949118659438
 20
130.2962007364529
 30
0.0
 11
127.2523266727255
 21
130.2907662928739
 31
0.0
  0
LINE
  5
1E2
330
E3
100
AcDbEntity
  8
0
  6
Continuous
100
AcDbLine
 10
127.2523266727255
 20
130.2907662928739
 30
0.0
 11
127.2107271237947
 21
130.2853318492949
 31
0.0
  0
LINE
  5
1E3
330
E3
100
AcDbEntity
  8
0
  6
Continuous
100
AcDbLine
 10
127.2107271237947
 20
130.2853318492949
 30
0.0
 11
127.1704258857683
 21
130.2798974057159
 31
0.0
  0
LINE
  5
1E4
330
E3
100
AcDbEntity
  8
0
  6
Continuous
100
AcDbLine
 10
127.1704258857683
 20
130.2798974057159
 30
0.0
 11
127.1317356252631
 21
130.2744629621369
 31
0.0
  0
LINE
  5
1E5
330
E3
100
AcDbEntity
  8
0
  6
Continuous
100
AcDbLine
 10
127.1317356252631
 20
130.2744629621369
 30
0.0
 11
127.0949481644548
 21
130.2690285185579
 31
0.0
  0
LINE
  5
1E6
330
E3
100
AcDbEntity
  8
0
  6
Continuous
100
AcDbLine
 10
127.0949481644548
 20
130.2690285185579
 30
0.0
 11
127.0603434144101
 21
130.2635940749789
 31
0.0
  0
LINE
  5
1E7
330
E3
100
AcDbEntity
  8
0
  6
Continuous
100
AcDbLine
 10
127.0603434144101
 20
130.2635940749789
 30
0.0
 11
127.0281834195316
 21
130.2581596313999
 31
0.0
  0
LINE
  5
1E8
330
E3
100
AcDbEntity
  8
0
  6
Continuous
100
AcDbLine
 10
127.0281834195316
 20
130.2581596313999
 30
0.0
 11
126.9987153353355
 21
130.2527222100436
 31
0.0
  0
LINE
  5
1E9
330
E3
100
AcDbEntity
  8
0
  6
Continuous
100
AcDbLine
 10
126.9987153353355
 20
130.2527222100436
 30
0.0
 11
126.9721595173424
 21
130.2472877664646
 31
0.0
  0
LINE
  5
1EA
330
E3
100
AcDbEntity
  8
0
  6
Continuous
100
AcDbLine
 10
126.9721595173424
 20
130.2472877664646
 30
0.0
 11
126.9487244099633
 21
130.2418533228856
 31
0.0
  0
LINE
  5
1EB
330
E3
100
AcDbEntity
  8
0
  6
Continuous
100
AcDbLine
 10
126.9487244099633
 20
130.2418533228856
 30
0.0
 11
126.928582724282
 21
130.2364188793066
 31
0.0
  0
LINE
  5
1EC
330
E3
100
AcDbEntity
  8
0
  6
Continuous
100
AcDbLine
 10
126.928582724282
 20
130.2364188793066
 30
0.0
 11
126.9118893047182
 21
130.2309844357275
 31
0.0
  0
LINE
  5
1ED
330
E3
100
AcDbEntity
  8
0
  6
Continuous
100
AcDbLine
 10
126.9118893047182
 20
130.2309844357275
 30
0.0
 11
126.898772195696
 21
130.2255499921486
 31
0.0
  0
LINE
  5
1EE
330
E3
100
AcDbEntity
  8
0
  6
Continuous
100
AcDbLine
 10
126.898772195696
 20
130.2255499921486
 30
0.0
 11
126.8893326416437
 21
130.2201155485695
 31
0.0
  0
LINE
  5
1EF
330
E3
100
AcDbEntity
  8
0
  6
Continuous
100
AcDbLine
 10
126.8893326416437
 20
130.2201155485695
 30
0.0
 11
126.8836388695853
 21
130.2146799462663
 31
0.0
  0
LINE
  5
1F0
330
E3
100
AcDbEntity
  8
0
  6
Continuous
100
AcDbLine
 10
126.8836388695853
 20
130.2146799462663
 30
0.0
 11
126.8817362186312
 21
130.2092451636576
 31
0.0
  0
LINE
  5
1F1
330
E3
100
AcDbEntity
  8
0
  6
Continuous
100
AcDbLine
 10
127.8817362186311
 20
130.0135929897446
 30
0.0
 11
127.879833567677
 21
130.0081582071359
 31
0.0
  0
LINE
  5
1F2
330
E3
100
AcDbEntity
  8
0
  6
Continuous
100
AcDbLine
 10
127.879833567677
 20
130.0081582071359
 30
0.0
 11
127.8741400951373
 21
130.0027234245272
 31
0.0
  0
LINE
  5
1F3
330
E3
100
AcDbEntity
  8
0
  6
Continuous
100
AcDbLine
 10
127.8741400951373
 20
130.0027234245272
 30
0.0
 11
127.8647006196489
 21
129.9972884729438
 31
0.0
  0
LINE
  5
1F4
330
E3
100
AcDbEntity
  8
0
  6
Continuous
100
AcDbLine
 10
127.8647006196489
 20
129.9972884729438
 30
0.0
 11
127.8515835106267
 21
129.9918540293648
 31
0.0
  0
LINE
  5
1F5
330
E3
100
AcDbEntity
  8
0
  6
Continuous
100
AcDbLine
 10
127.8515835106267
 20
129.9918540293648
 30
0.0
 11
127.8348900910629
 21
129.9864195857858
 31
0.0
  0
LINE
  5
1F6
330
E3
100
AcDbEntity
  8
0
  6
Continuous
100
AcDbLine
 10
127.8348900910629
 20
129.9864195857858
 30
0.0
 11
127.8147484053816
 21
129.9809851422068
 31
0.0
  0
LINE
  5
1F7
330
E3
100
AcDbEntity
  8
0
  6
Continuous
100
AcDbLine
 10
127.8147484053816
 20
129.9809851422068
 30
0.0
 11
127.7913132980026
 21
129.9755506986278
 31
0.0
  0
LINE
  5
1F8
330
E3
100
AcDbEntity
  8
0
  6
Continuous
100
AcDbLine
 10
127.7913132980026
 20
129.9755506986278
 30
0.0
 11
127.7647574800094
 21
129.9701132772715
 31
0.0
  0
LINE
  5
1F9
330
E3
100
AcDbEntity
  8
0
  6
Continuous
100
AcDbLine
 10
127.7647574800094
 20
129.9701132772715
 30
0.0
 11
127.7352893958133
 21
129.9646788336925
 31
0.0
  0
LINE
  5
1FA
330
E3
100
AcDbEntity
  8
0
  6
Continuous
100
AcDbLine
 10
127.7352893958133
 20
129.9646788336925
 30
0.0
 11
127.7031294009348
 21
129.9592443901135
 31
0.0
  0
LINE
  5
1FB
330
E3
100
AcDbEntity
  8
0
  6
Continuous
100
AcDbLine
 10
127.7031294009348
 20
129.9592443901135
 30
0.0
 11
127.6685246508901
 21
129.9538099465345
 31
0.0
  0
LINE
  5
1FC
330
E3
100
AcDbEntity
  8
0
  6
Continuous
100
AcDbLine
 10
127.6685246508901
 20
129.9538099465345
 30
0.0
 11
127.6317371900819
 21
129.9483755029555
 31
0.0
  0
LINE
  5
1FD
330
E3
100
AcDbEntity
  8
0
  6
Continuous
100
AcDbLine
 10
127.6317371900819
 20
129.9483755029555
 30
0.0
 11
127.5930439517993
 21
129.9429410593765
 31
0.0
  0
LINE
  5
1FE
330
E3
100
AcDbEntity
  8
0
  6
Continuous
100
AcDbLine
 10
127.5930439517993
 20
129.9429410593765
 30
0.0
 11
127.5527456915502
 21
129.9375066157975
 31
0.0
  0
LINE
  5
1FF
330
E3
100
AcDbEntity
  8
0
  6
Continuous
100
AcDbLine
 10
127.5527456915502
 20
129.9375066157975
 30
0.0
 11
127.5111461426194
 21
129.9320721722185
 31
0.0
  0
LINE
  5
200
330
E3
100
AcDbEntity
  8
0
  6
Continuous
100
AcDbLine
 10
127.5111461426194
 20
129.9320721722185
 30
0.0
 11
127.4685609494011
 21
129.9266377286394
 31
0.0
  0
LINE
  5
201
330
E3
100
AcDbEntity
  8
0
  6
Continuous
100
AcDbLine
 10
127.4685609494011
 20
129.9266377286394
 30
0.0
 11
127.4253146896215
 21
129.9212003072832
 31
0.0
  0
LINE
  5
202
330
E3
100
AcDbEntity
  8
0
  6
Continuous
100
AcDbLine
 10
127.4253146896215
 20
129.9212003072832
 30
0.0
 11
127.3817349187838
 21
129.9157658637042
 31
0.0
  0
LINE
  5
203
330
E3
100
AcDbEntity
  8
0
  6
Continuous
100
AcDbLine
 10
127.3817349187838
 20
129.9157658637042
 30
0.0
 11
127.3381581257235
 21
129.9103314201251
 31
0.0
  0
LINE
  5
204
330
E3
100
AcDbEntity
  8
0
  6
Continuous
100
AcDbLine
 10
127.3381581257235
 20
129.9103314201251
 30
0.0
 11
127.2949118659438
 21
129.9048969765461
 31
0.0
  0
LINE
  5
205
330
E3
100
AcDbEntity
  8
0
  6
Continuous
100
AcDbLine
 10
127.2949118659438
 20
129.9048969765461
 30
0.0
 11
127.2523266727255
 21
129.8994625329671
 31
0.0
  0
LINE
  5
206
330
E3
100
AcDbEntity
  8
0
  6
Continuous
100
AcDbLine
 10
127.2523266727255
 20
129.8994625329671
 30
0.0
 11
127.2107271237947
 21
129.8940280893881
 31
0.0
  0
LINE
  5
207
330
E3
100
AcDbEntity
  8
0
  6
Continuous
100
AcDbLine
 10
127.2107271237947
 20
129.8940280893881
 30
0.0
 11
127.1704258857683
 21
129.8885936458091
 31
0.0
  0
LINE
  5
208
330
E3
100
AcDbEntity
  8
0
  6
Continuous
100
AcDbLine
 10
127.1704258857683
 20
129.8885936458091
 30
0.0
 11
127.1317356252631
 21
129.8831592022302
 31
0.0
  0
LINE
  5
209
330
E3
100
AcDbEntity
  8
0
  6
Continuous
100
AcDbLine
 10
127.1317356252631
 20
129.8831592022302
 30
0.0
 11
127.0949481644548
 21
129.8777247586511
 31
0.0
  0
LINE
  5
20A
330
E3
100
AcDbEntity
  8
0
  6
Continuous
100
AcDbLine
 10
127.0949481644548
 20
129.8777247586511
 30
0.0
 11
127.0603434144101
 21
129.8722873372948
 31
0.0
  0
LINE
  5
20B
330
E3
100
AcDbEntity
  8
0
  6
Continuous
100
AcDbLine
 10
127.0603434144101
 20
129.8722873372948
 30
0.0
 11
127.0281834195316
 21
129.8668528937158
 31
0.0
  0
LINE
  5
20C
330
E3
100
AcDbEntity
  8
0
  6
Continuous
100
AcDbLine
 10
127.0281834195316
 20
129.8668528937158
 30
0.0
 11
126.9987153353355
 21
129.8614184501368
 31
0.0
  0
LINE
  5
20D
330
E3
100
AcDbEntity
  8
0
  6
Continuous
100
AcDbLine
 10
126.9987153353355
 20
129.8614184501368
 30
0.0
 11
126.9721595173424
 21
129.8559840065578
 31
0.0
  0
LINE
  5
20E
330
E3
100
AcDbEntity
  8
0
  6
Continuous
100
AcDbLine
 10
126.9721595173424
 20
129.8559840065578
 30
0.0
 11
126.9487244099633
 21
129.8505495629788
 31
0.0
  0
LINE
  5
20F
330
E3
100
AcDbEntity
  8
0
  6
Continuous
100
AcDbLine
 10
126.9487244099633
 20
129.8505495629788
 30
0.0
 11
126.928582724282
 21
129.8451151193998
 31
0.0
  0
LINE
  5
210
330
E3
100
AcDbEntity
  8
0
  6
Continuous
100
AcDbLine
 10
126.928582724282
 20
129.8451151193998
 30
0.0
 11
126.9118893047182
 21
129.8396806758208
 31
0.0
  0
LINE
  5
211
330
E3
100
AcDbEntity
  8
0
  6
Continuous
100
AcDbLine
 10
126.9118893047182
 20
129.8396806758208
 30
0.0
 11
126.898772195696
 21
129.8342462322418
 31
0.0
  0
LINE
  5
212
330
E3
100
AcDbEntity
  8
0
  6
Continuous
100
AcDbLine
 10
126.898772195696
 20
129.8342462322418
 30
0.0
 11
126.8893326416437
 21
129.8288117886628
 31
0.0
  0
LINE
  5
213
330
E3
100
AcDbEntity
  8
0
  6
Continuous
100
AcDbLine
 10
126.8893326416437
 20
129.8288117886628
 30
0.0
 11
126.8836388695853
 21
129.8233755984403
 31
0.0
  0
LINE
  5
214
330
E3
100
AcDbEntity
  8
0
  6
Continuous
100
AcDbLine
 10
126.8836388695853
 20
129.8233755984403
 30
0.0
 11
126.8817362186312
 21
129.8179408158315
 31
0.0
  0
LINE
  5
215
330
E3
100
AcDbEntity
  8
0
  6
Continuous
100
AcDbLine
 10
127.8817362186311
 20
129.6222886419185
 30
0.0
 11
127.879833567677
 21
129.6168538593098
 31
0.0
  0
LINE
  5
216
330
E3
100
AcDbEntity
  8
0
  6
Continuous
100
AcDbLine
 10
127.879833567677
 20
129.6168538593098
 30
0.0
 11
127.8741400951373
 21
129.6114190767011
 31
0.0
  0
LINE
  5
217
330
E3
100
AcDbEntity
  8
0
  6
Continuous
100
AcDbLine
 10
127.8741400951373
 20
129.6114190767011
 30
0.0
 11
127.8647006196489
 21
129.605984713037
 31
0.0
  0
LINE
  5
218
330
E3
100
AcDbEntity
  8
0
  6
Continuous
100
AcDbLine
 10
127.8647006196489
 20
129.605984713037
 30
0.0
 11
127.8515835106267
 21
129.600550269458
 31
0.0
  0
LINE
  5
219
330
E3
100
AcDbEntity
  8
0
  6
Continuous
100
AcDbLine
 10
127.8515835106267
 20
129.600550269458
 30
0.0
 11
127.8348900910629
 21
129.595115825879
 31
0.0
  0
LINE
  5
21A
330
E3
100
AcDbEntity
  8
0
  6
Continuous
100
AcDbLine
 10
127.8348900910629
 20
129.595115825879
 30
0.0
 11
127.8147484053816
 21
129.5896813823
 31
0.0
  0
LINE
  5
21B
330
E3
100
AcDbEntity
  8
0
  6
Continuous
100
AcDbLine
 10
127.8147484053816
 20
129.5896813823
 30
0.0
 11
127.7913132980026
 21
129.5842439609437
 31
0.0
  0
LINE
  5
21C
330
E3
100
AcDbEntity
  8
0
  6
Continuous
100
AcDbLine
 10
127.7913132980026
 20
129.5842439609437
 30
0.0
 11
127.7647574800094
 21
129.5788095173647
 31
0.0
  0
LINE
  5
21D
330
E3
100
AcDbEntity
  8
0
  6
Continuous
100
AcDbLine
 10
127.7647574800094
 20
129.5788095173647
 30
0.0
 11
127.7352893958133
 21
129.5733750737857
 31
0.0
  0
LINE
  5
21E
330
E3
100
AcDbEntity
  8
0
  6
Continuous
100
AcDbLine
 10
127.7352893958133
 20
129.5733750737857
 30
0.0
 11
127.7031294009348
 21
129.5679406302067
 31
0.0
  0
LINE
  5
21F
330
E3
100
AcDbEntity
  8
0
  6
Continuous
100
AcDbLine
 10
127.7031294009348
 20
129.5679406302067
 30
0.0
 11
127.6685246508901
 21
129.5625061866277
 31
0.0
  0
LINE
  5
220
330
E3
100
AcDbEntity
  8
0
  6
Continuous
100
AcDbLine
 10
127.6685246508901
 20
129.5625061866277
 30
0.0
 11
127.6317371900819
 21
129.5570717430487
 31
0.0
  0
LINE
  5
221
330
E3
100
AcDbEntity
  8
0
  6
Continuous
100
AcDbLine
 10
127.6317371900819
 20
129.5570717430487
 30
0.0
 11
127.5930439517993
 21
129.5516372994697
 31
0.0
  0
LINE
  5
222
330
E3
100
AcDbEntity
  8
0
  6
Continuous
100
AcDbLine
 10
127.5930439517993
 20
129.5516372994697
 30
0.0
 11
127.5527456915502
 21
129.5462028558907
 31
0.0
  0
LINE
  5
223
330
E3
100
AcDbEntity
  8
0
  6
Continuous
100
AcDbLine
 10
127.5527456915502
 20
129.5462028558907
 30
0.0
 11
127.5111461426194
 21
129.5407654345344
 31
0.0
  0
LINE
  5
224
330
E3
100
AcDbEntity
  8
0
  6
Continuous
100
AcDbLine
 10
127.5111461426194
 20
129.5407654345344
 30
0.0
 11
127.4685609494011
 21
129.5353309909554
 31
0.0
  0
LINE
  5
225
330
E3
100
AcDbEntity
  8
0
  6
Continuous
100
AcDbLine
 10
127.4685609494011
 20
129.5353309909554
 30
0.0
 11
127.4253146896215
 21
129.5298965473764
 31
0.0
  0
LINE
  5
226
330
E3
100
AcDbEntity
  8
0
  6
Continuous
100
AcDbLine
 10
127.4253146896215
 20
129.5298965473764
 30
0.0
 11
127.3817349187838
 21
129.5244621037974
 31
0.0
  0
LINE
  5
227
330
E3
100
AcDbEntity
  8
0
  6
Continuous
100
AcDbLine
 10
127.3817349187838
 20
129.5244621037974
 30
0.0
 11
127.3381581257235
 21
129.5190276602184
 31
0.0
  0
LINE
  5
228
330
E3
100
AcDbEntity
  8
0
  6
Continuous
100
AcDbLine
 10
127.3381581257235
 20
129.5190276602184
 30
0.0
 11
127.2949118659438
 21
129.5135932166394
 31
0.0
  0
LINE
  5
229
330
E3
100
AcDbEntity
  8
0
  6
Continuous
100
AcDbLine
 10
127.2949118659438
 20
129.5135932166394
 30
0.0
 11
127.2523266727255
 21
129.5081587730604
 31
0.0
  0
LINE
  5
22A
330
E3
100
AcDbEntity
  8
0
  6
Continuous
100
AcDbLine
 10
127.2523266727255
 20
129.5081587730604
 30
0.0
 11
127.2107271237947
 21
129.5027243294813
 31
0.0
  0
LINE
  5
22B
330
E3
100
AcDbEntity
  8
0
  6
Continuous
100
AcDbLine
 10
127.2107271237947
 20
129.5027243294813
 30
0.0
 11
127.1704258857683
 21
129.4972898859024
 31
0.0
  0
LINE
  5
22C
330
E3
100
AcDbEntity
  8
0
  6
Continuous
100
AcDbLine
 10
127.1704258857683
 20
129.4972898859024
 30
0.0
 11
127.1317356252631
 21
129.491852464546
 31
0.0
  0
LINE
  5
22D
330
E3
100
AcDbEntity
  8
0
  6
Continuous
100
AcDbLine
 10
127.1317356252631
 20
129.491852464546
 30
0.0
 11
127.0949481644548
 21
129.486418020967
 31
0.0
  0
LINE
  5
22E
330
E3
100
AcDbEntity
  8
0
  6
Continuous
100
AcDbLine
 10
127.0949481644548
 20
129.486418020967
 30
0.0
 11
127.0603434144101
 21
129.480983577388
 31
0.0
  0
LINE
  5
22F
330
E3
100
AcDbEntity
  8
0
  6
Continuous
100
AcDbLine
 10
127.0603434144101
 20
129.480983577388
 30
0.0
 11
127.0281834195316
 21
129.475549133809
 31
0.0
  0
LINE
  5
230
330
E3
100
AcDbEntity
  8
0
  6
Continuous
100
AcDbLine
 10
127.0281834195316
 20
129.475549133809
 30
0.0
 11
126.9987153353355
 21
129.47011469023
 31
0.0
  0
LINE
  5
231
330
E3
100
AcDbEntity
  8
0
  6
Continuous
100
AcDbLine
 10
126.9987153353355
 20
129.47011469023
 30
0.0
 11
126.9721595173424
 21
129.464680246651
 31
0.0
  0
LINE
  5
232
330
E3
100
AcDbEntity
  8
0
  6
Continuous
100
AcDbLine
 10
126.9721595173424
 20
129.464680246651
 30
0.0
 11
126.9487244099633
 21
129.459245803072
 31
0.0
  0
LINE
  5
233
330
E3
100
AcDbEntity
  8
0
  6
Continuous
100
AcDbLine
 10
126.9487244099633
 20
129.459245803072
 30
0.0
 11
126.928582724282
 21
129.453811359493
 31
0.0
  0
LINE
  5
234
330
E3
100
AcDbEntity
  8
0
  6
Continuous
100
AcDbLine
 10
126.928582724282
 20
129.453811359493
 30
0.0
 11
126.9118893047182
 21
129.448376915914
 31
0.0
  0
LINE
  5
235
330
E3
100
AcDbEntity
  8
0
  6
Continuous
100
AcDbLine
 10
126.9118893047182
 20
129.448376915914
 30
0.0
 11
126.898772195696
 21
129.4429394945577
 31
0.0
  0
LINE
  5
236
330
E3
100
AcDbEntity
  8
0
  6
Continuous
100
AcDbLine
 10
126.898772195696
 20
129.4429394945577
 30
0.0
 11
126.8893326416437
 21
129.4375050509787
 31
0.0
  0
LINE
  5
237
330
E3
100
AcDbEntity
  8
0
  6
Continuous
100
AcDbLine
 10
126.8893326416437
 20
129.4375050509787
 30
0.0
 11
126.8836388695853
 21
129.4320712506141
 31
0.0
  0
LINE
  5
238
330
E3
100
AcDbEntity
  8
0
  6
Continuous
100
AcDbLine
 10
126.8836388695853
 20
129.4320712506141
 30
0.0
 11
126.8817362186312
 21
129.4266364680055
 31
0.0
  0
LINE
  5
239
330
E3
100
AcDbEntity
  8
0
  6
Continuous
100
AcDbLine
 10
127.8817362186311
 20
129.2309842940924
 30
0.0
 11
127.879833567677
 21
129.2255495114837
 31
0.0
  0
LINE
  5
23A
330
E3
100
AcDbEntity
  8
0
  6
Continuous
100
AcDbLine
 10
127.879833567677
 20
129.2255495114837
 30
0.0
 11
127.8741400951373
 21
129.220114728875
 31
0.0
  0
LINE
  5
23B
330
E3
100
AcDbEntity
  8
0
  6
Continuous
100
AcDbLine
 10
127.8741400951373
 20
129.220114728875
 30
0.0
 11
127.8647006196489
 21
129.2146809531303
 31
0.0
  0
LINE
  5
23C
330
E3
100
AcDbEntity
  8
0
  6
Continuous
100
AcDbLine
 10
127.8647006196489
 20
129.2146809531303
 30
0.0
 11
127.8515835106267
 21
129.2092465095513
 31
0.0
  0
LINE
  5
23D
330
E3
100
AcDbEntity
  8
0
  6
Continuous
100
AcDbLine
 10
127.8515835106267
 20
129.2092465095513
 30
0.0
 11
127.8348900910629
 21
129.203809088195
 31
0.0
  0
LINE
  5
23E
330
E3
100
AcDbEntity
  8
0
  6
Continuous
100
AcDbLine
 10
127.8348900910629
 20
129.203809088195
 30
0.0
 11
127.8147484053816
 21
129.1983746446159
 31
0.0
  0
LINE
  5
23F
330
E3
100
AcDbEntity
  8
0
  6
Continuous
100
AcDbLine
 10
127.8147484053816
 20
129.1983746446159
 30
0.0
 11
127.7913132980026
 21
129.1929402010369
 31
0.0
  0
LINE
  5
240
330
E3
100
AcDbEntity
  8
0
  6
Continuous
100
AcDbLine
 10
127.7913132980026
 20
129.1929402010369
 30
0.0
 11
127.7647574800094
 21
129.1875057574579
 31
0.0
  0
LINE
  5
241
330
E3
100
AcDbEntity
  8
0
  6
Continuous
100
AcDbLine
 10
127.7647574800094
 20
129.1875057574579
 30
0.0
 11
127.7352893958133
 21
129.1820713138789
 31
0.0
  0
LINE
  5
242
330
E3
100
AcDbEntity
  8
0
  6
Continuous
100
AcDbLine
 10
127.7352893958133
 20
129.1820713138789
 30
0.0
 11
127.7031294009348
 21
129.1766368702999
 31
0.0
  0
LINE
  5
243
330
E3
100
AcDbEntity
  8
0
  6
Continuous
100
AcDbLine
 10
127.7031294009348
 20
129.1766368702999
 30
0.0
 11
127.6685246508901
 21
129.1712024267209
 31
0.0
  0
LINE
  5
244
330
E3
100
AcDbEntity
  8
0
  6
Continuous
100
AcDbLine
 10
127.6685246508901
 20
129.1712024267209
 30
0.0
 11
127.6317371900819
 21
129.1657679831419
 31
0.0
  0
LINE
  5
245
330
E3
100
AcDbEntity
  8
0
  6
Continuous
100
AcDbLine
 10
127.6317371900819
 20
129.1657679831419
 30
0.0
 11
127.5930439517993
 21
129.1603335395629
 31
0.0
  0
LINE
  5
246
330
E3
100
AcDbEntity
  8
0
  6
Continuous
100
AcDbLine
 10
127.5930439517993
 20
129.1603335395629
 30
0.0
 11
127.5527456915502
 21
129.1548961182066
 31
0.0
  0
LINE
  5
247
330
E3
100
AcDbEntity
  8
0
  6
Continuous
100
AcDbLine
 10
127.5527456915502
 20
129.1548961182066
 30
0.0
 11
127.5111461426194
 21
129.1494616746276
 31
0.0
  0
LINE
  5
248
330
E3
100
AcDbEntity
  8
0
  6
Continuous
100
AcDbLine
 10
127.5111461426194
 20
129.1494616746276
 30
0.0
 11
127.4685609494011
 21
129.1440272310486
 31
0.0
  0
LINE
  5
249
330
E3
100
AcDbEntity
  8
0
  6
Continuous
100
AcDbLine
 10
127.4685609494011
 20
129.1440272310486
 30
0.0
 11
127.4253146896215
 21
129.1385927874696
 31
0.0
  0
LINE
  5
24A
330
E3
100
AcDbEntity
  8
0
  6
Continuous
100
AcDbLine
 10
127.4253146896215
 20
129.1385927874696
 30
0.0
 11
127.3817349187838
 21
129.1331583438906
 31
0.0
  0
LINE
  5
24B
330
E3
100
AcDbEntity
  8
0
  6
Continuous
100
AcDbLine
 10
127.3817349187838
 20
129.1331583438906
 30
0.0
 11
127.3381581257235
 21
129.1277239003116
 31
0.0
  0
LINE
  5
24C
330
E3
100
AcDbEntity
  8
0
  6
Continuous
100
AcDbLine
 10
127.3381581257235
 20
129.1277239003116
 30
0.0
 11
127.2949118659438
 21
129.1222894567326
 31
0.0
  0
LINE
  5
24D
330
E3
100
AcDbEntity
  8
0
  6
Continuous
100
AcDbLine
 10
127.2949118659438
 20
129.1222894567326
 30
0.0
 11
127.2523266727255
 21
129.1168550131536
 31
0.0
  0
LINE
  5
24E
330
E3
100
AcDbEntity
  8
0
  6
Continuous
100
AcDbLine
 10
127.2523266727255
 20
129.1168550131536
 30
0.0
 11
127.2107271237947
 21
129.1114175917973
 31
0.0
  0
LINE
  5
24F
330
E3
100
AcDbEntity
  8
0
  6
Continuous
100
AcDbLine
 10
127.2107271237947
 20
129.1114175917973
 30
0.0
 11
127.1704258857683
 21
129.1059831482183
 31
0.0
  0
LINE
  5
250
330
E3
100
AcDbEntity
  8
0
  6
Continuous
100
AcDbLine
 10
127.1704258857683
 20
129.1059831482183
 30
0.0
 11
127.1317356252631
 21
129.1005487046392
 31
0.0
  0
LINE
  5
251
330
E3
100
AcDbEntity
  8
0
  6
Continuous
100
AcDbLine
 10
127.1317356252631
 20
129.1005487046392
 30
0.0
 11
127.0949481644548
 21
129.0951142610602
 31
0.0
  0
LINE
  5
252
330
E3
100
AcDbEntity
  8
0
  6
Continuous
100
AcDbLine
 10
127.0949481644548
 20
129.0951142610602
 30
0.0
 11
127.0603434144101
 21
129.0896798174813
 31
0.0
  0
LINE
  5
253
330
E3
100
AcDbEntity
  8
0
  6
Continuous
100
AcDbLine
 10
127.0603434144101
 20
129.0896798174813
 30
0.0
 11
127.0281834195316
 21
129.0842453739022
 31
0.0
  0
LINE
  5
254
330
E3
100
AcDbEntity
  8
0
  6
Continuous
100
AcDbLine
 10
127.0281834195316
 20
129.0842453739022
 30
0.0
 11
126.9987153353355
 21
129.0788109303232
 31
0.0
  0
LINE
  5
255
330
E3
100
AcDbEntity
  8
0
  6
Continuous
100
AcDbLine
 10
126.9987153353355
 20
129.0788109303232
 30
0.0
 11
126.9721595173424
 21
129.0733764867442
 31
0.0
  0
LINE
  5
256
330
E3
100
AcDbEntity
  8
0
  6
Continuous
100
AcDbLine
 10
126.9721595173424
 20
129.0733764867442
 30
0.0
 11
126.9487244099633
 21
129.0679420431652
 31
0.0
  0
LINE
  5
257
330
E3
100
AcDbEntity
  8
0
  6
Continuous
100
AcDbLine
 10
126.9487244099633
 20
129.0679420431652
 30
0.0
 11
126.928582724282
 21
129.0625046218089
 31
0.0
  0
LINE
  5
258
330
E3
100
AcDbEntity
  8
0
  6
Continuous
100
AcDbLine
 10
126.928582724282
 20
129.0625046218089
 30
0.0
 11
126.9118893047182
 21
129.0570701782299
 31
0.0
  0
LINE
  5
259
330
E3
100
AcDbEntity
  8
0
  6
Continuous
100
AcDbLine
 10
126.9118893047182
 20
129.0570701782299
 30
0.0
 11
126.898772195696
 21
129.0516357346509
 31
0.0
  0
LINE
  5
25A
330
E3
100
AcDbEntity
  8
0
  6
Continuous
100
AcDbLine
 10
126.898772195696
 20
129.0516357346509
 30
0.0
 11
126.8893326416437
 21
129.0462012910719
 31
0.0
  0
LINE
  5
25B
330
E3
100
AcDbEntity
  8
0
  6
Continuous
100
AcDbLine
 10
126.8893326416437
 20
129.0462012910719
 30
0.0
 11
126.8836388695853
 21
129.0407669027881
 31
0.0
  0
LINE
  5
25C
330
E3
100
AcDbEntity
  8
0
  6
Continuous
100
AcDbLine
 10
126.8836388695853
 20
129.0407669027881
 30
0.0
 11
126.8817362186312
 21
129.0353321201794
 31
0.0
  0
LINE
  5
25D
330
E3
100
AcDbEntity
  8
0
  6
Continuous
100
AcDbLine
 10
127.8817362186311
 20
128.8396799462663
 30
0.0
 11
127.879833567677
 21
128.8342451636576
 31
0.0
  0
LINE
  5
25E
330
E3
100
AcDbEntity
  8
0
  6
Continuous
100
AcDbLine
 10
127.879833567677
 20
128.8342451636576
 30
0.0
 11
127.8741400951373
 21
128.8288103810489
 31
0.0
  0
LINE
  5
25F
330
E3
100
AcDbEntity
  8
0
  6
Continuous
100
AcDbLine
 10
127.8741400951373
 20
128.8288103810489
 30
0.0
 11
127.8647006196489
 21
128.8233742154462
 31
0.0
  0
LINE
  5
260
330
E3
100
AcDbEntity
  8
0
  6
Continuous
100
AcDbLine
 10
127.8647006196489
 20
128.8233742154462
 30
0.0
 11
127.8515835106267
 21
128.8179397718672
 31
0.0
  0
LINE
  5
261
330
E3
100
AcDbEntity
  8
0
  6
Continuous
100
AcDbLine
 10
127.8515835106267
 20
128.8179397718672
 30
0.0
 11
127.8348900910629
 21
128.8125053282882
 31
0.0
  0
LINE
  5
262
330
E3
100
AcDbEntity
  8
0
  6
Continuous
100
AcDbLine
 10
127.8348900910629
 20
128.8125053282882
 30
0.0
 11
127.8147484053816
 21
128.8070708847092
 31
0.0
  0
LINE
  5
263
330
E3
100
AcDbEntity
  8
0
  6
Continuous
100
AcDbLine
 10
127.8147484053816
 20
128.8070708847092
 30
0.0
 11
127.7913132980026
 21
128.8016364411302
 31
0.0
  0
LINE
  5
264
330
E3
100
AcDbEntity
  8
0
  6
Continuous
100
AcDbLine
 10
127.7913132980026
 20
128.8016364411302
 30
0.0
 11
127.7647574800094
 21
128.7962019975512
 31
0.0
  0
LINE
  5
265
330
E3
100
AcDbEntity
  8
0
  6
Continuous
100
AcDbLine
 10
127.7647574800094
 20
128.7962019975512
 30
0.0
 11
127.7352893958133
 21
128.7907675539722
 31
0.0
  0
LINE
  5
266
330
E3
100
AcDbEntity
  8
0
  6
Continuous
100
AcDbLine
 10
127.7352893958133
 20
128.7907675539722
 30
0.0
 11
127.7031294009348
 21
128.7853331103931
 31
0.0
  0
LINE
  5
267
330
E3
100
AcDbEntity
  8
0
  6
Continuous
100
AcDbLine
 10
127.7031294009348
 20
128.7853331103931
 30
0.0
 11
127.6685246508901
 21
128.7798986668141
 31
0.0
  0
LINE
  5
268
330
E3
100
AcDbEntity
  8
0
  6
Continuous
100
AcDbLine
 10
127.6685246508901
 20
128.7798986668141
 30
0.0
 11
127.6317371900819
 21
128.7744612454578
 31
0.0
  0
LINE
  5
269
330
E3
100
AcDbEntity
  8
0
  6
Continuous
100
AcDbLine
 10
127.6317371900819
 20
128.7744612454578
 30
0.0
 11
127.5930439517993
 21
128.7690268018789
 31
0.0
  0
LINE
  5
26A
330
E3
100
AcDbEntity
  8
0
  6
Continuous
100
AcDbLine
 10
127.5930439517993
 20
128.7690268018789
 30
0.0
 11
127.5527456915502
 21
128.7635923582998
 31
0.0
  0
LINE
  5
26B
330
E3
100
AcDbEntity
  8
0
  6
Continuous
100
AcDbLine
 10
127.5527456915502
 20
128.7635923582998
 30
0.0
 11
127.5111461426194
 21
128.7581579147208
 31
0.0
  0
LINE
  5
26C
330
E3
100
AcDbEntity
  8
0
  6
Continuous
100
AcDbLine
 10
127.5111461426194
 20
128.7581579147208
 30
0.0
 11
127.4685609494011
 21
128.7527234711418
 31
0.0
  0
LINE
  5
26D
330
E3
100
AcDbEntity
  8
0
  6
Continuous
100
AcDbLine
 10
127.4685609494011
 20
128.7527234711418
 30
0.0
 11
127.4253146896215
 21
128.7472890275628
 31
0.0
  0
LINE
  5
26E
330
E3
100
AcDbEntity
  8
0
  6
Continuous
100
AcDbLine
 10
127.4253146896215
 20
128.7472890275628
 30
0.0
 11
127.3817349187838
 21
128.7418545839838
 31
0.0
  0
LINE
  5
26F
330
E3
100
AcDbEntity
  8
0
  6
Continuous
100
AcDbLine
 10
127.3817349187838
 20
128.7418545839838
 30
0.0
 11
127.3381581257235
 21
128.7364201404048
 31
0.0
  0
LINE
  5
270
330
E3
100
AcDbEntity
  8
0
  6
Continuous
100
AcDbLine
 10
127.3381581257235
 20
128.7364201404048
 30
0.0
 11
127.2949118659438
 21
128.7309856968258
 31
0.0
  0
LINE
  5
271
330
E3
100
AcDbEntity
  8
0
  6
Continuous
100
AcDbLine
 10
127.2949118659438
 20
128.7309856968258
 30
0.0
 11
127.2523266727255
 21
128.7255482754695
 31
0.0
  0
LINE
  5
272
330
E3
100
AcDbEntity
  8
0
  6
Continuous
100
AcDbLine
 10
127.2523266727255
 20
128.7255482754695
 30
0.0
 11
127.2107271237947
 21
128.7201138318905
 31
0.0
  0
LINE
  5
273
330
E3
100
AcDbEntity
  8
0
  6
Continuous
100
AcDbLine
 10
127.2107271237947
 20
128.7201138318905
 30
0.0
 11
127.1704258857683
 21
128.7146793883115
 31
0.0
  0
LINE
  5
274
330
E3
100
AcDbEntity
  8
0
  6
Continuous
100
AcDbLine
 10
127.1704258857683
 20
128.7146793883115
 30
0.0
 11
127.1317356252631
 21
128.7092449447325
 31
0.0
  0
LINE
  5
275
330
E3
100
AcDbEntity
  8
0
  6
Continuous
100
AcDbLine
 10
127.1317356252631
 20
128.7092449447325
 30
0.0
 11
127.0949481644548
 21
128.7038105011535
 31
0.0
  0
LINE
  5
276
330
E3
100
AcDbEntity
  8
0
  6
Continuous
100
AcDbLine
 10
127.0949481644548
 20
128.7038105011535
 30
0.0
 11
127.0603434144101
 21
128.6983760575744
 31
0.0
  0
LINE
  5
277
330
E3
100
AcDbEntity
  8
0
  6
Continuous
100
AcDbLine
 10
127.0603434144101
 20
128.6983760575744
 30
0.0
 11
127.0281834195316
 21
128.6929416139955
 31
0.0
  0
LINE
  5
278
330
E3
100
AcDbEntity
  8
0
  6
Continuous
100
AcDbLine
 10
127.0281834195316
 20
128.6929416139955
 30
0.0
 11
126.9987153353355
 21
128.6875071704164
 31
0.0
  0
LINE
  5
279
330
E3
100
AcDbEntity
  8
0
  6
Continuous
100
AcDbLine
 10
126.9987153353355
 20
128.6875071704164
 30
0.0
 11
126.9721595173424
 21
128.6820727268374
 31
0.0
  0
LINE
  5
27A
330
E3
100
AcDbEntity
  8
0
  6
Continuous
100
AcDbLine
 10
126.9721595173424
 20
128.6820727268374
 30
0.0
 11
126.9487244099633
 21
128.6766353054811
 31
0.0
  0
LINE
  5
27B
330
E3
100
AcDbEntity
  8
0
  6
Continuous
100
AcDbLine
 10
126.9487244099633
 20
128.6766353054811
 30
0.0
 11
126.928582724282
 21
128.6712008619022
 31
0.0
  0
LINE
  5
27C
330
E3
100
AcDbEntity
  8
0
  6
Continuous
100
AcDbLine
 10
126.928582724282
 20
128.6712008619022
 30
0.0
 11
126.9118893047182
 21
128.6657664183231
 31
0.0
  0
LINE
  5
27D
330
E3
100
AcDbEntity
  8
0
  6
Continuous
100
AcDbLine
 10
126.9118893047182
 20
128.6657664183231
 30
0.0
 11
126.898772195696
 21
128.6603319747441
 31
0.0
  0
LINE
  5
27E
330
E3
100
AcDbEntity
  8
0
  6
Continuous
100
AcDbLine
 10
126.898772195696
 20
128.6603319747441
 30
0.0
 11
126.8893326416437
 21
128.6548975311651
 31
0.0
  0
LINE
  5
27F
330
E3
100
AcDbEntity
  8
0
  6
Continuous
100
AcDbLine
 10
126.8893326416437
 20
128.6548975311651
 30
0.0
 11
126.8836388695853
 21
128.649462554962
 31
0.0
  0
LINE
  5
280
330
E3
100
AcDbEntity
  8
0
  6
Continuous
100
AcDbLine
 10
126.8836388695853
 20
128.649462554962
 30
0.0
 11
126.8817362186312
 21
128.6440277723533
 31
0.0
  0
LINE
  5
281
330
E3
100
AcDbEntity
  8
0
  6
Continuous
100
AcDbLine
 10
127.8817362186311
 20
128.4483755984402
 30
0.0
 11
127.879833567677
 21
128.4429408158315
 31
0.0
  0
LINE
  5
282
330
E3
100
AcDbEntity
  8
0
  6
Continuous
100
AcDbLine
 10
127.879833567677
 20
128.4429408158315
 30
0.0
 11
127.8741400951373
 21
128.4375060332229
 31
0.0
  0
LINE
  5
283
330
E3
100
AcDbEntity
  8
0
  6
Continuous
100
AcDbLine
 10
127.8741400951373
 20
128.4375060332229
 30
0.0
 11
127.8647006196489
 21
128.4320704555394
 31
0.0
  0
LINE
  5
284
330
E3
100
AcDbEntity
  8
0
  6
Continuous
100
AcDbLine
 10
127.8647006196489
 20
128.4320704555394
 30
0.0
 11
127.8515835106267
 21
128.4266360119604
 31
0.0
  0
LINE
  5
285
330
E3
100
AcDbEntity
  8
0
  6
Continuous
100
AcDbLine
 10
127.8515835106267
 20
128.4266360119604
 30
0.0
 11
127.8348900910629
 21
128.4212015683814
 31
0.0
  0
LINE
  5
286
330
E3
100
AcDbEntity
  8
0
  6
Continuous
100
AcDbLine
 10
127.8348900910629
 20
128.4212015683814
 30
0.0
 11
127.8147484053816
 21
128.4157671248024
 31
0.0
  0
LINE
  5
287
330
E3
100
AcDbEntity
  8
0
  6
Continuous
100
AcDbLine
 10
127.8147484053816
 20
128.4157671248024
 30
0.0
 11
127.7913132980026
 21
128.4103326812234
 31
0.0
  0
LINE
  5
288
330
E3
100
AcDbEntity
  8
0
  6
Continuous
100
AcDbLine
 10
127.7913132980026
 20
128.4103326812234
 30
0.0
 11
127.7647574800094
 21
128.4048982376444
 31
0.0
  0
LINE
  5
289
330
E3
100
AcDbEntity
  8
0
  6
Continuous
100
AcDbLine
 10
127.7647574800094
 20
128.4048982376444
 30
0.0
 11
127.7352893958133
 21
128.3994637940654
 31
0.0
  0
LINE
  5
28A
330
E3
100
AcDbEntity
  8
0
  6
Continuous
100
AcDbLine
 10
127.7352893958133
 20
128.3994637940654
 30
0.0
 11
127.7031294009348
 21
128.394026372709
 31
0.0
  0
LINE
  5
28B
330
E3
100
AcDbEntity
  8
0
  6
Continuous
100
AcDbLine
 10
127.7031294009348
 20
128.394026372709
 30
0.0
 11
127.6685246508901
 21
128.3885919291301
 31
0.0
  0
LINE
  5
28C
330
E3
100
AcDbEntity
  8
0
  6
Continuous
100
AcDbLine
 10
127.6685246508901
 20
128.3885919291301
 30
0.0
 11
127.6317371900819
 21
128.3831574855511
 31
0.0
  0
LINE
  5
28D
330
E3
100
AcDbEntity
  8
0
  6
Continuous
100
AcDbLine
 10
127.6317371900819
 20
128.3831574855511
 30
0.0
 11
127.5930439517993
 21
128.377723041972
 31
0.0
  0
LINE
  5
28E
330
E3
100
AcDbEntity
  8
0
  6
Continuous
100
AcDbLine
 10
127.5930439517993
 20
128.377723041972
 30
0.0
 11
127.5527456915502
 21
128.3722885983931
 31
0.0
  0
LINE
  5
28F
330
E3
100
AcDbEntity
  8
0
  6
Continuous
100
AcDbLine
 10
127.5527456915502
 20
128.3722885983931
 30
0.0
 11
127.5111461426194
 21
128.366854154814
 31
0.0
  0
LINE
  5
290
330
E3
100
AcDbEntity
  8
0
  6
Continuous
100
AcDbLine
 10
127.5111461426194
 20
128.366854154814
 30
0.0
 11
127.4685609494011
 21
128.361419711235
 31
0.0
  0
LINE
  5
291
330
E3
100
AcDbEntity
  8
0
  6
Continuous
100
AcDbLine
 10
127.4685609494011
 20
128.361419711235
 30
0.0
 11
127.4253146896215
 21
128.355985267656
 31
0.0
  0
LINE
  5
292
330
E3
100
AcDbEntity
  8
0
  6
Continuous
100
AcDbLine
 10
127.4253146896215
 20
128.355985267656
 30
0.0
 11
127.3817349187838
 21
128.350550824077
 31
0.0
  0
LINE
  5
293
330
E3
100
AcDbEntity
  8
0
  6
Continuous
100
AcDbLine
 10
127.3817349187838
 20
128.350550824077
 30
0.0
 11
127.3381581257235
 21
128.3451134027207
 31
0.0
  0
LINE
  5
294
330
E3
100
AcDbEntity
  8
0
  6
Continuous
100
AcDbLine
 10
127.3381581257235
 20
128.3451134027207
 30
0.0
 11
127.2949118659438
 21
128.3396789591417
 31
0.0
  0
LINE
  5
295
330
E3
100
AcDbEntity
  8
0
  6
Continuous
100
AcDbLine
 10
127.2949118659438
 20
128.3396789591417
 30
0.0
 11
127.2523266727255
 21
128.3342445155627
 31
0.0
  0
LINE
  5
296
330
E3
100
AcDbEntity
  8
0
  6
Continuous
100
AcDbLine
 10
127.2523266727255
 20
128.3342445155627
 30
0.0
 11
127.2107271237947
 21
128.3288100719837
 31
0.0
  0
LINE
  5
297
330
E3
100
AcDbEntity
  8
0
  6
Continuous
100
AcDbLine
 10
127.2107271237947
 20
128.3288100719837
 30
0.0
 11
127.1704258857683
 21
128.3233756284047
 31
0.0
  0
LINE
  5
298
330
E3
100
AcDbEntity
  8
0
  6
Continuous
100
AcDbLine
 10
127.1704258857683
 20
128.3233756284047
 30
0.0
 11
127.1317356252631
 21
128.3179411848257
 31
0.0
  0
LINE
  5
299
330
E3
100
AcDbEntity
  8
0
  6
Continuous
100
AcDbLine
 10
127.1317356252631
 20
128.3179411848257
 30
0.0
 11
127.0949481644548
 21
128.3125067412467
 31
0.0
  0
LINE
  5
29A
330
E3
100
AcDbEntity
  8
0
  6
Continuous
100
AcDbLine
 10
127.0949481644548
 20
128.3125067412467
 30
0.0
 11
127.0603434144101
 21
128.3070722976677
 31
0.0
  0
LINE
  5
29B
330
E3
100
AcDbEntity
  8
0
  6
Continuous
100
AcDbLine
 10
127.0603434144101
 20
128.3070722976677
 30
0.0
 11
127.0281834195316
 21
128.3016378540887
 31
0.0
  0
LINE
  5
29C
330
E3
100
AcDbEntity
  8
0
  6
Continuous
100
AcDbLine
 10
127.0281834195316
 20
128.3016378540887
 30
0.0
 11
126.9987153353355
 21
128.2962004327323
 31
0.0
  0
LINE
  5
29D
330
E3
100
AcDbEntity
  8
0
  6
Continuous
100
AcDbLine
 10
126.9987153353355
 20
128.2962004327323
 30
0.0
 11
126.9721595173424
 21
128.2907659891534
 31
0.0
  0
LINE
  5
29E
330
E3
100
AcDbEntity
  8
0
  6
Continuous
100
AcDbLine
 10
126.9721595173424
 20
128.2907659891534
 30
0.0
 11
126.9487244099633
 21
128.2853315455744
 31
0.0
  0
LINE
  5
29F
330
E3
100
AcDbEntity
  8
0
  6
Continuous
100
AcDbLine
 10
126.9487244099633
 20
128.2853315455744
 30
0.0
 11
126.928582724282
 21
128.2798971019954
 31
0.0
  0
LINE
  5
2A0
330
E3
100
AcDbEntity
  8
0
  6
Continuous
100
AcDbLine
 10
126.928582724282
 20
128.2798971019954
 30
0.0
 11
126.9118893047182
 21
128.2744626584164
 31
0.0
  0
LINE
  5
2A1
330
E3
100
AcDbEntity
  8
0
  6
Continuous
100
AcDbLine
 10
126.9118893047182
 20
128.2744626584164
 30
0.0
 11
126.898772195696
 21
128.2690282148373
 31
0.0
  0
LINE
  5
2A2
330
E3
100
AcDbEntity
  8
0
  6
Continuous
100
AcDbLine
 10
126.898772195696
 20
128.2690282148373
 30
0.0
 11
126.8893326416437
 21
128.2635937712583
 31
0.0
  0
LINE
  5
2A3
330
E3
100
AcDbEntity
  8
0
  6
Continuous
100
AcDbLine
 10
126.8893326416437
 20
128.2635937712583
 30
0.0
 11
126.8836388695853
 21
128.2581582071359
 31
0.0
  0
LINE
  5
2A4
330
E3
100
AcDbEntity
  8
0
  6
Continuous
100
AcDbLine
 10
126.8836388695853
 20
128.2581582071359
 30
0.0
 11
126.8817362186312
 21
128.2527234245272
 31
0.0
  0
LINE
  5
2A5
330
E3
100
AcDbEntity
  8
0
  6
Continuous
100
AcDbLine
 10
127.8817362186311
 20
128.0570712506141
 30
0.0
 11
127.879833567677
 21
128.0516364680055
 31
0.0
  0
LINE
  5
2A6
330
E3
100
AcDbEntity
  8
0
  6
Continuous
100
AcDbLine
 10
127.879833567677
 20
128.0516364680055
 30
0.0
 11
127.8741400951373
 21
128.0462016853968
 31
0.0
  0
LINE
  5
2A7
330
E3
100
AcDbEntity
  8
0
  6
Continuous
100
AcDbLine
 10
127.8741400951373
 20
128.0462016853968
 30
0.0
 11
127.8647006196489
 21
128.0407666956326
 31
0.0
  0
LINE
  5
2A8
330
E3
100
AcDbEntity
  8
0
  6
Continuous
100
AcDbLine
 10
127.8647006196489
 20
128.0407666956326
 30
0.0
 11
127.8515835106267
 21
128.0353322520536
 31
0.0
  0
LINE
  5
2A9
330
E3
100
AcDbEntity
  8
0
  6
Continuous
100
AcDbLine
 10
127.8515835106267
 20
128.0353322520536
 30
0.0
 11
127.8348900910629
 21
128.0298978084746
 31
0.0
  0
LINE
  5
2AA
330
E3
100
AcDbEntity
  8
0
  6
Continuous
100
AcDbLine
 10
127.8348900910629
 20
128.0298978084746
 30
0.0
 11
127.8147484053816
 21
128.0244633648956
 31
0.0
  0
LINE
  5
2AB
330
E3
100
AcDbEntity
  8
0
  6
Continuous
100
AcDbLine
 10
127.8147484053816
 20
128.0244633648956
 30
0.0
 11
127.7913132980026
 21
128.0190289213166
 31
0.0
  0
LINE
  5
2AC
330
E3
100
AcDbEntity
  8
0
  6
Continuous
100
AcDbLine
 10
127.7913132980026
 20
128.0190289213166
 30
0.0
 11
127.7647574800094
 21
128.0135944777376
 31
0.0
  0
LINE
  5
2AD
330
E3
100
AcDbEntity
  8
0
  6
Continuous
100
AcDbLine
 10
127.7647574800094
 20
128.0135944777376
 30
0.0
 11
127.7352893958133
 21
128.0081570563813
 31
0.0
  0
LINE
  5
2AE
330
E3
100
AcDbEntity
  8
0
  6
Continuous
100
AcDbLine
 10
127.7352893958133
 20
128.0081570563813
 30
0.0
 11
127.7031294009348
 21
128.0027226128023
 31
0.0
  0
LINE
  5
2AF
330
E3
100
AcDbEntity
  8
0
  6
Continuous
100
AcDbLine
 10
127.7031294009348
 20
128.0027226128023
 30
0.0
 11
127.6685246508901
 21
127.9972881692233
 31
0.0
  0
LINE
  5
2B0
330
E3
100
AcDbEntity
  8
0
  6
Continuous
100
AcDbLine
 10
127.6685246508901
 20
127.9972881692233
 30
0.0
 11
127.6317371900819
 21
127.9918537256443
 31
0.0
  0
LINE
  5
2B1
330
E3
100
AcDbEntity
  8
0
  6
Continuous
100
AcDbLine
 10
127.6317371900819
 20
127.9918537256443
 30
0.0
 11
127.5930439517993
 21
127.9864192820653
 31
0.0
  0
LINE
  5
2B2
330
E3
100
AcDbEntity
  8
0
  6
Continuous
100
AcDbLine
 10
127.5930439517993
 20
127.9864192820653
 30
0.0
 11
127.5527456915502
 21
127.9809848384863
 31
0.0
  0
LINE
  5
2B3
330
E3
100
AcDbEntity
  8
0
  6
Continuous
100
AcDbLine
 10
127.5527456915502
 20
127.9809848384863
 30
0.0
 11
127.5111461426194
 21
127.9755503949073
 31
0.0
  0
LINE
  5
2B4
330
E3
100
AcDbEntity
  8
0
  6
Continuous
100
AcDbLine
 10
127.5111461426194
 20
127.9755503949073
 30
0.0
 11
127.4685609494011
 21
127.9701159513282
 31
0.0
  0
LINE
  5
2B5
330
E3
100
AcDbEntity
  8
0
  6
Continuous
100
AcDbLine
 10
127.4685609494011
 20
127.9701159513282
 30
0.0
 11
127.4253146896215
 21
127.9646785299719
 31
0.0
  0
LINE
  5
2B6
330
E3
100
AcDbEntity
  8
0
  6
Continuous
100
AcDbLine
 10
127.4253146896215
 20
127.9646785299719
 30
0.0
 11
127.3817349187838
 21
127.9592440863929
 31
0.0
  0
LINE
  5
2B7
330
E3
100
AcDbEntity
  8
0
  6
Continuous
100
AcDbLine
 10
127.3817349187838
 20
127.9592440863929
 30
0.0
 11
127.3381581257235
 21
127.9538096428139
 31
0.0
  0
LINE
  5
2B8
330
E3
100
AcDbEntity
  8
0
  6
Continuous
100
AcDbLine
 10
127.3381581257235
 20
127.9538096428139
 30
0.0
 11
127.2949118659438
 21
127.9483751992349
 31
0.0
  0
LINE
  5
2B9
330
E3
100
AcDbEntity
  8
0
  6
Continuous
100
AcDbLine
 10
127.2949118659438
 20
127.9483751992349
 30
0.0
 11
127.2523266727255
 21
127.9429407556559
 31
0.0
  0
LINE
  5
2BA
330
E3
100
AcDbEntity
  8
0
  6
Continuous
100
AcDbLine
 10
127.2523266727255
 20
127.9429407556559
 30
0.0
 11
127.2107271237947
 21
127.9375063120769
 31
0.0
  0
LINE
  5
2BB
330
E3
100
AcDbEntity
  8
0
  6
Continuous
100
AcDbLine
 10
127.2107271237947
 20
127.9375063120769
 30
0.0
 11
127.1704258857683
 21
127.9320718684979
 31
0.0
  0
LINE
  5
2BC
330
E3
100
AcDbEntity
  8
0
  6
Continuous
100
AcDbLine
 10
127.1704258857683
 20
127.9320718684979
 30
0.0
 11
127.1317356252631
 21
127.9266374249189
 31
0.0
  0
LINE
  5
2BD
330
E3
100
AcDbEntity
  8
0
  6
Continuous
100
AcDbLine
 10
127.1317356252631
 20
127.9266374249189
 30
0.0
 11
127.0949481644548
 21
127.9212029813399
 31
0.0
  0
LINE
  5
2BE
330
E3
100
AcDbEntity
  8
0
  6
Continuous
100
AcDbLine
 10
127.0949481644548
 20
127.9212029813399
 30
0.0
 11
127.0603434144101
 21
127.9157655599836
 31
0.0
  0
LINE
  5
2BF
330
E3
100
AcDbEntity
  8
0
  6
Continuous
100
AcDbLine
 10
127.0603434144101
 20
127.9157655599836
 30
0.0
 11
127.0281834195316
 21
127.9103311164046
 31
0.0
  0
LINE
  5
2C0
330
E3
100
AcDbEntity
  8
0
  6
Continuous
100
AcDbLine
 10
127.0281834195316
 20
127.9103311164046
 30
0.0
 11
126.9987153353355
 21
127.9048966728256
 31
0.0
  0
LINE
  5
2C1
330
E3
100
AcDbEntity
  8
0
  6
Continuous
100
AcDbLine
 10
126.9987153353355
 20
127.9048966728256
 30
0.0
 11
126.9721595173424
 21
127.8994622292466
 31
0.0
  0
LINE
  5
2C2
330
E3
100
AcDbEntity
  8
0
  6
Continuous
100
AcDbLine
 10
126.9721595173424
 20
127.8994622292466
 30
0.0
 11
126.9487244099633
 21
127.8940277856676
 31
0.0
  0
LINE
  5
2C3
330
E3
100
AcDbEntity
  8
0
  6
Continuous
100
AcDbLine
 10
126.9487244099633
 20
127.8940277856676
 30
0.0
 11
126.928582724282
 21
127.8885933420886
 31
0.0
  0
LINE
  5
2C4
330
E3
100
AcDbEntity
  8
0
  6
Continuous
100
AcDbLine
 10
126.928582724282
 20
127.8885933420886
 30
0.0
 11
126.9118893047182
 21
127.8831588985096
 31
0.0
  0
LINE
  5
2C5
330
E3
100
AcDbEntity
  8
0
  6
Continuous
100
AcDbLine
 10
126.9118893047182
 20
127.8831588985096
 30
0.0
 11
126.898772195696
 21
127.8777244549306
 31
0.0
  0
LINE
  5
2C6
330
E3
100
AcDbEntity
  8
0
  6
Continuous
100
AcDbLine
 10
126.898772195696
 20
127.8777244549306
 30
0.0
 11
126.8893326416437
 21
127.8722900113516
 31
0.0
  0
LINE
  5
2C7
330
E3
100
AcDbEntity
  8
0
  6
Continuous
100
AcDbLine
 10
126.8893326416437
 20
127.8722900113516
 30
0.0
 11
126.8836388695853
 21
127.8668538593098
 31
0.0
  0
LINE
  5
2C8
330
E3
100
AcDbEntity
  8
0
  6
Continuous
100
AcDbLine
 10
126.8836388695853
 20
127.8668538593098
 30
0.0
 11
126.8817362186312
 21
127.8614190767011
 31
0.0
  0
LINE
  5
2C9
330
E3
100
AcDbEntity
  8
0
  6
Continuous
100
AcDbLine
 10
127.8817362186311
 20
127.6657669027881
 30
0.0
 11
127.879833567677
 21
127.6603321201793
 31
0.0
  0
LINE
  5
2CA
330
E3
100
AcDbEntity
  8
0
  6
Continuous
100
AcDbLine
 10
127.879833567677
 20
127.6603321201793
 30
0.0
 11
127.8741400951373
 21
127.6548973375707
 31
0.0
  0
LINE
  5
2CB
330
E3
100
AcDbEntity
  8
0
  6
Continuous
100
AcDbLine
 10
127.8741400951373
 20
127.6548973375707
 30
0.0
 11
127.8647006196489
 21
127.6494629357258
 31
0.0
  0
LINE
  5
2CC
330
E3
100
AcDbEntity
  8
0
  6
Continuous
100
AcDbLine
 10
127.8647006196489
 20
127.6494629357258
 30
0.0
 11
127.8515835106267
 21
127.6440284921468
 31
0.0
  0
LINE
  5
2CD
330
E3
100
AcDbEntity
  8
0
  6
Continuous
100
AcDbLine
 10
127.8515835106267
 20
127.6440284921468
 30
0.0
 11
127.8348900910629
 21
127.6385940485678
 31
0.0
  0
LINE
  5
2CE
330
E3
100
AcDbEntity
  8
0
  6
Continuous
100
AcDbLine
 10
127.8348900910629
 20
127.6385940485678
 30
0.0
 11
127.8147484053816
 21
127.6331596049888
 31
0.0
  0
LINE
  5
2CF
330
E3
100
AcDbEntity
  8
0
  6
Continuous
100
AcDbLine
 10
127.8147484053816
 20
127.6331596049888
 30
0.0
 11
127.7913132980026
 21
127.6277221836325
 31
0.0
  0
LINE
  5
2D0
330
E3
100
AcDbEntity
  8
0
  6
Continuous
100
AcDbLine
 10
127.7913132980026
 20
127.6277221836325
 30
0.0
 11
127.7647574800094
 21
127.6222877400535
 31
0.0
  0
LINE
  5
2D1
330
E3
100
AcDbEntity
  8
0
  6
Continuous
100
AcDbLine
 10
127.7647574800094
 20
127.6222877400535
 30
0.0
 11
127.7352893958133
 21
127.6168532964745
 31
0.0
  0
LINE
  5
2D2
330
E3
100
AcDbEntity
  8
0
  6
Continuous
100
AcDbLine
 10
127.7352893958133
 20
127.6168532964745
 30
0.0
 11
127.7031294009348
 21
127.6114188528955
 31
0.0
  0
LINE
  5
2D3
330
E3
100
AcDbEntity
  8
0
  6
Continuous
100
AcDbLine
 10
127.7031294009348
 20
127.6114188528955
 30
0.0
 11
127.6685246508901
 21
127.6059844093165
 31
0.0
  0
LINE
  5
2D4
330
E3
100
AcDbEntity
  8
0
  6
Continuous
100
AcDbLine
 10
127.6685246508901
 20
127.6059844093165
 30
0.0
 11
127.6317371900819
 21
127.6005499657375
 31
0.0
  0
LINE
  5
2D5
330
E3
100
AcDbEntity
  8
0
  6
Continuous
100
AcDbLine
 10
127.6317371900819
 20
127.6005499657375
 30
0.0
 11
127.5930439517993
 21
127.5951155221585
 31
0.0
  0
LINE
  5
2D6
330
E3
100
AcDbEntity
  8
0
  6
Continuous
100
AcDbLine
 10
127.5930439517993
 20
127.5951155221585
 30
0.0
 11
127.5527456915502
 21
127.5896810785795
 31
0.0
  0
LINE
  5
2D7
330
E3
100
AcDbEntity
  8
0
  6
Continuous
100
AcDbLine
 10
127.5527456915502
 20
127.5896810785795
 30
0.0
 11
127.5111461426194
 21
127.5842466350005
 31
0.0
  0
LINE
  5
2D8
330
E3
100
AcDbEntity
  8
0
  6
Continuous
100
AcDbLine
 10
127.5111461426194
 20
127.5842466350005
 30
0.0
 11
127.4685609494011
 21
127.5788092136442
 31
0.0
  0
LINE
  5
2D9
330
E3
100
AcDbEntity
  8
0
  6
Continuous
100
AcDbLine
 10
127.4685609494011
 20
127.5788092136442
 30
0.0
 11
127.4253146896215
 21
127.5733747700652
 31
0.0
  0
LINE
  5
2DA
330
E3
100
AcDbEntity
  8
0
  6
Continuous
100
AcDbLine
 10
127.4253146896215
 20
127.5733747700652
 30
0.0
 11
127.3817349187838
 21
127.5679403264862
 31
0.0
  0
LINE
  5
2DB
330
E3
100
AcDbEntity
  8
0
  6
Continuous
100
AcDbLine
 10
127.3817349187838
 20
127.5679403264862
 30
0.0
 11
127.3381581257235
 21
127.5625058829071
 31
0.0
  0
LINE
  5
2DC
330
E3
100
AcDbEntity
  8
0
  6
Continuous
100
AcDbLine
 10
127.3381581257235
 20
127.5625058829071
 30
0.0
 11
127.2949118659438
 21
127.5570714393282
 31
0.0
  0
LINE
  5
2DD
330
E3
100
AcDbEntity
  8
0
  6
Continuous
100
AcDbLine
 10
127.2949118659438
 20
127.5570714393282
 30
0.0
 11
127.2523266727255
 21
127.5516369957491
 31
0.0
  0
LINE
  5
2DE
330
E3
100
AcDbEntity
  8
0
  6
Continuous
100
AcDbLine
 10
127.2523266727255
 20
127.5516369957491
 30
0.0
 11
127.2107271237947
 21
127.5462025521701
 31
0.0
  0
LINE
  5
2DF
330
E3
100
AcDbEntity
  8
0
  6
Continuous
100
AcDbLine
 10
127.2107271237947
 20
127.5462025521701
 30
0.0
 11
127.1704258857683
 21
127.5407681085911
 31
0.0
  0
LINE
  5
2E0
330
E3
100
AcDbEntity
  8
0
  6
Continuous
100
AcDbLine
 10
127.1704258857683
 20
127.5407681085911
 30
0.0
 11
127.1317356252631
 21
127.5353306872348
 31
0.0
  0
LINE
  5
2E1
330
E3
100
AcDbEntity
  8
0
  6
Continuous
100
AcDbLine
 10
127.1317356252631
 20
127.5353306872348
 30
0.0
 11
127.0949481644548
 21
127.5298962436558
 31
0.0
  0
LINE
  5
2E2
330
E3
100
AcDbEntity
  8
0
  6
Continuous
100
AcDbLine
 10
127.0949481644548
 20
127.5298962436558
 30
0.0
 11
127.0603434144101
 21
127.5244618000768
 31
0.0
  0
LINE
  5
2E3
330
E3
100
AcDbEntity
  8
0
  6
Continuous
100
AcDbLine
 10
127.0603434144101
 20
127.5244618000768
 30
0.0
 11
127.0281834195316
 21
127.5190273564978
 31
0.0
  0
LINE
  5
2E4
330
E3
100
AcDbEntity
  8
0
  6
Continuous
100
AcDbLine
 10
127.0281834195316
 20
127.5190273564978
 30
0.0
 11
126.9987153353355
 21
127.5135929129188
 31
0.0
  0
LINE
  5
2E5
330
E3
100
AcDbEntity
  8
0
  6
Continuous
100
AcDbLine
 10
126.9987153353355
 20
127.5135929129188
 30
0.0
 11
126.9721595173424
 21
127.5081584693398
 31
0.0
  0
LINE
  5
2E6
330
E3
100
AcDbEntity
  8
0
  6
Continuous
100
AcDbLine
 10
126.9721595173424
 20
127.5081584693398
 30
0.0
 11
126.9487244099633
 21
127.5027240257608
 31
0.0
  0
LINE
  5
2E7
330
E3
100
AcDbEntity
  8
0
  6
Continuous
100
AcDbLine
 10
126.9487244099633
 20
127.5027240257608
 30
0.0
 11
126.928582724282
 21
127.4972895821818
 31
0.0
  0
LINE
  5
2E8
330
E3
100
AcDbEntity
  8
0
  6
Continuous
100
AcDbLine
 10
126.928582724282
 20
127.4972895821818
 30
0.0
 11
126.9118893047182
 21
127.4918551386028
 31
0.0
  0
LINE
  5
2E9
330
E3
100
AcDbEntity
  8
0
  6
Continuous
100
AcDbLine
 10
126.9118893047182
 20
127.4918551386028
 30
0.0
 11
126.898772195696
 21
127.4864177172465
 31
0.0
  0
LINE
  5
2EA
330
E3
100
AcDbEntity
  8
0
  6
Continuous
100
AcDbLine
 10
126.898772195696
 20
127.4864177172465
 30
0.0
 11
126.8893326416437
 21
127.4809832736675
 31
0.0
  0
LINE
  5
2EB
330
E3
100
AcDbEntity
  8
0
  6
Continuous
100
AcDbLine
 10
126.8893326416437
 20
127.4809832736675
 30
0.0
 11
126.8836388695853
 21
127.4755495114837
 31
0.0
  0
LINE
  5
2EC
330
E3
100
AcDbEntity
  8
0
  6
Continuous
100
AcDbLine
 10
126.8836388695853
 20
127.4755495114837
 30
0.0
 11
126.8817362186312
 21
127.470114728875
 31
0.0
  0
LINE
  5
2ED
330
E3
100
AcDbEntity
  8
0
  6
Continuous
100
AcDbLine
 10
127.8817362186311
 20
127.274462554962
 30
0.0
 11
127.879833567677
 21
127.2690277723533
 31
0.0
  0
LINE
  5
2EE
330
E3
100
AcDbEntity
  8
0
  6
Continuous
100
AcDbLine
 10
127.879833567677
 20
127.2690277723533
 30
0.0
 11
127.8741400951373
 21
127.2635929897446
 31
0.0
  0
LINE
  5
2EF
330
E3
100
AcDbEntity
  8
0
  6
Continuous
100
AcDbLine
 10
127.8741400951373
 20
127.2635929897446
 30
0.0
 11
127.8647006196489
 21
127.2581591758191
 31
0.0
  0
LINE
  5
2F0
330
E3
100
AcDbEntity
  8
0
  6
Continuous
100
AcDbLine
 10
127.8647006196489
 20
127.2581591758191
 30
0.0
 11
127.8515835106267
 21
127.2527247322401
 31
0.0
  0
LINE
  5
2F1
330
E3
100
AcDbEntity
  8
0
  6
Continuous
100
AcDbLine
 10
127.8515835106267
 20
127.2527247322401
 30
0.0
 11
127.8348900910629
 21
127.2472873108837
 31
0.0
  0
LINE
  5
2F2
330
E3
100
AcDbEntity
  8
0
  6
Continuous
100
AcDbLine
 10
127.8348900910629
 20
127.2472873108837
 30
0.0
 11
127.8147484053816
 21
127.2418528673047
 31
0.0
  0
LINE
  5
2F3
330
E3
100
AcDbEntity
  8
0
  6
Continuous
100
AcDbLine
 10
127.8147484053816
 20
127.2418528673047
 30
0.0
 11
127.7913132980026
 21
127.2364184237257
 31
0.0
  0
LINE
  5
2F4
330
E3
100
AcDbEntity
  8
0
  6
Continuous
100
AcDbLine
 10
127.7913132980026
 20
127.2364184237257
 30
0.0
 11
127.7647574800094
 21
127.2309839801467
 31
0.0
  0
LINE
  5
2F5
330
E3
100
AcDbEntity
  8
0
  6
Continuous
100
AcDbLine
 10
127.7647574800094
 20
127.2309839801467
 30
0.0
 11
127.7352893958133
 21
127.2255495365677
 31
0.0
  0
LINE
  5
2F6
330
E3
100
AcDbEntity
  8
0
  6
Continuous
100
AcDbLine
 10
127.7352893958133
 20
127.2255495365677
 30
0.0
 11
127.7031294009348
 21
127.2201150929887
 31
0.0
  0
LINE
  5
2F7
330
E3
100
AcDbEntity
  8
0
  6
Continuous
100
AcDbLine
 10
127.7031294009348
 20
127.2201150929887
 30
0.0
 11
127.6685246508901
 21
127.2146806494097
 31
0.0
  0
LINE
  5
2F8
330
E3
100
AcDbEntity
  8
0
  6
Continuous
100
AcDbLine
 10
127.6685246508901
 20
127.2146806494097
 30
0.0
 11
127.6317371900819
 21
127.2092462058307
 31
0.0
  0
LINE
  5
2F9
330
E3
100
AcDbEntity
  8
0
  6
Continuous
100
AcDbLine
 10
127.6317371900819
 20
127.2092462058307
 30
0.0
 11
127.5930439517993
 21
127.2038117622517
 31
0.0
  0
LINE
  5
2FA
330
E3
100
AcDbEntity
  8
0
  6
Continuous
100
AcDbLine
 10
127.5930439517993
 20
127.2038117622517
 30
0.0
 11
127.5527456915502
 21
127.1983743408954
 31
0.0
  0
LINE
  5
2FB
330
E3
100
AcDbEntity
  8
0
  6
Continuous
100
AcDbLine
 10
127.5527456915502
 20
127.1983743408954
 30
0.0
 11
127.5111461426194
 21
127.1929398973164
 31
0.0
  0
LINE
  5
2FC
330
E3
100
AcDbEntity
  8
0
  6
Continuous
100
AcDbLine
 10
127.5111461426194
 20
127.1929398973164
 30
0.0
 11
127.4685609494011
 21
127.1875054537374
 31
0.0
  0
LINE
  5
2FD
330
E3
100
AcDbEntity
  8
0
  6
Continuous
100
AcDbLine
 10
127.4685609494011
 20
127.1875054537374
 30
0.0
 11
127.4253146896215
 21
127.1820710101584
 31
0.0
  0
LINE
  5
2FE
330
E3
100
AcDbEntity
  8
0
  6
Continuous
100
AcDbLine
 10
127.4253146896215
 20
127.1820710101584
 30
0.0
 11
127.3817349187838
 21
127.1766365665794
 31
0.0
  0
LINE
  5
2FF
330
E3
100
AcDbEntity
  8
0
  6
Continuous
100
AcDbLine
 10
127.3817349187838
 20
127.1766365665794
 30
0.0
 11
127.3381581257235
 21
127.1712021230004
 31
0.0
  0
LINE
  5
300
330
E3
100
AcDbEntity
  8
0
  6
Continuous
100
AcDbLine
 10
127.3381581257235
 20
127.1712021230004
 30
0.0
 11
127.2949118659438
 21
127.1657676794214
 31
0.0
  0
LINE
  5
301
330
E3
100
AcDbEntity
  8
0
  6
Continuous
100
AcDbLine
 10
127.2949118659438
 20
127.1657676794214
 30
0.0
 11
127.2523266727255
 21
127.1603332358424
 31
0.0
  0
LINE
  5
302
330
E3
100
AcDbEntity
  8
0
  6
Continuous
100
AcDbLine
 10
127.2523266727255
 20
127.1603332358424
 30
0.0
 11
127.2107271237947
 21
127.1548987922634
 31
0.0
  0
LINE
  5
303
330
E3
100
AcDbEntity
  8
0
  6
Continuous
100
AcDbLine
 10
127.2107271237947
 20
127.1548987922634
 30
0.0
 11
127.1704258857683
 21
127.149461370907
 31
0.0
  0
LINE
  5
304
330
E3
100
AcDbEntity
  8
0
  6
Continuous
100
AcDbLine
 10
127.1704258857683
 20
127.149461370907
 30
0.0
 11
127.1317356252631
 21
127.144026927328
 31
0.0
  0
LINE
  5
305
330
E3
100
AcDbEntity
  8
0
  6
Continuous
100
AcDbLine
 10
127.1317356252631
 20
127.144026927328
 30
0.0
 11
127.0949481644548
 21
127.138592483749
 31
0.0
  0
LINE
  5
306
330
E3
100
AcDbEntity
  8
0
  6
Continuous
100
AcDbLine
 10
127.0949481644548
 20
127.138592483749
 30
0.0
 11
127.0603434144101
 21
127.1331580401701
 31
0.0
  0
LINE
  5
307
330
E3
100
AcDbEntity
  8
0
  6
Continuous
100
AcDbLine
 10
127.0603434144101
 20
127.1331580401701
 30
0.0
 11
127.0281834195316
 21
127.127723596591
 31
0.0
  0
LINE
  5
308
330
E3
100
AcDbEntity
  8
0
  6
Continuous
100
AcDbLine
 10
127.0281834195316
 20
127.127723596591
 30
0.0
 11
126.9987153353355
 21
127.122289153012
 31
0.0
  0
LINE
  5
309
330
E3
100
AcDbEntity
  8
0
  6
Continuous
100
AcDbLine
 10
126.9987153353355
 20
127.122289153012
 30
0.0
 11
126.9721595173424
 21
127.116854709433
 31
0.0
  0
LINE
  5
30A
330
E3
100
AcDbEntity
  8
0
  6
Continuous
100
AcDbLine
 10
126.9721595173424
 20
127.116854709433
 30
0.0
 11
126.9487244099633
 21
127.111420265854
 31
0.0
  0
LINE
  5
30B
330
E3
100
AcDbEntity
  8
0
  6
Continuous
100
AcDbLine
 10
126.9487244099633
 20
127.111420265854
 30
0.0
 11
126.928582724282
 21
127.1059828444977
 31
0.0
  0
LINE
  5
30C
330
E3
100
AcDbEntity
  8
0
  6
Continuous
100
AcDbLine
 10
126.928582724282
 20
127.1059828444977
 30
0.0
 11
126.9118893047182
 21
127.1005484009187
 31
0.0
  0
LINE
  5
30D
330
E3
100
AcDbEntity
  8
0
  6
Continuous
100
AcDbLine
 10
126.9118893047182
 20
127.1005484009187
 30
0.0
 11
126.898772195696
 21
127.0951139573397
 31
0.0
  0
LINE
  5
30E
330
E3
100
AcDbEntity
  8
0
  6
Continuous
100
AcDbLine
 10
126.898772195696
 20
127.0951139573397
 30
0.0
 11
126.8893326416437
 21
127.0896795137607
 31
0.0
  0
LINE
  5
30F
330
E3
100
AcDbEntity
  8
0
  6
Continuous
100
AcDbLine
 10
126.8893326416437
 20
127.0896795137607
 30
0.0
 11
126.8836388695853
 21
127.0842451636576
 31
0.0
  0
LINE
  5
310
330
E3
100
AcDbEntity
  8
0
  6
Continuous
100
AcDbLine
 10
126.8836388695853
 20
127.0842451636576
 30
0.0
 11
126.8817362186312
 21
127.0788103810489
 31
0.0
  0
LINE
  5
311
330
E3
100
AcDbEntity
  8
0
  6
Continuous
100
AcDbLine
 10
127.8817362186311
 20
126.8831582071359
 30
0.0
 11
127.879833567677
 21
126.8777234245272
 31
0.0
  0
LINE
  5
312
330
E3
100
AcDbEntity
  8
0
  6
Continuous
100
AcDbLine
 10
127.879833567677
 20
126.8777234245272
 30
0.0
 11
127.8741400951373
 21
126.8722886419185
 31
0.0
  0
LINE
  5
313
330
E3
100
AcDbEntity
  8
0
  6
Continuous
100
AcDbLine
 10
127.8741400951373
 20
126.8722886419185
 30
0.0
 11
127.8647006196489
 21
126.866852438135
 31
0.0
  0
LINE
  5
314
330
E3
100
AcDbEntity
  8
0
  6
Continuous
100
AcDbLine
 10
127.8647006196489
 20
126.866852438135
 30
0.0
 11
127.8515835106267
 21
126.861417994556
 31
0.0
  0
LINE
  5
315
330
E3
100
AcDbEntity
  8
0
  6
Continuous
100
AcDbLine
 10
127.8515835106267
 20
126.861417994556
 30
0.0
 11
127.8348900910629
 21
126.8559835509769
 31
0.0
  0
LINE
  5
316
330
E3
100
AcDbEntity
  8
0
  6
Continuous
100
AcDbLine
 10
127.8348900910629
 20
126.8559835509769
 30
0.0
 11
127.8147484053816
 21
126.850549107398
 31
0.0
  0
LINE
  5
317
330
E3
100
AcDbEntity
  8
0
  6
Continuous
100
AcDbLine
 10
127.8147484053816
 20
126.850549107398
 30
0.0
 11
127.7913132980026
 21
126.8451146638189
 31
0.0
  0
LINE
  5
318
330
E3
100
AcDbEntity
  8
0
  6
Continuous
100
AcDbLine
 10
127.7913132980026
 20
126.8451146638189
 30
0.0
 11
127.7647574800094
 21
126.8396802202399
 31
0.0
  0
LINE
  5
319
330
E3
100
AcDbEntity
  8
0
  6
Continuous
100
AcDbLine
 10
127.7647574800094
 20
126.8396802202399
 30
0.0
 11
127.7352893958133
 21
126.834245776661
 31
0.0
  0
LINE
  5
31A
330
E3
100
AcDbEntity
  8
0
  6
Continuous
100
AcDbLine
 10
127.7352893958133
 20
126.834245776661
 30
0.0
 11
127.7031294009348
 21
126.8288113330819
 31
0.0
  0
LINE
  5
31B
330
E3
100
AcDbEntity
  8
0
  6
Continuous
100
AcDbLine
 10
127.7031294009348
 20
126.8288113330819
 30
0.0
 11
127.6685246508901
 21
126.8233768895029
 31
0.0
  0
LINE
  5
31C
330
E3
100
AcDbEntity
  8
0
  6
Continuous
100
AcDbLine
 10
127.6685246508901
 20
126.8233768895029
 30
0.0
 11
127.6317371900819
 21
126.8179394681466
 31
0.0
  0
LINE
  5
31D
330
E3
100
AcDbEntity
  8
0
  6
Continuous
100
AcDbLine
 10
127.6317371900819
 20
126.8179394681466
 30
0.0
 11
127.5930439517993
 21
126.8125050245676
 31
0.0
  0
LINE
  5
31E
330
E3
100
AcDbEntity
  8
0
  6
Continuous
100
AcDbLine
 10
127.5930439517993
 20
126.8125050245676
 30
0.0
 11
127.5527456915502
 21
126.8070705809886
 31
0.0
  0
LINE
  5
31F
330
E3
100
AcDbEntity
  8
0
  6
Continuous
100
AcDbLine
 10
127.5527456915502
 20
126.8070705809886
 30
0.0
 11
127.5111461426194
 21
126.8016361374096
 31
0.0
  0
LINE
  5
320
330
E3
100
AcDbEntity
  8
0
  6
Continuous
100
AcDbLine
 10
127.5111461426194
 20
126.8016361374096
 30
0.0
 11
127.4685609494011
 21
126.7962016938306
 31
0.0
  0
LINE
  5
321
330
E3
100
AcDbEntity
  8
0
  6
Continuous
100
AcDbLine
 10
127.4685609494011
 20
126.7962016938306
 30
0.0
 11
127.4253146896215
 21
126.7907672502516
 31
0.0
  0
LINE
  5
322
330
E3
100
AcDbEntity
  8
0
  6
Continuous
100
AcDbLine
 10
127.4253146896215
 20
126.7907672502516
 30
0.0
 11
127.3817349187838
 21
126.7853328066726
 31
0.0
  0
LINE
  5
323
330
E3
100
AcDbEntity
  8
0
  6
Continuous
100
AcDbLine
 10
127.3817349187838
 20
126.7853328066726
 30
0.0
 11
127.3381581257235
 21
126.7798983630936
 31
0.0
  0
LINE
  5
324
330
E3
100
AcDbEntity
  8
0
  6
Continuous
100
AcDbLine
 10
127.3381581257235
 20
126.7798983630936
 30
0.0
 11
127.2949118659438
 21
126.7744639195146
 31
0.0
  0
LINE
  5
325
330
E3
100
AcDbEntity
  8
0
  6
Continuous
100
AcDbLine
 10
127.2949118659438
 20
126.7744639195146
 30
0.0
 11
127.2523266727255
 21
126.7690264981583
 31
0.0
  0
LINE
  5
326
330
E3
100
AcDbEntity
  8
0
  6
Continuous
100
AcDbLine
 10
127.2523266727255
 20
126.7690264981583
 30
0.0
 11
127.2107271237947
 21
126.7635920545793
 31
0.0
  0
LINE
  5
327
330
E3
100
AcDbEntity
  8
0
  6
Continuous
100
AcDbLine
 10
127.2107271237947
 20
126.7635920545793
 30
0.0
 11
127.1704258857683
 21
126.7581576110003
 31
0.0
  0
LINE
  5
328
330
E3
100
AcDbEntity
  8
0
  6
Continuous
100
AcDbLine
 10
127.1704258857683
 20
126.7581576110003
 30
0.0
 11
127.1317356252631
 21
126.7527231674213
 31
0.0
  0
LINE
  5
329
330
E3
100
AcDbEntity
  8
0
  6
Continuous
100
AcDbLine
 10
127.1317356252631
 20
126.7527231674213
 30
0.0
 11
127.0949481644548
 21
126.7472887238423
 31
0.0
  0
LINE
  5
32A
330
E3
100
AcDbEntity
  8
0
  6
Continuous
100
AcDbLine
 10
127.0949481644548
 20
126.7472887238423
 30
0.0
 11
127.0603434144101
 21
126.7418542802632
 31
0.0
  0
LINE
  5
32B
330
E3
100
AcDbEntity
  8
0
  6
Continuous
100
AcDbLine
 10
127.0603434144101
 20
126.7418542802632
 30
0.0
 11
127.0281834195316
 21
126.7364198366843
 31
0.0
  0
LINE
  5
32C
330
E3
100
AcDbEntity
  8
0
  6
Continuous
100
AcDbLine
 10
127.0281834195316
 20
126.7364198366843
 30
0.0
 11
126.9987153353355
 21
126.7309853931052
 31
0.0
  0
LINE
  5
32D
330
E3
100
AcDbEntity
  8
0
  6
Continuous
100
AcDbLine
 10
126.9987153353355
 20
126.7309853931052
 30
0.0
 11
126.9721595173424
 21
126.7255509495263
 31
0.0
  0
LINE
  5
32E
330
E3
100
AcDbEntity
  8
0
  6
Continuous
100
AcDbLine
 10
126.9721595173424
 20
126.7255509495263
 30
0.0
 11
126.9487244099633
 21
126.7201135281699
 31
0.0
  0
LINE
  5
32F
330
E3
100
AcDbEntity
  8
0
  6
Continuous
100
AcDbLine
 10
126.9487244099633
 20
126.7201135281699
 30
0.0
 11
126.928582724282
 21
126.7146790845909
 31
0.0
  0
LINE
  5
330
330
E3
100
AcDbEntity
  8
0
  6
Continuous
100
AcDbLine
 10
126.928582724282
 20
126.7146790845909
 30
0.0
 11
126.9118893047182
 21
126.7092446410119
 31
0.0
  0
LINE
  5
331
330
E3
100
AcDbEntity
  8
0
  6
Continuous
100
AcDbLine
 10
126.9118893047182
 20
126.7092446410119
 30
0.0
 11
126.898772195696
 21
126.7038101974329
 31
0.0
  0
LINE
  5
332
330
E3
100
AcDbEntity
  8
0
  6
Continuous
100
AcDbLine
 10
126.898772195696
 20
126.7038101974329
 30
0.0
 11
126.8893326416437
 21
126.6983757538539
 31
0.0
  0
LINE
  5
333
330
E3
100
AcDbEntity
  8
0
  6
Continuous
100
AcDbLine
 10
126.8893326416437
 20
126.6983757538539
 30
0.0
 11
126.8836388695853
 21
126.6929408158315
 31
0.0
  0
LINE
  5
334
330
E3
100
AcDbEntity
  8
0
  6
Continuous
100
AcDbLine
 10
126.8836388695853
 20
126.6929408158315
 30
0.0
 11
126.8817362186312
 21
126.6875060332228
 31
0.0
  0
LINE
  5
335
330
E3
100
AcDbEntity
  8
0
  6
Continuous
100
AcDbLine
 10
127.8817362186311
 20
126.4918538593098
 30
0.0
 11
127.879833567677
 21
126.4864190767011
 31
0.0
  0
LINE
  5
336
330
E3
100
AcDbEntity
  8
0
  6
Continuous
100
AcDbLine
 10
127.879833567677
 20
126.4864190767011
 30
0.0
 11
127.8741400951373
 21
126.4809842940924
 31
0.0
  0
LINE
  5
337
330
E3
100
AcDbEntity
  8
0
  6
Continuous
100
AcDbLine
 10
127.8741400951373
 20
126.4809842940924
 30
0.0
 11
127.8647006196489
 21
126.4755486782282
 31
0.0
  0
LINE
  5
338
330
E3
100
AcDbEntity
  8
0
  6
Continuous
100
AcDbLine
 10
127.8647006196489
 20
126.4755486782282
 30
0.0
 11
127.8515835106267
 21
126.4701142346492
 31
0.0
  0
LINE
  5
339
330
E3
100
AcDbEntity
  8
0
  6
Continuous
100
AcDbLine
 10
127.8515835106267
 20
126.4701142346492
 30
0.0
 11
127.8348900910629
 21
126.4646797910702
 31
0.0
  0
LINE
  5
33A
330
E3
100
AcDbEntity
  8
0
  6
Continuous
100
AcDbLine
 10
127.8348900910629
 20
126.4646797910702
 30
0.0
 11
127.8147484053816
 21
126.4592453474912
 31
0.0
  0
LINE
  5
33B
330
E3
100
AcDbEntity
  8
0
  6
Continuous
100
AcDbLine
 10
127.8147484053816
 20
126.4592453474912
 30
0.0
 11
127.7913132980026
 21
126.4538109039122
 31
0.0
  0
LINE
  5
33C
330
E3
100
AcDbEntity
  8
0
  6
Continuous
100
AcDbLine
 10
127.7913132980026
 20
126.4538109039122
 30
0.0
 11
127.7647574800094
 21
126.4483764603332
 31
0.0
  0
LINE
  5
33D
330
E3
100
AcDbEntity
  8
0
  6
Continuous
100
AcDbLine
 10
127.7647574800094
 20
126.4483764603332
 30
0.0
 11
127.7352893958133
 21
126.4429420167542
 31
0.0
  0
LINE
  5
33E
330
E3
100
AcDbEntity
  8
0
  6
Continuous
100
AcDbLine
 10
127.7352893958133
 20
126.4429420167542
 30
0.0
 11
127.7031294009348
 21
126.4375045953979
 31
0.0
  0
LINE
  5
33F
330
E3
100
AcDbEntity
  8
0
  6
Continuous
100
AcDbLine
 10
127.7031294009348
 20
126.4375045953979
 30
0.0
 11
127.6685246508901
 21
126.4320701518188
 31
0.0
  0
LINE
  5
340
330
E3
100
AcDbEntity
  8
0
  6
Continuous
100
AcDbLine
 10
127.6685246508901
 20
126.4320701518188
 30
0.0
 11
127.6317371900819
 21
126.4266357082399
 31
0.0
  0
LINE
  5
341
330
E3
100
AcDbEntity
  8
0
  6
Continuous
100
AcDbLine
 10
127.6317371900819
 20
126.4266357082399
 30
0.0
 11
127.5930439517993
 21
126.4212012646608
 31
0.0
  0
LINE
  5
342
330
E3
100
AcDbEntity
  8
0
  6
Continuous
100
AcDbLine
 10
127.5930439517993
 20
126.4212012646608
 30
0.0
 11
127.5527456915502
 21
126.4157668210818
 31
0.0
  0
LINE
  5
343
330
E3
100
AcDbEntity
  8
0
  6
Continuous
100
AcDbLine
 10
127.5527456915502
 20
126.4157668210818
 30
0.0
 11
127.5111461426194
 21
126.4103323775028
 31
0.0
  0
LINE
  5
344
330
E3
100
AcDbEntity
  8
0
  6
Continuous
100
AcDbLine
 10
127.5111461426194
 20
126.4103323775028
 30
0.0
 11
127.4685609494011
 21
126.4048979339238
 31
0.0
  0
LINE
  5
345
330
E3
100
AcDbEntity
  8
0
  6
Continuous
100
AcDbLine
 10
127.4685609494011
 20
126.4048979339238
 30
0.0
 11
127.4253146896215
 21
126.3994634903448
 31
0.0
  0
LINE
  5
346
330
E3
100
AcDbEntity
  8
0
  6
Continuous
100
AcDbLine
 10
127.4253146896215
 20
126.3994634903448
 30
0.0
 11
127.3817349187838
 21
126.3940290467658
 31
0.0
  0
LINE
  5
347
330
E3
100
AcDbEntity
  8
0
  6
Continuous
100
AcDbLine
 10
127.3817349187838
 20
126.3940290467658
 30
0.0
 11
127.3381581257235
 21
126.3885916254095
 31
0.0
  0
LINE
  5
348
330
E3
100
AcDbEntity
  8
0
  6
Continuous
100
AcDbLine
 10
127.3381581257235
 20
126.3885916254095
 30
0.0
 11
127.2949118659438
 21
126.3831571818305
 31
0.0
  0
LINE
  5
349
330
E3
100
AcDbEntity
  8
0
  6
Continuous
100
AcDbLine
 10
127.2949118659438
 20
126.3831571818305
 30
0.0
 11
127.2523266727255
 21
126.3777227382515
 31
0.0
  0
LINE
  5
34A
330
E3
100
AcDbEntity
  8
0
  6
Continuous
100
AcDbLine
 10
127.2523266727255
 20
126.3777227382515
 30
0.0
 11
127.2107271237947
 21
126.3722882946725
 31
0.0
  0
LINE
  5
34B
330
E3
100
AcDbEntity
  8
0
  6
Continuous
100
AcDbLine
 10
127.2107271237947
 20
126.3722882946725
 30
0.0
 11
127.1704258857683
 21
126.3668538510935
 31
0.0
  0
LINE
  5
34C
330
E3
100
AcDbEntity
  8
0
  6
Continuous
100
AcDbLine
 10
127.1704258857683
 20
126.3668538510935
 30
0.0
 11
127.1317356252631
 21
126.3614194075145
 31
0.0
  0
LINE
  5
34D
330
E3
100
AcDbEntity
  8
0
  6
Continuous
100
AcDbLine
 10
127.1317356252631
 20
126.3614194075145
 30
0.0
 11
127.0949481644548
 21
126.3559849639355
 31
0.0
  0
LINE
  5
34E
330
E3
100
AcDbEntity
  8
0
  6
Continuous
100
AcDbLine
 10
127.0949481644548
 20
126.3559849639355
 30
0.0
 11
127.0603434144101
 21
126.3505505203565
 31
0.0
  0
LINE
  5
34F
330
E3
100
AcDbEntity
  8
0
  6
Continuous
100
AcDbLine
 10
127.0603434144101
 20
126.3505505203565
 30
0.0
 11
127.0281834195316
 21
126.3451160767775
 31
0.0
  0
LINE
  5
350
330
E3
100
AcDbEntity
  8
0
  6
Continuous
100
AcDbLine
 10
127.0281834195316
 20
126.3451160767775
 30
0.0
 11
126.9987153353355
 21
126.3396786554211
 31
0.0
  0
LINE
  5
351
330
E3
100
AcDbEntity
  8
0
  6
Continuous
100
AcDbLine
 10
126.9987153353355
 20
126.3396786554211
 30
0.0
 11
126.9721595173424
 21
126.3342442118421
 31
0.0
  0
LINE
  5
352
330
E3
100
AcDbEntity
  8
0
  6
Continuous
100
AcDbLine
 10
126.9721595173424
 20
126.3342442118421
 30
0.0
 11
126.9487244099633
 21
126.3288097682632
 31
0.0
  0
LINE
  5
353
330
E3
100
AcDbEntity
  8
0
  6
Continuous
100
AcDbLine
 10
126.9487244099633
 20
126.3288097682632
 30
0.0
 11
126.928582724282
 21
126.3233753246842
 31
0.0
  0
LINE
  5
354
330
E3
100
AcDbEntity
  8
0
  6
Continuous
100
AcDbLine
 10
126.928582724282
 20
126.3233753246842
 30
0.0
 11
126.9118893047182
 21
126.3179408811051
 31
0.0
  0
LINE
  5
355
330
E3
100
AcDbEntity
  8
0
  6
Continuous
100
AcDbLine
 10
126.9118893047182
 20
126.3179408811051
 30
0.0
 11
126.898772195696
 21
126.3125064375261
 31
0.0
  0
LINE
  5
356
330
E3
100
AcDbEntity
  8
0
  6
Continuous
100
AcDbLine
 10
126.898772195696
 20
126.3125064375261
 30
0.0
 11
126.8893326416437
 21
126.3070719939471
 31
0.0
  0
LINE
  5
357
330
E3
100
AcDbEntity
  8
0
  6
Continuous
100
AcDbLine
 10
126.8893326416437
 20
126.3070719939471
 30
0.0
 11
126.8836388695853
 21
126.3016364680055
 31
0.0
  0
LINE
  5
358
330
E3
100
AcDbEntity
  8
0
  6
Continuous
100
AcDbLine
 10
126.8836388695853
 20
126.3016364680055
 30
0.0
 11
126.8817362186312
 21
126.2962016853968
 31
0.0
  0
LINE
  5
359
330
E3
100
AcDbEntity
  8
0
  6
Continuous
100
AcDbLine
 10
127.8817362186311
 20
126.1005495114837
 30
0.0
 11
127.879833567677
 21
126.095114728875
 31
0.0
  0
LINE
  5
35A
330
E3
100
AcDbEntity
  8
0
  6
Continuous
100
AcDbLine
 10
127.879833567677
 20
126.095114728875
 30
0.0
 11
127.8741400951373
 21
126.0896799462663
 31
0.0
  0
LINE
  5
35B
330
E3
100
AcDbEntity
  8
0
  6
Continuous
100
AcDbLine
 10
127.8741400951373
 20
126.0896799462663
 30
0.0
 11
127.8647006196489
 21
126.0842449183214
 31
0.0
  0
LINE
  5
35C
330
E3
100
AcDbEntity
  8
0
  6
Continuous
100
AcDbLine
 10
127.8647006196489
 20
126.0842449183214
 30
0.0
 11
127.8515835106267
 21
126.0788104747424
 31
0.0
  0
LINE
  5
35D
330
E3
100
AcDbEntity
  8
0
  6
Continuous
100
AcDbLine
 10
127.8515835106267
 20
126.0788104747424
 30
0.0
 11
127.8348900910629
 21
126.0733760311634
 31
0.0
  0
LINE
  5
35E
330
E3
100
AcDbEntity
  8
0
  6
Continuous
100
AcDbLine
 10
127.8348900910629
 20
126.0733760311634
 30
0.0
 11
127.8147484053816
 21
126.0679415875844
 31
0.0
  0
LINE
  5
35F
330
E3
100
AcDbEntity
  8
0
  6
Continuous
100
AcDbLine
 10
127.8147484053816
 20
126.0679415875844
 30
0.0
 11
127.7913132980026
 21
126.0625071440054
 31
0.0
  0
LINE
  5
360
330
E3
100
AcDbEntity
  8
0
  6
Continuous
100
AcDbLine
 10
127.7913132980026
 20
126.0625071440054
 30
0.0
 11
127.7647574800094
 21
126.0570727004264
 31
0.0
  0
LINE
  5
361
330
E3
100
AcDbEntity
  8
0
  6
Continuous
100
AcDbLine
 10
127.7647574800094
 20
126.0570727004264
 30
0.0
 11
127.7352893958133
 21
126.0516352790701
 31
0.0
  0
LINE
  5
362
330
E3
100
AcDbEntity
  8
0
  6
Continuous
100
AcDbLine
 10
127.7352893958133
 20
126.0516352790701
 30
0.0
 11
127.7031294009348
 21
126.0462008354911
 31
0.0
  0
LINE
  5
363
330
E3
100
AcDbEntity
  8
0
  6
Continuous
100
AcDbLine
 10
127.7031294009348
 20
126.0462008354911
 30
0.0
 11
127.6685246508901
 21
126.0407663919121
 31
0.0
  0
LINE
  5
364
330
E3
100
AcDbEntity
  8
0
  6
Continuous
100
AcDbLine
 10
127.6685246508901
 20
126.0407663919121
 30
0.0
 11
127.6317371900819
 21
126.0353319483331
 31
0.0
  0
LINE
  5
365
330
E3
100
AcDbEntity
  8
0
  6
Continuous
100
AcDbLine
 10
127.6317371900819
 20
126.0353319483331
 30
0.0
 11
127.5930439517993
 21
126.0298975047541
 31
0.0
  0
LINE
  5
366
330
E3
100
AcDbEntity
  8
0
  6
Continuous
100
AcDbLine
 10
127.5930439517993
 20
126.0298975047541
 30
0.0
 11
127.5527456915502
 21
126.024463061175
 31
0.0
  0
LINE
  5
367
330
E3
100
AcDbEntity
  8
0
  6
Continuous
100
AcDbLine
 10
127.5527456915502
 20
126.024463061175
 30
0.0
 11
127.5111461426194
 21
126.0190286175961
 31
0.0
  0
LINE
  5
368
330
E3
100
AcDbEntity
  8
0
  6
Continuous
100
AcDbLine
 10
127.5111461426194
 20
126.0190286175961
 30
0.0
 11
127.4685609494011
 21
126.013594174017
 31
0.0
  0
LINE
  5
369
330
E3
100
AcDbEntity
  8
0
  6
Continuous
100
AcDbLine
 10
127.4685609494011
 20
126.013594174017
 30
0.0
 11
127.4253146896215
 21
126.0081567526608
 31
0.0
  0
LINE
  5
36A
330
E3
100
AcDbEntity
  8
0
  6
Continuous
100
AcDbLine
 10
127.4253146896215
 20
126.0081567526608
 30
0.0
 11
127.3817349187838
 21
126.0027223090817
 31
0.0
  0
LINE
  5
36B
330
E3
100
AcDbEntity
  8
0
  6
Continuous
100
AcDbLine
 10
127.3817349187838
 20
126.0027223090817
 30
0.0
 11
127.3381581257235
 21
125.9972878655027
 31
0.0
  0
LINE
  5
36C
330
E3
100
AcDbEntity
  8
0
  6
Continuous
100
AcDbLine
 10
127.3381581257235
 20
125.9972878655027
 30
0.0
 11
127.2949118659438
 21
125.9918534219237
 31
0.0
  0
LINE
  5
36D
330
E3
100
AcDbEntity
  8
0
  6
Continuous
100
AcDbLine
 10
127.2949118659438
 20
125.9918534219237
 30
0.0
 11
127.2523266727255
 21
125.9864189783447
 31
0.0
  0
LINE
  5
36E
330
E3
100
AcDbEntity
  8
0
  6
Continuous
100
AcDbLine
 10
127.2523266727255
 20
125.9864189783447
 30
0.0
 11
127.2107271237947
 21
125.9809845347657
 31
0.0
  0
LINE
  5
36F
330
E3
100
AcDbEntity
  8
0
  6
Continuous
100
AcDbLine
 10
127.2107271237947
 20
125.9809845347657
 30
0.0
 11
127.1704258857683
 21
125.9755500911867
 31
0.0
  0
LINE
  5
370
330
E3
100
AcDbEntity
  8
0
  6
Continuous
100
AcDbLine
 10
127.1704258857683
 20
125.9755500911867
 30
0.0
 11
127.1317356252631
 21
125.9701156476077
 31
0.0
  0
LINE
  5
371
330
E3
100
AcDbEntity
  8
0
  6
Continuous
100
AcDbLine
 10
127.1317356252631
 20
125.9701156476077
 30
0.0
 11
127.0949481644548
 21
125.9646812040287
 31
0.0
  0
LINE
  5
372
330
E3
100
AcDbEntity
  8
0
  6
Continuous
100
AcDbLine
 10
127.0949481644548
 20
125.9646812040287
 30
0.0
 11
127.0603434144101
 21
125.9592437826724
 31
0.0
  0
LINE
  5
373
330
E3
100
AcDbEntity
  8
0
  6
Continuous
100
AcDbLine
 10
127.0603434144101
 20
125.9592437826724
 30
0.0
 11
127.0281834195316
 21
125.9538093390934
 31
0.0
  0
LINE
  5
374
330
E3
100
AcDbEntity
  8
0
  6
Continuous
100
AcDbLine
 10
127.0281834195316
 20
125.9538093390934
 30
0.0
 11
126.9987153353355
 21
125.9483748955144
 31
0.0
  0
LINE
  5
375
330
E3
100
AcDbEntity
  8
0
  6
Continuous
100
AcDbLine
 10
126.9987153353355
 20
125.9483748955144
 30
0.0
 11
126.9721595173424
 21
125.9429404519354
 31
0.0
  0
LINE
  5
376
330
E3
100
AcDbEntity
  8
0
  6
Continuous
100
AcDbLine
 10
126.9721595173424
 20
125.9429404519354
 30
0.0
 11
126.9487244099633
 21
125.9375060083564
 31
0.0
  0
LINE
  5
377
330
E3
100
AcDbEntity
  8
0
  6
Continuous
100
AcDbLine
 10
126.9487244099633
 20
125.9375060083564
 30
0.0
 11
126.928582724282
 21
125.9320715647774
 31
0.0
  0
LINE
  5
378
330
E3
100
AcDbEntity
  8
0
  6
Continuous
100
AcDbLine
 10
126.928582724282
 20
125.9320715647774
 30
0.0
 11
126.9118893047182
 21
125.9266371211983
 31
0.0
  0
LINE
  5
379
330
E3
100
AcDbEntity
  8
0
  6
Continuous
100
AcDbLine
 10
126.9118893047182
 20
125.9266371211983
 30
0.0
 11
126.898772195696
 21
125.9212026776194
 31
0.0
  0
LINE
  5
37A
330
E3
100
AcDbEntity
  8
0
  6
Continuous
100
AcDbLine
 10
126.898772195696
 20
125.9212026776194
 30
0.0
 11
126.8893326416437
 21
125.9157682340404
 31
0.0
  0
LINE
  5
37B
330
E3
100
AcDbEntity
  8
0
  6
Continuous
100
AcDbLine
 10
126.8893326416437
 20
125.9157682340404
 30
0.0
 11
126.8836388695853
 21
125.9103321201794
 31
0.0
  0
LINE
  5
37C
330
E3
100
AcDbEntity
  8
0
  6
Continuous
100
AcDbLine
 10
126.8836388695853
 20
125.9103321201794
 30
0.0
 11
126.8817362186312
 21
125.9048973375707
 31
0.0
  0
LINE
  5
37D
330
E3
100
AcDbEntity
  8
0
  6
Continuous
100
AcDbLine
 10
127.8817362186311
 20
125.7092451636576
 30
0.0
 11
127.879833567677
 21
125.7038103810489
 31
0.0
  0
LINE
  5
37E
330
E3
100
AcDbEntity
  8
0
  6
Continuous
100
AcDbLine
 10
127.879833567677
 20
125.7038103810489
 30
0.0
 11
127.8741400951373
 21
125.6983755984402
 31
0.0
  0
LINE
  5
37F
330
E3
100
AcDbEntity
  8
0
  6
Continuous
100
AcDbLine
 10
127.8741400951373
 20
125.6983755984402
 30
0.0
 11
127.8647006196489
 21
125.6929411584146
 31
0.0
  0
LINE
  5
380
330
E3
100
AcDbEntity
  8
0
  6
Continuous
100
AcDbLine
 10
127.8647006196489
 20
125.6929411584146
 30
0.0
 11
127.8515835106267
 21
125.6875067148356
 31
0.0
  0
LINE
  5
381
330
E3
100
AcDbEntity
  8
0
  6
Continuous
100
AcDbLine
 10
127.8515835106267
 20
125.6875067148356
 30
0.0
 11
127.8348900910629
 21
125.6820722712566
 31
0.0
  0
LINE
  5
382
330
E3
100
AcDbEntity
  8
0
  6
Continuous
100
AcDbLine
 10
127.8348900910629
 20
125.6820722712566
 30
0.0
 11
127.8147484053816
 21
125.6766378276776
 31
0.0
  0
LINE
  5
383
330
E3
100
AcDbEntity
  8
0
  6
Continuous
100
AcDbLine
 10
127.8147484053816
 20
125.6766378276776
 30
0.0
 11
127.7913132980026
 21
125.6712004063213
 31
0.0
  0
LINE
  5
384
330
E3
100
AcDbEntity
  8
0
  6
Continuous
100
AcDbLine
 10
127.7913132980026
 20
125.6712004063213
 30
0.0
 11
127.7647574800094
 21
125.6657659627423
 31
0.0
  0
LINE
  5
385
330
E3
100
AcDbEntity
  8
0
  6
Continuous
100
AcDbLine
 10
127.7647574800094
 20
125.6657659627423
 30
0.0
 11
127.7352893958133
 21
125.6603315191633
 31
0.0
  0
LINE
  5
386
330
E3
100
AcDbEntity
  8
0
  6
Continuous
100
AcDbLine
 10
127.7352893958133
 20
125.6603315191633
 30
0.0
 11
127.7031294009348
 21
125.6548970755843
 31
0.0
  0
LINE
  5
387
330
E3
100
AcDbEntity
  8
0
  6
Continuous
100
AcDbLine
 10
127.7031294009348
 20
125.6548970755843
 30
0.0
 11
127.6685246508901
 21
125.6494626320053
 31
0.0
  0
LINE
  5
388
330
E3
100
AcDbEntity
  8
0
  6
Continuous
100
AcDbLine
 10
127.6685246508901
 20
125.6494626320053
 30
0.0
 11
127.6317371900819
 21
125.6440281884263
 31
0.0
  0
LINE
  5
389
330
E3
100
AcDbEntity
  8
0
  6
Continuous
100
AcDbLine
 10
127.6317371900819
 20
125.6440281884263
 30
0.0
 11
127.5930439517993
 21
125.6385937448473
 31
0.0
  0
LINE
  5
38A
330
E3
100
AcDbEntity
  8
0
  6
Continuous
100
AcDbLine
 10
127.5930439517993
 20
125.6385937448473
 30
0.0
 11
127.5527456915502
 21
125.6331593012683
 31
0.0
  0
LINE
  5
38B
330
E3
100
AcDbEntity
  8
0
  6
Continuous
100
AcDbLine
 10
127.5527456915502
 20
125.6331593012683
 30
0.0
 11
127.5111461426194
 21
125.6277248576892
 31
0.0
  0
LINE
  5
38C
330
E3
100
AcDbEntity
  8
0
  6
Continuous
100
AcDbLine
 10
127.5111461426194
 20
125.6277248576892
 30
0.0
 11
127.4685609494011
 21
125.622287436333
 31
0.0
  0
LINE
  5
38D
330
E3
100
AcDbEntity
  8
0
  6
Continuous
100
AcDbLine
 10
127.4685609494011
 20
125.622287436333
 30
0.0
 11
127.4253146896215
 21
125.616852992754
 31
0.0
  0
LINE
  5
38E
330
E3
100
AcDbEntity
  8
0
  6
Continuous
100
AcDbLine
 10
127.4253146896215
 20
125.616852992754
 30
0.0
 11
127.3817349187838
 21
125.611418549175
 31
0.0
  0
LINE
  5
38F
330
E3
100
AcDbEntity
  8
0
  6
Continuous
100
AcDbLine
 10
127.3817349187838
 20
125.611418549175
 30
0.0
 11
127.3381581257235
 21
125.6059841055959
 31
0.0
  0
LINE
  5
390
330
E3
100
AcDbEntity
  8
0
  6
Continuous
100
AcDbLine
 10
127.3381581257235
 20
125.6059841055959
 30
0.0
 11
127.2949118659438
 21
125.6005496620169
 31
0.0
  0
LINE
  5
391
330
E3
100
AcDbEntity
  8
0
  6
Continuous
100
AcDbLine
 10
127.2949118659438
 20
125.6005496620169
 30
0.0
 11
127.2523266727255
 21
125.5951152184379
 31
0.0
  0
LINE
  5
392
330
E3
100
AcDbEntity
  8
0
  6
Continuous
100
AcDbLine
 10
127.2523266727255
 20
125.5951152184379
 30
0.0
 11
127.2107271237947
 21
125.5896807748589
 31
0.0
  0
LINE
  5
393
330
E3
100
AcDbEntity
  8
0
  6
Continuous
100
AcDbLine
 10
127.2107271237947
 20
125.5896807748589
 30
0.0
 11
127.1704258857683
 21
125.5842463312799
 31
0.0
  0
LINE
  5
394
330
E3
100
AcDbEntity
  8
0
  6
Continuous
100
AcDbLine
 10
127.1704258857683
 20
125.5842463312799
 30
0.0
 11
127.1317356252631
 21
125.5788089099236
 31
0.0
  0
LINE
  5
395
330
E3
100
AcDbEntity
  8
0
  6
Continuous
100
AcDbLine
 10
127.1317356252631
 20
125.5788089099236
 30
0.0
 11
127.0949481644548
 21
125.5733744663446
 31
0.0
  0
LINE
  5
396
330
E3
100
AcDbEntity
  8
0
  6
Continuous
100
AcDbLine
 10
127.0949481644548
 20
125.5733744663446
 30
0.0
 11
127.0603434144101
 21
125.5679400227656
 31
0.0
  0
LINE
  5
397
330
E3
100
AcDbEntity
  8
0
  6
Continuous
100
AcDbLine
 10
127.0603434144101
 20
125.5679400227656
 30
0.0
 11
127.0281834195316
 21
125.5625055791866
 31
0.0
  0
LINE
  5
398
330
E3
100
AcDbEntity
  8
0
  6
Continuous
100
AcDbLine
 10
127.0281834195316
 20
125.5625055791866
 30
0.0
 11
126.9987153353355
 21
125.5570711356076
 31
0.0
  0
LINE
  5
399
330
E3
100
AcDbEntity
  8
0
  6
Continuous
100
AcDbLine
 10
126.9987153353355
 20
125.5570711356076
 30
0.0
 11
126.9721595173424
 21
125.5516366920286
 31
0.0
  0
LINE
  5
39A
330
E3
100
AcDbEntity
  8
0
  6
Continuous
100
AcDbLine
 10
126.9721595173424
 20
125.5516366920286
 30
0.0
 11
126.9487244099633
 21
125.5462022484496
 31
0.0
  0
LINE
  5
39B
330
E3
100
AcDbEntity
  8
0
  6
Continuous
100
AcDbLine
 10
126.9487244099633
 20
125.5462022484496
 30
0.0
 11
126.928582724282
 21
125.5407678048706
 31
0.0
  0
LINE
  5
39C
330
E3
100
AcDbEntity
  8
0
  6
Continuous
100
AcDbLine
 10
126.928582724282
 20
125.5407678048706
 30
0.0
 11
126.9118893047182
 21
125.5353333612916
 31
0.0
  0
LINE
  5
39D
330
E3
100
AcDbEntity
  8
0
  6
Continuous
100
AcDbLine
 10
126.9118893047182
 20
125.5353333612916
 30
0.0
 11
126.898772195696
 21
125.5298959399353
 31
0.0
  0
LINE
  5
39E
330
E3
100
AcDbEntity
  8
0
  6
Continuous
100
AcDbLine
 10
126.898772195696
 20
125.5298959399353
 30
0.0
 11
126.8893326416437
 21
125.5244614963563
 31
0.0
  0
LINE
  5
39F
330
E3
100
AcDbEntity
  8
0
  6
Continuous
100
AcDbLine
 10
126.8893326416437
 20
125.5244614963563
 30
0.0
 11
126.8836388695853
 21
125.5190277723532
 31
0.0
  0
LINE
  5
3A0
330
E3
100
AcDbEntity
  8
0
  6
Continuous
100
AcDbLine
 10
126.8836388695853
 20
125.5190277723532
 30
0.0
 11
126.8817362186312
 21
125.5135929897446
 31
0.0
  0
LINE
  5
3A1
330
E3
100
AcDbEntity
  8
0
  6
Continuous
100
AcDbLine
 10
127.8817362186311
 20
125.3179408158316
 30
0.0
 11
127.879833567677
 21
125.3125060332229
 31
0.0
  0
LINE
  5
3A2
330
E3
100
AcDbEntity
  8
0
  6
Continuous
100
AcDbLine
 10
127.879833567677
 20
125.3125060332229
 30
0.0
 11
127.8741400951373
 21
125.3070712506141
 31
0.0
  0
LINE
  5
3A3
330
E3
100
AcDbEntity
  8
0
  6
Continuous
100
AcDbLine
 10
127.8741400951373
 20
125.3070712506141
 30
0.0
 11
127.8647006196489
 21
125.3016373985079
 31
0.0
  0
LINE
  5
3A4
330
E3
100
AcDbEntity
  8
0
  6
Continuous
100
AcDbLine
 10
127.8647006196489
 20
125.3016373985079
 30
0.0
 11
127.8515835106267
 21
125.2962029549288
 31
0.0
  0
LINE
  5
3A5
330
E3
100
AcDbEntity
  8
0
  6
Continuous
100
AcDbLine
 10
127.8515835106267
 20
125.2962029549288
 30
0.0
 11
127.8348900910629
 21
125.2907655335725
 31
0.0
  0
LINE
  5
3A6
330
E3
100
AcDbEntity
  8
0
  6
Continuous
100
AcDbLine
 10
127.8348900910629
 20
125.2907655335725
 30
0.0
 11
127.8147484053816
 21
125.2853310899935
 31
0.0
  0
LINE
  5
3A7
330
E3
100
AcDbEntity
  8
0
  6
Continuous
100
AcDbLine
 10
127.8147484053816
 20
125.2853310899935
 30
0.0
 11
127.7913132980026
 21
125.2798966464145
 31
0.0
  0
LINE
  5
3A8
330
E3
100
AcDbEntity
  8
0
  6
Continuous
100
AcDbLine
 10
127.7913132980026
 20
125.2798966464145
 30
0.0
 11
127.7647574800094
 21
125.2744622028355
 31
0.0
  0
LINE
  5
3A9
330
E3
100
AcDbEntity
  8
0
  6
Continuous
100
AcDbLine
 10
127.7647574800094
 20
125.2744622028355
 30
0.0
 11
127.7352893958133
 21
125.2690277592565
 31
0.0
  0
LINE
  5
3AA
330
E3
100
AcDbEntity
  8
0
  6
Continuous
100
AcDbLine
 10
127.7352893958133
 20
125.2690277592565
 30
0.0
 11
127.7031294009348
 21
125.2635933156775
 31
0.0
  0
LINE
  5
3AB
330
E3
100
AcDbEntity
  8
0
  6
Continuous
100
AcDbLine
 10
127.7031294009348
 20
125.2635933156775
 30
0.0
 11
127.6685246508901
 21
125.2581588720985
 31
0.0
  0
LINE
  5
3AC
330
E3
100
AcDbEntity
  8
0
  6
Continuous
100
AcDbLine
 10
127.6685246508901
 20
125.2581588720985
 30
0.0
 11
127.6317371900819
 21
125.2527244285195
 31
0.0
  0
LINE
  5
3AD
330
E3
100
AcDbEntity
  8
0
  6
Continuous
100
AcDbLine
 10
127.6317371900819
 20
125.2527244285195
 30
0.0
 11
127.5930439517993
 21
125.2472899849405
 31
0.0
  0
LINE
  5
3AE
330
E3
100
AcDbEntity
  8
0
  6
Continuous
100
AcDbLine
 10
127.5930439517993
 20
125.2472899849405
 30
0.0
 11
127.5527456915502
 21
125.2418525635842
 31
0.0
  0
LINE
  5
3AF
330
E3
100
AcDbEntity
  8
0
  6
Continuous
100
AcDbLine
 10
127.5527456915502
 20
125.2418525635842
 30
0.0
 11
127.5111461426194
 21
125.2364181200052
 31
0.0
  0
LINE
  5
3B0
330
E3
100
AcDbEntity
  8
0
  6
Continuous
100
AcDbLine
 10
127.5111461426194
 20
125.2364181200052
 30
0.0
 11
127.4685609494011
 21
125.2309836764262
 31
0.0
  0
LINE
  5
3B1
330
E3
100
AcDbEntity
  8
0
  6
Continuous
100
AcDbLine
 10
127.4685609494011
 20
125.2309836764262
 30
0.0
 11
127.4253146896215
 21
125.2255492328472
 31
0.0
  0
LINE
  5
3B2
330
E3
100
AcDbEntity
  8
0
  6
Continuous
100
AcDbLine
 10
127.4253146896215
 20
125.2255492328472
 30
0.0
 11
127.3817349187838
 21
125.2201147892681
 31
0.0
  0
LINE
  5
3B3
330
E3
100
AcDbEntity
  8
0
  6
Continuous
100
AcDbLine
 10
127.3817349187838
 20
125.2201147892681
 30
0.0
 11
127.3381581257235
 21
125.2146803456892
 31
0.0
  0
LINE
  5
3B4
330
E3
100
AcDbEntity
  8
0
  6
Continuous
100
AcDbLine
 10
127.3381581257235
 20
125.2146803456892
 30
0.0
 11
127.2949118659438
 21
125.2092459021102
 31
0.0
  0
LINE
  5
3B5
330
E3
100
AcDbEntity
  8
0
  6
Continuous
100
AcDbLine
 10
127.2949118659438
 20
125.2092459021102
 30
0.0
 11
127.2523266727255
 21
125.2038114585311
 31
0.0
  0
LINE
  5
3B6
330
E3
100
AcDbEntity
  8
0
  6
Continuous
100
AcDbLine
 10
127.2523266727255
 20
125.2038114585311
 30
0.0
 11
127.2107271237947
 21
125.1983770149521
 31
0.0
  0
LINE
  5
3B7
330
E3
100
AcDbEntity
  8
0
  6
Continuous
100
AcDbLine
 10
127.2107271237947
 20
125.1983770149521
 30
0.0
 11
127.1704258857683
 21
125.1929395935958
 31
0.0
  0
LINE
  5
3B8
330
E3
100
AcDbEntity
  8
0
  6
Continuous
100
AcDbLine
 10
127.1704258857683
 20
125.1929395935958
 30
0.0
 11
127.1317356252631
 21
125.1875051500168
 31
0.0
  0
LINE
  5
3B9
330
E3
100
AcDbEntity
  8
0
  6
Continuous
100
AcDbLine
 10
127.1317356252631
 20
125.1875051500168
 30
0.0
 11
127.0949481644548
 21
125.1820707064378
 31
0.0
  0
LINE
  5
3BA
330
E3
100
AcDbEntity
  8
0
  6
Continuous
100
AcDbLine
 10
127.0949481644548
 20
125.1820707064378
 30
0.0
 11
127.0603434144101
 21
125.1766362628588
 31
0.0
  0
LINE
  5
3BB
330
E3
100
AcDbEntity
  8
0
  6
Continuous
100
AcDbLine
 10
127.0603434144101
 20
125.1766362628588
 30
0.0
 11
127.0281834195316
 21
125.1712018192798
 31
0.0
  0
LINE
  5
3BC
330
E3
100
AcDbEntity
  8
0
  6
Continuous
100
AcDbLine
 10
127.0281834195316
 20
125.1712018192798
 30
0.0
 11
126.9987153353355
 21
125.1657673757008
 31
0.0
  0
LINE
  5
3BD
330
E3
100
AcDbEntity
  8
0
  6
Continuous
100
AcDbLine
 10
126.9987153353355
 20
125.1657673757008
 30
0.0
 11
126.9721595173424
 21
125.1603329321218
 31
0.0
  0
LINE
  5
3BE
330
E3
100
AcDbEntity
  8
0
  6
Continuous
100
AcDbLine
 10
126.9721595173424
 20
125.1603329321218
 30
0.0
 11
126.9487244099633
 21
125.1548984885428
 31
0.0
  0
LINE
  5
3BF
330
E3
100
AcDbEntity
  8
0
  6
Continuous
100
AcDbLine
 10
126.9487244099633
 20
125.1548984885428
 30
0.0
 11
126.928582724282
 21
125.1494610671865
 31
0.0
  0
LINE
  5
3C0
330
E3
100
AcDbEntity
  8
0
  6
Continuous
100
AcDbLine
 10
126.928582724282
 20
125.1494610671865
 30
0.0
 11
126.9118893047182
 21
125.1440266236075
 31
0.0
  0
LINE
  5
3C1
330
E3
100
AcDbEntity
  8
0
  6
Continuous
100
AcDbLine
 10
126.9118893047182
 20
125.1440266236075
 30
0.0
 11
126.898772195696
 21
125.1385921800285
 31
0.0
  0
LINE
  5
3C2
330
E3
100
AcDbEntity
  8
0
  6
Continuous
100
AcDbLine
 10
126.898772195696
 20
125.1385921800285
 30
0.0
 11
126.8893326416437
 21
125.1331577364495
 31
0.0
  0
LINE
  5
3C3
330
E3
100
AcDbEntity
  8
0
  6
Continuous
100
AcDbLine
 10
126.8893326416437
 20
125.1331577364495
 30
0.0
 11
126.8836388695853
 21
125.1277234245272
 31
0.0
  0
LINE
  5
3C4
330
E3
100
AcDbEntity
  8
0
  6
Continuous
100
AcDbLine
 10
126.8836388695853
 20
125.1277234245272
 30
0.0
 11
126.8817362186312
 21
125.1222886419185
 31
0.0
  0
LINE
  5
3C5
330
E3
100
AcDbEntity
  8
0
  6
Continuous
100
AcDbLine
 10
127.8817362186311
 20
124.9266364680055
 30
0.0
 11
127.879833567677
 21
124.9212016853968
 31
0.0
  0
LINE
  5
3C6
330
E3
100
AcDbEntity
  8
0
  6
Continuous
100
AcDbLine
 10
127.879833567677
 20
124.9212016853968
 30
0.0
 11
127.8741400951373
 21
124.9157669027881
 31
0.0
  0
LINE
  5
3C7
330
E3
100
AcDbEntity
  8
0
  6
Continuous
100
AcDbLine
 10
127.8741400951373
 20
124.9157669027881
 30
0.0
 11
127.8647006196489
 21
124.9103306608238
 31
0.0
  0
LINE
  5
3C8
330
E3
100
AcDbEntity
  8
0
  6
Continuous
100
AcDbLine
 10
127.8647006196489
 20
124.9103306608238
 30
0.0
 11
127.8515835106267
 21
124.9048962172448
 31
0.0
  0
LINE
  5
3C9
330
E3
100
AcDbEntity
  8
0
  6
Continuous
100
AcDbLine
 10
127.8515835106267
 20
124.9048962172448
 30
0.0
 11
127.8348900910629
 21
124.8994617736657
 31
0.0
  0
LINE
  5
3CA
330
E3
100
AcDbEntity
  8
0
  6
Continuous
100
AcDbLine
 10
127.8348900910629
 20
124.8994617736657
 30
0.0
 11
127.8147484053816
 21
124.8940273300868
 31
0.0
  0
LINE
  5
3CB
330
E3
100
AcDbEntity
  8
0
  6
Continuous
100
AcDbLine
 10
127.8147484053816
 20
124.8940273300868
 30
0.0
 11
127.7913132980026
 21
124.8885928865078
 31
0.0
  0
LINE
  5
3CC
330
E3
100
AcDbEntity
  8
0
  6
Continuous
100
AcDbLine
 10
127.7913132980026
 20
124.8885928865078
 30
0.0
 11
127.7647574800094
 21
124.8831584429287
 31
0.0
  0
LINE
  5
3CD
330
E3
100
AcDbEntity
  8
0
  6
Continuous
100
AcDbLine
 10
127.7647574800094
 20
124.8831584429287
 30
0.0
 11
127.7352893958133
 21
124.8777239993497
 31
0.0
  0
LINE
  5
3CE
330
E3
100
AcDbEntity
  8
0
  6
Continuous
100
AcDbLine
 10
127.7352893958133
 20
124.8777239993497
 30
0.0
 11
127.7031294009348
 21
124.8722895557707
 31
0.0
  0
LINE
  5
3CF
330
E3
100
AcDbEntity
  8
0
  6
Continuous
100
AcDbLine
 10
127.7031294009348
 20
124.8722895557707
 30
0.0
 11
127.6685246508901
 21
124.8668551121917
 31
0.0
  0
LINE
  5
3D0
330
E3
100
AcDbEntity
  8
0
  6
Continuous
100
AcDbLine
 10
127.6685246508901
 20
124.8668551121917
 30
0.0
 11
127.6317371900819
 21
124.8614176908354
 31
0.0
  0
LINE
  5
3D1
330
E3
100
AcDbEntity
  8
0
  6
Continuous
100
AcDbLine
 10
127.6317371900819
 20
124.8614176908354
 30
0.0
 11
127.5930439517993
 21
124.8559832472564
 31
0.0
  0
LINE
  5
3D2
330
E3
100
AcDbEntity
  8
0
  6
Continuous
100
AcDbLine
 10
127.5930439517993
 20
124.8559832472564
 30
0.0
 11
127.5527456915502
 21
124.8505488036774
 31
0.0
  0
LINE
  5
3D3
330
E3
100
AcDbEntity
  8
0
  6
Continuous
100
AcDbLine
 10
127.5527456915502
 20
124.8505488036774
 30
0.0
 11
127.5111461426194
 21
124.8451143600984
 31
0.0
  0
LINE
  5
3D4
330
E3
100
AcDbEntity
  8
0
  6
Continuous
100
AcDbLine
 10
127.5111461426194
 20
124.8451143600984
 30
0.0
 11
127.4685609494011
 21
124.8396799165194
 31
0.0
  0
LINE
  5
3D5
330
E3
100
AcDbEntity
  8
0
  6
Continuous
100
AcDbLine
 10
127.4685609494011
 20
124.8396799165194
 30
0.0
 11
127.4253146896215
 21
124.8342454729404
 31
0.0
  0
LINE
  5
3D6
330
E3
100
AcDbEntity
  8
0
  6
Continuous
100
AcDbLine
 10
127.4253146896215
 20
124.8342454729404
 30
0.0
 11
127.3817349187838
 21
124.8288110293614
 31
0.0
  0
LINE
  5
3D7
330
E3
100
AcDbEntity
  8
0
  6
Continuous
100
AcDbLine
 10
127.3817349187838
 20
124.8288110293614
 30
0.0
 11
127.3381581257235
 21
124.8233765857824
 31
0.0
  0
LINE
  5
3D8
330
E3
100
AcDbEntity
  8
0
  6
Continuous
100
AcDbLine
 10
127.3381581257235
 20
124.8233765857824
 30
0.0
 11
127.2949118659438
 21
124.8179421422034
 31
0.0
  0
LINE
  5
3D9
330
E3
100
AcDbEntity
  8
0
  6
Continuous
100
AcDbLine
 10
127.2949118659438
 20
124.8179421422034
 30
0.0
 11
127.2523266727255
 21
124.8125047208471
 31
0.0
  0
LINE
  5
3DA
330
E3
100
AcDbEntity
  8
0
  6
Continuous
100
AcDbLine
 10
127.2523266727255
 20
124.8125047208471
 30
0.0
 11
127.2107271237947
 21
124.8070702772681
 31
0.0
  0
LINE
  5
3DB
330
E3
100
AcDbEntity
  8
0
  6
Continuous
100
AcDbLine
 10
127.2107271237947
 20
124.8070702772681
 30
0.0
 11
127.1704258857683
 21
124.8016358336891
 31
0.0
  0
LINE
  5
3DC
330
E3
100
AcDbEntity
  8
0
  6
Continuous
100
AcDbLine
 10
127.1704258857683
 20
124.8016358336891
 30
0.0
 11
127.1317356252631
 21
124.7962013901101
 31
0.0
  0
LINE
  5
3DD
330
E3
100
AcDbEntity
  8
0
  6
Continuous
100
AcDbLine
 10
127.1317356252631
 20
124.7962013901101
 30
0.0
 11
127.0949481644548
 21
124.7907669465311
 31
0.0
  0
LINE
  5
3DE
330
E3
100
AcDbEntity
  8
0
  6
Continuous
100
AcDbLine
 10
127.0949481644548
 20
124.7907669465311
 30
0.0
 11
127.0603434144101
 21
124.7853325029521
 31
0.0
  0
LINE
  5
3DF
330
E3
100
AcDbEntity
  8
0
  6
Continuous
100
AcDbLine
 10
127.0603434144101
 20
124.7853325029521
 30
0.0
 11
127.0281834195316
 21
124.779898059373
 31
0.0
  0
LINE
  5
3E0
330
E3
100
AcDbEntity
  8
0
  6
Continuous
100
AcDbLine
 10
127.0281834195316
 20
124.779898059373
 30
0.0
 11
126.9987153353355
 21
124.774463615794
 31
0.0
  0
LINE
  5
3E1
330
E3
100
AcDbEntity
  8
0
  6
Continuous
100
AcDbLine
 10
126.9987153353355
 20
124.774463615794
 30
0.0
 11
126.9721595173424
 21
124.769029172215
 31
0.0
  0
LINE
  5
3E2
330
E3
100
AcDbEntity
  8
0
  6
Continuous
100
AcDbLine
 10
126.9721595173424
 20
124.769029172215
 30
0.0
 11
126.9487244099633
 21
124.7635917508587
 31
0.0
  0
LINE
  5
3E3
330
E3
100
AcDbEntity
  8
0
  6
Continuous
100
AcDbLine
 10
126.9487244099633
 20
124.7635917508587
 30
0.0
 11
126.928582724282
 21
124.7581573072797
 31
0.0
  0
LINE
  5
3E4
330
E3
100
AcDbEntity
  8
0
  6
Continuous
100
AcDbLine
 10
126.928582724282
 20
124.7581573072797
 30
0.0
 11
126.9118893047182
 21
124.7527228637007
 31
0.0
  0
LINE
  5
3E5
330
E3
100
AcDbEntity
  8
0
  6
Continuous
100
AcDbLine
 10
126.9118893047182
 20
124.7527228637007
 30
0.0
 11
126.898772195696
 21
124.7472884201217
 31
0.0
  0
LINE
  5
3E6
330
E3
100
AcDbEntity
  8
0
  6
Continuous
100
AcDbLine
 10
126.898772195696
 20
124.7472884201217
 30
0.0
 11
126.8893326416437
 21
124.7418539765427
 31
0.0
  0
LINE
  5
3E7
330
E3
100
AcDbEntity
  8
0
  6
Continuous
100
AcDbLine
 10
126.8893326416437
 20
124.7418539765427
 30
0.0
 11
126.8836388695853
 21
124.7364190767011
 31
0.0
  0
LINE
  5
3E8
330
E3
100
AcDbEntity
  8
0
  6
Continuous
100
AcDbLine
 10
126.8836388695853
 20
124.7364190767011
 30
0.0
 11
126.8817362186312
 21
124.7309842940924
 31
0.0
  0
LINE
  5
3E9
330
E3
100
AcDbEntity
  8
0
  6
Continuous
100
AcDbLine
 10
127.8817362186311
 20
124.5353321201793
 30
0.0
 11
127.879833567677
 21
124.5298973375707
 31
0.0
  0
LINE
  5
3EA
330
E3
100
AcDbEntity
  8
0
  6
Continuous
100
AcDbLine
 10
127.879833567677
 20
124.5298973375707
 30
0.0
 11
127.8741400951373
 21
124.524462554962
 31
0.0
  0
LINE
  5
3EB
330
E3
100
AcDbEntity
  8
0
  6
Continuous
100
AcDbLine
 10
127.8741400951373
 20
124.524462554962
 30
0.0
 11
127.8647006196489
 21
124.519026900917
 31
0.0
  0
LINE
  5
3EC
330
E3
100
AcDbEntity
  8
0
  6
Continuous
100
AcDbLine
 10
127.8647006196489
 20
124.519026900917
 30
0.0
 11
127.8515835106267
 21
124.513592457338
 31
0.0
  0
LINE
  5
3ED
330
E3
100
AcDbEntity
  8
0
  6
Continuous
100
AcDbLine
 10
127.8515835106267
 20
124.513592457338
 30
0.0
 11
127.8348900910629
 21
124.508158013759
 31
0.0
  0
LINE
  5
3EE
330
E3
100
AcDbEntity
  8
0
  6
Continuous
100
AcDbLine
 10
127.8348900910629
 20
124.508158013759
 30
0.0
 11
127.8147484053816
 21
124.50272357018
 31
0.0
  0
LINE
  5
3EF
330
E3
100
AcDbEntity
  8
0
  6
Continuous
100
AcDbLine
 10
127.8147484053816
 20
124.50272357018
 30
0.0
 11
127.7913132980026
 21
124.497289126601
 31
0.0
  0
LINE
  5
3F0
330
E3
100
AcDbEntity
  8
0
  6
Continuous
100
AcDbLine
 10
127.7913132980026
 20
124.497289126601
 30
0.0
 11
127.7647574800094
 21
124.491854683022
 31
0.0
  0
LINE
  5
3F1
330
E3
100
AcDbEntity
  8
0
  6
Continuous
100
AcDbLine
 10
127.7647574800094
 20
124.491854683022
 30
0.0
 11
127.7352893958133
 21
124.4864202394429
 31
0.0
  0
LINE
  5
3F2
330
E3
100
AcDbEntity
  8
0
  6
Continuous
100
AcDbLine
 10
127.7352893958133
 20
124.4864202394429
 30
0.0
 11
127.7031294009348
 21
124.4809828180866
 31
0.0
  0
LINE
  5
3F3
330
E3
100
AcDbEntity
  8
0
  6
Continuous
100
AcDbLine
 10
127.7031294009348
 20
124.4809828180866
 30
0.0
 11
127.6685246508901
 21
124.4755483745076
 31
0.0
  0
LINE
  5
3F4
330
E3
100
AcDbEntity
  8
0
  6
Continuous
100
AcDbLine
 10
127.6685246508901
 20
124.4755483745076
 30
0.0
 11
127.6317371900819
 21
124.4701139309286
 31
0.0
  0
LINE
  5
3F5
330
E3
100
AcDbEntity
  8
0
  6
Continuous
100
AcDbLine
 10
127.6317371900819
 20
124.4701139309286
 30
0.0
 11
127.5930439517993
 21
124.4646794873496
 31
0.0
  0
LINE
  5
3F6
330
E3
100
AcDbEntity
  8
0
  6
Continuous
100
AcDbLine
 10
127.5930439517993
 20
124.4646794873496
 30
0.0
 11
127.5527456915502
 21
124.4592450437706
 31
0.0
  0
LINE
  5
3F7
330
E3
100
AcDbEntity
  8
0
  6
Continuous
100
AcDbLine
 10
127.5527456915502
 20
124.4592450437706
 30
0.0
 11
127.5111461426194
 21
124.4538106001916
 31
0.0
  0
LINE
  5
3F8
330
E3
100
AcDbEntity
  8
0
  6
Continuous
100
AcDbLine
 10
127.5111461426194
 20
124.4538106001916
 30
0.0
 11
127.4685609494011
 21
124.4483761566126
 31
0.0
  0
LINE
  5
3F9
330
E3
100
AcDbEntity
  8
0
  6
Continuous
100
AcDbLine
 10
127.4685609494011
 20
124.4483761566126
 30
0.0
 11
127.4253146896215
 21
124.4429417130336
 31
0.0
  0
LINE
  5
3FA
330
E3
100
AcDbEntity
  8
0
  6
Continuous
100
AcDbLine
 10
127.4253146896215
 20
124.4429417130336
 30
0.0
 11
127.3817349187838
 21
124.4375072694546
 31
0.0
  0
LINE
  5
3FB
330
E3
100
AcDbEntity
  8
0
  6
Continuous
100
AcDbLine
 10
127.3817349187838
 20
124.4375072694546
 30
0.0
 11
127.3381581257235
 21
124.4320698480983
 31
0.0
  0
LINE
  5
3FC
330
E3
100
AcDbEntity
  8
0
  6
Continuous
100
AcDbLine
 10
127.3381581257235
 20
124.4320698480983
 30
0.0
 11
127.2949118659438
 21
124.4266354045193
 31
0.0
  0
LINE
  5
3FD
330
E3
100
AcDbEntity
  8
0
  6
Continuous
100
AcDbLine
 10
127.2949118659438
 20
124.4266354045193
 30
0.0
 11
127.2523266727255
 21
124.4212009609403
 31
0.0
  0
LINE
  5
3FE
330
E3
100
AcDbEntity
  8
0
  6
Continuous
100
AcDbLine
 10
127.2523266727255
 20
124.4212009609403
 30
0.0
 11
127.2107271237947
 21
124.4157665173613
 31
0.0
  0
LINE
  5
3FF
330
E3
100
AcDbEntity
  8
0
  6
Continuous
100
AcDbLine
 10
127.2107271237947
 20
124.4157665173613
 30
0.0
 11
127.1704258857683
 21
124.4103320737823
 31
0.0
  0
LINE
  5
400
330
E3
100
AcDbEntity
  8
0
  6
Continuous
100
AcDbLine
 10
127.1704258857683
 20
124.4103320737823
 30
0.0
 11
127.1317356252631
 21
124.4048976302033
 31
0.0
  0
LINE
  5
401
330
E3
100
AcDbEntity
  8
0
  6
Continuous
100
AcDbLine
 10
127.1317356252631
 20
124.4048976302033
 30
0.0
 11
127.0949481644548
 21
124.3994631866243
 31
0.0
  0
LINE
  5
402
330
E3
100
AcDbEntity
  8
0
  6
Continuous
100
AcDbLine
 10
127.0949481644548
 20
124.3994631866243
 30
0.0
 11
127.0603434144101
 21
124.3940287430453
 31
0.0
  0
LINE
  5
403
330
E3
100
AcDbEntity
  8
0
  6
Continuous
100
AcDbLine
 10
127.0603434144101
 20
124.3940287430453
 30
0.0
 11
127.0281834195316
 21
124.3885942994662
 31
0.0
  0
LINE
  5
404
330
E3
100
AcDbEntity
  8
0
  6
Continuous
100
AcDbLine
 10
127.0281834195316
 20
124.3885942994662
 30
0.0
 11
126.9987153353355
 21
124.3831568781099
 31
0.0
  0
LINE
  5
405
330
E3
100
AcDbEntity
  8
0
  6
Continuous
100
AcDbLine
 10
126.9987153353355
 20
124.3831568781099
 30
0.0
 11
126.9721595173424
 21
124.377722434531
 31
0.0
  0
LINE
  5
406
330
E3
100
AcDbEntity
  8
0
  6
Continuous
100
AcDbLine
 10
126.9721595173424
 20
124.377722434531
 30
0.0
 11
126.9487244099633
 21
124.3722879909519
 31
0.0
  0
LINE
  5
407
330
E3
100
AcDbEntity
  8
0
  6
Continuous
100
AcDbLine
 10
126.9487244099633
 20
124.3722879909519
 30
0.0
 11
126.928582724282
 21
124.3668535473729
 31
0.0
  0
LINE
  5
408
330
E3
100
AcDbEntity
  8
0
  6
Continuous
100
AcDbLine
 10
126.928582724282
 20
124.3668535473729
 30
0.0
 11
126.9118893047182
 21
124.3614191037939
 31
0.0
  0
LINE
  5
409
330
E3
100
AcDbEntity
  8
0
  6
Continuous
100
AcDbLine
 10
126.9118893047182
 20
124.3614191037939
 30
0.0
 11
126.898772195696
 21
124.3559846602149
 31
0.0
  0
LINE
  5
40A
330
E3
100
AcDbEntity
  8
0
  6
Continuous
100
AcDbLine
 10
126.898772195696
 20
124.3559846602149
 30
0.0
 11
126.8893326416437
 21
124.3505502166359
 31
0.0
  0
LINE
  5
40B
330
E3
100
AcDbEntity
  8
0
  6
Continuous
100
AcDbLine
 10
126.8893326416437
 20
124.3505502166359
 30
0.0
 11
126.8836388695853
 21
124.345114728875
 31
0.0
  0
LINE
  5
40C
330
E3
100
AcDbEntity
  8
0
  6
Continuous
100
AcDbLine
 10
126.8836388695853
 20
124.345114728875
 30
0.0
 11
126.8817362186312
 21
124.3396799462663
 31
0.0
  0
LINE
  5
40D
330
E3
100
AcDbEntity
  8
0
  6
Continuous
100
AcDbLine
 10
127.8817362186311
 20
124.1440277723533
 30
0.0
 11
127.879833567677
 21
124.1385929897446
 31
0.0
  0
LINE
  5
40E
330
E3
100
AcDbEntity
  8
0
  6
Continuous
100
AcDbLine
 10
127.879833567677
 20
124.1385929897446
 30
0.0
 11
127.8741400951373
 21
124.1331582071359
 31
0.0
  0
LINE
  5
40F
330
E3
100
AcDbEntity
  8
0
  6
Continuous
100
AcDbLine
 10
127.8741400951373
 20
124.1331582071359
 30
0.0
 11
127.8647006196489
 21
124.1277231410102
 31
0.0
  0
LINE
  5
410
330
E3
100
AcDbEntity
  8
0
  6
Continuous
100
AcDbLine
 10
127.8647006196489
 20
124.1277231410102
 30
0.0
 11
127.8515835106267
 21
124.1222886974312
 31
0.0
  0
LINE
  5
411
330
E3
100
AcDbEntity
  8
0
  6
Continuous
100
AcDbLine
 10
127.8515835106267
 20
124.1222886974312
 30
0.0
 11
127.8348900910629
 21
124.1168542538522
 31
0.0
  0
LINE
  5
412
330
E3
100
AcDbEntity
  8
0
  6
Continuous
100
AcDbLine
 10
127.8348900910629
 20
124.1168542538522
 30
0.0
 11
127.8147484053816
 21
124.1114198102732
 31
0.0
  0
LINE
  5
413
330
E3
100
AcDbEntity
  8
0
  6
Continuous
100
AcDbLine
 10
127.8147484053816
 20
124.1114198102732
 30
0.0
 11
127.7913132980026
 21
124.1059853666942
 31
0.0
  0
LINE
  5
414
330
E3
100
AcDbEntity
  8
0
  6
Continuous
100
AcDbLine
 10
127.7913132980026
 20
124.1059853666942
 30
0.0
 11
127.7647574800094
 21
124.1005509231152
 31
0.0
  0
LINE
  5
415
330
E3
100
AcDbEntity
  8
0
  6
Continuous
100
AcDbLine
 10
127.7647574800094
 20
124.1005509231152
 30
0.0
 11
127.7352893958133
 21
124.0951135017589
 31
0.0
  0
LINE
  5
416
330
E3
100
AcDbEntity
  8
0
  6
Continuous
100
AcDbLine
 10
127.7352893958133
 20
124.0951135017589
 30
0.0
 11
127.7031294009348
 21
124.0896790581799
 31
0.0
  0
LINE
  5
417
330
E3
100
AcDbEntity
  8
0
  6
Continuous
100
AcDbLine
 10
127.7031294009348
 20
124.0896790581799
 30
0.0
 11
127.6685246508901
 21
124.0842446146009
 31
0.0
  0
LINE
  5
418
330
E3
100
AcDbEntity
  8
0
  6
Continuous
100
AcDbLine
 10
127.6685246508901
 20
124.0842446146009
 30
0.0
 11
127.6317371900819
 21
124.0788101710219
 31
0.0
  0
LINE
  5
419
330
E3
100
AcDbEntity
  8
0
  6
Continuous
100
AcDbLine
 10
127.6317371900819
 20
124.0788101710219
 30
0.0
 11
127.5930439517993
 21
124.0733757274428
 31
0.0
  0
LINE
  5
41A
330
E3
100
AcDbEntity
  8
0
  6
Continuous
100
AcDbLine
 10
127.5930439517993
 20
124.0733757274428
 30
0.0
 11
127.5527456915502
 21
124.0679412838638
 31
0.0
  0
LINE
  5
41B
330
E3
100
AcDbEntity
  8
0
  6
Continuous
100
AcDbLine
 10
127.5527456915502
 20
124.0679412838638
 30
0.0
 11
127.5111461426194
 21
124.0625068402848
 31
0.0
  0
LINE
  5
41C
330
E3
100
AcDbEntity
  8
0
  6
Continuous
100
AcDbLine
 10
127.5111461426194
 20
124.0625068402848
 30
0.0
 11
127.4685609494011
 21
124.0570723967058
 31
0.0
  0
LINE
  5
41D
330
E3
100
AcDbEntity
  8
0
  6
Continuous
100
AcDbLine
 10
127.4685609494011
 20
124.0570723967058
 30
0.0
 11
127.4253146896215
 21
124.0516379531268
 31
0.0
  0
LINE
  5
41E
330
E3
100
AcDbEntity
  8
0
  6
Continuous
100
AcDbLine
 10
127.4253146896215
 20
124.0516379531268
 30
0.0
 11
127.3817349187838
 21
124.0462005317705
 31
0.0
  0
LINE
  5
41F
330
E3
100
AcDbEntity
  8
0
  6
Continuous
100
AcDbLine
 10
127.3817349187838
 20
124.0462005317705
 30
0.0
 11
127.3381581257235
 21
124.0407660881915
 31
0.0
  0
LINE
  5
420
330
E3
100
AcDbEntity
  8
0
  6
Continuous
100
AcDbLine
 10
127.3381581257235
 20
124.0407660881915
 30
0.0
 11
127.2949118659438
 21
124.0353316446125
 31
0.0
  0
LINE
  5
421
330
E3
100
AcDbEntity
  8
0
  6
Continuous
100
AcDbLine
 10
127.2949118659438
 20
124.0353316446125
 30
0.0
 11
127.2523266727255
 21
124.0298972010335
 31
0.0
  0
LINE
  5
422
330
E3
100
AcDbEntity
  8
0
  6
Continuous
100
AcDbLine
 10
127.2523266727255
 20
124.0298972010335
 30
0.0
 11
127.2107271237947
 21
124.0244627574545
 31
0.0
  0
LINE
  5
423
330
E3
100
AcDbEntity
  8
0
  6
Continuous
100
AcDbLine
 10
127.2107271237947
 20
124.0244627574545
 30
0.0
 11
127.1704258857683
 21
124.0190283138755
 31
0.0
  0
LINE
  5
424
330
E3
100
AcDbEntity
  8
0
  6
Continuous
100
AcDbLine
 10
127.1704258857683
 20
124.0190283138755
 30
0.0
 11
127.1317356252631
 21
124.0135938702965
 31
0.0
  0
LINE
  5
425
330
E3
100
AcDbEntity
  8
0
  6
Continuous
100
AcDbLine
 10
127.1317356252631
 20
124.0135938702965
 30
0.0
 11
127.0949481644548
 21
124.0081594267175
 31
0.0
  0
LINE
  5
426
330
E3
100
AcDbEntity
  8
0
  6
Continuous
100
AcDbLine
 10
127.0949481644548
 20
124.0081594267175
 30
0.0
 11
127.0603434144101
 21
124.0027220053612
 31
0.0
  0
LINE
  5
427
330
E3
100
AcDbEntity
  8
0
  6
Continuous
100
AcDbLine
 10
127.0603434144101
 20
124.0027220053612
 30
0.0
 11
127.0281834195316
 21
123.9972875617822
 31
0.0
  0
LINE
  5
428
330
E3
100
AcDbEntity
  8
0
  6
Continuous
100
AcDbLine
 10
127.0281834195316
 20
123.9972875617822
 30
0.0
 11
126.9987153353355
 21
123.9918531182032
 31
0.0
  0
LINE
  5
429
330
E3
100
AcDbEntity
  8
0
  6
Continuous
100
AcDbLine
 10
126.9987153353355
 20
123.9918531182032
 30
0.0
 11
126.9721595173424
 21
123.9864186746242
 31
0.0
  0
LINE
  5
42A
330
E3
100
AcDbEntity
  8
0
  6
Continuous
100
AcDbLine
 10
126.9721595173424
 20
123.9864186746242
 30
0.0
 11
126.9487244099633
 21
123.9809842310452
 31
0.0
  0
LINE
  5
42B
330
E3
100
AcDbEntity
  8
0
  6
Continuous
100
AcDbLine
 10
126.9487244099633
 20
123.9809842310452
 30
0.0
 11
126.928582724282
 21
123.9755497874661
 31
0.0
  0
LINE
  5
42C
330
E3
100
AcDbEntity
  8
0
  6
Continuous
100
AcDbLine
 10
126.928582724282
 20
123.9755497874661
 30
0.0
 11
126.9118893047182
 21
123.9701153438871
 31
0.0
  0
LINE
  5
42D
330
E3
100
AcDbEntity
  8
0
  6
Continuous
100
AcDbLine
 10
126.9118893047182
 20
123.9701153438871
 30
0.0
 11
126.898772195696
 21
123.9646809003081
 31
0.0
  0
LINE
  5
42E
330
E3
100
AcDbEntity
  8
0
  6
Continuous
100
AcDbLine
 10
126.898772195696
 20
123.9646809003081
 30
0.0
 11
126.8893326416437
 21
123.9592464567291
 31
0.0
  0
LINE
  5
42F
330
E3
100
AcDbEntity
  8
0
  6
Continuous
100
AcDbLine
 10
126.8893326416437
 20
123.9592464567291
 30
0.0
 11
126.8836388695853
 21
123.9538103810489
 31
0.0
  0
LINE
  5
430
330
E3
100
AcDbEntity
  8
0
  6
Continuous
100
AcDbLine
 10
126.8836388695853
 20
123.9538103810489
 30
0.0
 11
126.8817362186312
 21
123.9483755984402
 31
0.0
  0
LINE
  5
431
330
E3
100
AcDbEntity
  8
0
  6
Continuous
100
AcDbLine
 10
127.8817362186311
 20
123.7527234245272
 30
0.0
 11
127.879833567677
 21
123.7472886419185
 31
0.0
  0
LINE
  5
432
330
E3
100
AcDbEntity
  8
0
  6
Continuous
100
AcDbLine
 10
127.879833567677
 20
123.7472886419185
 30
0.0
 11
127.8741400951373
 21
123.7418538593098
 31
0.0
  0
LINE
  5
433
330
E3
100
AcDbEntity
  8
0
  6
Continuous
100
AcDbLine
 10
127.8741400951373
 20
123.7418538593098
 30
0.0
 11
127.8647006196489
 21
123.7364193811034
 31
0.0
  0
LINE
  5
434
330
E3
100
AcDbEntity
  8
0
  6
Continuous
100
AcDbLine
 10
127.8647006196489
 20
123.7364193811034
 30
0.0
 11
127.8515835106267
 21
123.7309849375244
 31
0.0
  0
LINE
  5
435
330
E3
100
AcDbEntity
  8
0
  6
Continuous
100
AcDbLine
 10
127.8515835106267
 20
123.7309849375244
 30
0.0
 11
127.8348900910629
 21
123.7255504939454
 31
0.0
  0
LINE
  5
436
330
E3
100
AcDbEntity
  8
0
  6
Continuous
100
AcDbLine
 10
127.8348900910629
 20
123.7255504939454
 30
0.0
 11
127.8147484053816
 21
123.7201160503664
 31
0.0
  0
LINE
  5
437
330
E3
100
AcDbEntity
  8
0
  6
Continuous
100
AcDbLine
 10
127.8147484053816
 20
123.7201160503664
 30
0.0
 11
127.7913132980026
 21
123.7146786290101
 31
0.0
  0
LINE
  5
438
330
E3
100
AcDbEntity
  8
0
  6
Continuous
100
AcDbLine
 10
127.7913132980026
 20
123.7146786290101
 30
0.0
 11
127.7647574800094
 21
123.7092441854311
 31
0.0
  0
LINE
  5
439
330
E3
100
AcDbEntity
  8
0
  6
Continuous
100
AcDbLine
 10
127.7647574800094
 20
123.7092441854311
 30
0.0
 11
127.7352893958133
 21
123.7038097418521
 31
0.0
  0
LINE
  5
43A
330
E3
100
AcDbEntity
  8
0
  6
Continuous
100
AcDbLine
 10
127.7352893958133
 20
123.7038097418521
 30
0.0
 11
127.7031294009348
 21
123.6983752982731
 31
0.0
  0
LINE
  5
43B
330
E3
100
AcDbEntity
  8
0
  6
Continuous
100
AcDbLine
 10
127.7031294009348
 20
123.6983752982731
 30
0.0
 11
127.6685246508901
 21
123.6929408546941
 31
0.0
  0
LINE
  5
43C
330
E3
100
AcDbEntity
  8
0
  6
Continuous
100
AcDbLine
 10
127.6685246508901
 20
123.6929408546941
 30
0.0
 11
127.6317371900819
 21
123.6875064111151
 31
0.0
  0
LINE
  5
43D
330
E3
100
AcDbEntity
  8
0
  6
Continuous
100
AcDbLine
 10
127.6317371900819
 20
123.6875064111151
 30
0.0
 11
127.5930439517993
 21
123.6820719675361
 31
0.0
  0
LINE
  5
43E
330
E3
100
AcDbEntity
  8
0
  6
Continuous
100
AcDbLine
 10
127.5930439517993
 20
123.6820719675361
 30
0.0
 11
127.5527456915502
 21
123.6766375239571
 31
0.0
  0
LINE
  5
43F
330
E3
100
AcDbEntity
  8
0
  6
Continuous
100
AcDbLine
 10
127.5527456915502
 20
123.6766375239571
 30
0.0
 11
127.5111461426194
 21
123.6712030803781
 31
0.0
  0
LINE
  5
440
330
E3
100
AcDbEntity
  8
0
  6
Continuous
100
AcDbLine
 10
127.5111461426194
 20
123.6712030803781
 30
0.0
 11
127.4685609494011
 21
123.6657656590217
 31
0.0
  0
LINE
  5
441
330
E3
100
AcDbEntity
  8
0
  6
Continuous
100
AcDbLine
 10
127.4685609494011
 20
123.6657656590217
 30
0.0
 11
127.4253146896215
 21
123.6603312154427
 31
0.0
  0
LINE
  5
442
330
E3
100
AcDbEntity
  8
0
  6
Continuous
100
AcDbLine
 10
127.4253146896215
 20
123.6603312154427
 30
0.0
 11
127.3817349187838
 21
123.6548967718637
 31
0.0
  0
LINE
  5
443
330
E3
100
AcDbEntity
  8
0
  6
Continuous
100
AcDbLine
 10
127.3817349187838
 20
123.6548967718637
 30
0.0
 11
127.3381581257235
 21
123.6494623282847
 31
0.0
  0
LINE
  5
444
330
E3
100
AcDbEntity
  8
0
  6
Continuous
100
AcDbLine
 10
127.3381581257235
 20
123.6494623282847
 30
0.0
 11
127.2949118659438
 21
123.6440278847057
 31
0.0
  0
LINE
  5
445
330
E3
100
AcDbEntity
  8
0
  6
Continuous
100
AcDbLine
 10
127.2949118659438
 20
123.6440278847057
 30
0.0
 11
127.2523266727255
 21
123.6385934411267
 31
0.0
  0
LINE
  5
446
330
E3
100
AcDbEntity
  8
0
  6
Continuous
100
AcDbLine
 10
127.2523266727255
 20
123.6385934411267
 30
0.0
 11
127.2107271237947
 21
123.6331589975477
 31
0.0
  0
LINE
  5
447
330
E3
100
AcDbEntity
  8
0
  6
Continuous
100
AcDbLine
 10
127.2107271237947
 20
123.6331589975477
 30
0.0
 11
127.1704258857683
 21
123.6277245539687
 31
0.0
  0
LINE
  5
448
330
E3
100
AcDbEntity
  8
0
  6
Continuous
100
AcDbLine
 10
127.1704258857683
 20
123.6277245539687
 30
0.0
 11
127.1317356252631
 21
123.6222901103897
 31
0.0
  0
LINE
  5
449
330
E3
100
AcDbEntity
  8
0
  6
Continuous
100
AcDbLine
 10
127.1317356252631
 20
123.6222901103897
 30
0.0
 11
127.0949481644548
 21
123.6168526890334
 31
0.0
  0
LINE
  5
44A
330
E3
100
AcDbEntity
  8
0
  6
Continuous
100
AcDbLine
 10
127.0949481644548
 20
123.6168526890334
 30
0.0
 11
127.0603434144101
 21
123.6114182454544
 31
0.0
  0
LINE
  5
44B
330
E3
100
AcDbEntity
  8
0
  6
Continuous
100
AcDbLine
 10
127.0603434144101
 20
123.6114182454544
 30
0.0
 11
127.0281834195316
 21
123.6059838018754
 31
0.0
  0
LINE
  5
44C
330
E3
100
AcDbEntity
  8
0
  6
Continuous
100
AcDbLine
 10
127.0281834195316
 20
123.6059838018754
 30
0.0
 11
126.9987153353355
 21
123.6005493582964
 31
0.0
  0
LINE
  5
44D
330
E3
100
AcDbEntity
  8
0
  6
Continuous
100
AcDbLine
 10
126.9987153353355
 20
123.6005493582964
 30
0.0
 11
126.9721595173424
 21
123.5951149147174
 31
0.0
  0
LINE
  5
44E
330
E3
100
AcDbEntity
  8
0
  6
Continuous
100
AcDbLine
 10
126.9721595173424
 20
123.5951149147174
 30
0.0
 11
126.9487244099633
 21
123.5896804711384
 31
0.0
  0
LINE
  5
44F
330
E3
100
AcDbEntity
  8
0
  6
Continuous
100
AcDbLine
 10
126.9487244099633
 20
123.5896804711384
 30
0.0
 11
126.928582724282
 21
123.5842460275594
 31
0.0
  0
LINE
  5
450
330
E3
100
AcDbEntity
  8
0
  6
Continuous
100
AcDbLine
 10
126.928582724282
 20
123.5842460275594
 30
0.0
 11
126.9118893047182
 21
123.5788115839804
 31
0.0
  0
LINE
  5
451
330
E3
100
AcDbEntity
  8
0
  6
Continuous
100
AcDbLine
 10
126.9118893047182
 20
123.5788115839804
 30
0.0
 11
126.898772195696
 21
123.5733741626241
 31
0.0
  0
LINE
  5
452
330
E3
100
AcDbEntity
  8
0
  6
Continuous
100
AcDbLine
 10
126.898772195696
 20
123.5733741626241
 30
0.0
 11
126.8893326416437
 21
123.5679397190451
 31
0.0
  0
LINE
  5
453
330
E3
100
AcDbEntity
  8
0
  6
Continuous
100
AcDbLine
 10
126.8893326416437
 20
123.5679397190451
 30
0.0
 11
126.8836388695853
 21
123.5625060332228
 31
0.0
  0
LINE
  5
454
330
E3
100
AcDbEntity
  8
0
  6
Continuous
100
AcDbLine
 10
126.8836388695853
 20
123.5625060332228
 30
0.0
 11
126.8817362186312
 21
123.5570712506141
 31
0.0
  0
LINE
  5
455
330
E3
100
AcDbEntity
  8
0
  6
Continuous
100
AcDbLine
 10
127.8817362186311
 20
123.3614190767011
 30
0.0
 11
127.879833567677
 21
123.3559842940924
 31
0.0
  0
LINE
  5
456
330
E3
100
AcDbEntity
  8
0
  6
Continuous
100
AcDbLine
 10
127.879833567677
 20
123.3559842940924
 30
0.0
 11
127.8741400951373
 21
123.3505495114837
 31
0.0
  0
LINE
  5
457
330
E3
100
AcDbEntity
  8
0
  6
Continuous
100
AcDbLine
 10
127.8741400951373
 20
123.3505495114837
 30
0.0
 11
127.8647006196489
 21
123.3451156211966
 31
0.0
  0
LINE
  5
458
330
E3
100
AcDbEntity
  8
0
  6
Continuous
100
AcDbLine
 10
127.8647006196489
 20
123.3451156211966
 30
0.0
 11
127.8515835106267
 21
123.3396811776176
 31
0.0
  0
LINE
  5
459
330
E3
100
AcDbEntity
  8
0
  6
Continuous
100
AcDbLine
 10
127.8515835106267
 20
123.3396811776176
 30
0.0
 11
127.8348900910629
 21
123.3342437562613
 31
0.0
  0
LINE
  5
45A
330
E3
100
AcDbEntity
  8
0
  6
Continuous
100
AcDbLine
 10
127.8348900910629
 20
123.3342437562613
 30
0.0
 11
127.8147484053816
 21
123.3288093126823
 31
0.0
  0
LINE
  5
45B
330
E3
100
AcDbEntity
  8
0
  6
Continuous
100
AcDbLine
 10
127.8147484053816
 20
123.3288093126823
 30
0.0
 11
127.7913132980026
 21
123.3233748691033
 31
0.0
  0
LINE
  5
45C
330
E3
100
AcDbEntity
  8
0
  6
Continuous
100
AcDbLine
 10
127.7913132980026
 20
123.3233748691033
 30
0.0
 11
127.7647574800094
 21
123.3179404255243
 31
0.0
  0
LINE
  5
45D
330
E3
100
AcDbEntity
  8
0
  6
Continuous
100
AcDbLine
 10
127.7647574800094
 20
123.3179404255243
 30
0.0
 11
127.7352893958133
 21
123.3125059819453
 31
0.0
  0
LINE
  5
45E
330
E3
100
AcDbEntity
  8
0
  6
Continuous
100
AcDbLine
 10
127.7352893958133
 20
123.3125059819453
 30
0.0
 11
127.7031294009348
 21
123.3070715383663
 31
0.0
  0
LINE
  5
45F
330
E3
100
AcDbEntity
  8
0
  6
Continuous
100
AcDbLine
 10
127.7031294009348
 20
123.3070715383663
 30
0.0
 11
127.6685246508901
 21
123.3016370947873
 31
0.0
  0
LINE
  5
460
330
E3
100
AcDbEntity
  8
0
  6
Continuous
100
AcDbLine
 10
127.6685246508901
 20
123.3016370947873
 30
0.0
 11
127.6317371900819
 21
123.2962026512083
 31
0.0
  0
LINE
  5
461
330
E3
100
AcDbEntity
  8
0
  6
Continuous
100
AcDbLine
 10
127.6317371900819
 20
123.2962026512083
 30
0.0
 11
127.5930439517993
 21
123.2907682076293
 31
0.0
  0
LINE
  5
462
330
E3
100
AcDbEntity
  8
0
  6
Continuous
100
AcDbLine
 10
127.5930439517993
 20
123.2907682076293
 30
0.0
 11
127.5527456915502
 21
123.285330786273
 31
0.0
  0
LINE
  5
463
330
E3
100
AcDbEntity
  8
0
  6
Continuous
100
AcDbLine
 10
127.5527456915502
 20
123.285330786273
 30
0.0
 11
127.5111461426194
 21
123.279896342694
 31
0.0
  0
LINE
  5
464
330
E3
100
AcDbEntity
  8
0
  6
Continuous
100
AcDbLine
 10
127.5111461426194
 20
123.279896342694
 30
0.0
 11
127.4685609494011
 21
123.274461899115
 31
0.0
  0
LINE
  5
465
330
E3
100
AcDbEntity
  8
0
  6
Continuous
100
AcDbLine
 10
127.4685609494011
 20
123.274461899115
 30
0.0
 11
127.4253146896215
 21
123.269027455536
 31
0.0
  0
LINE
  5
466
330
E3
100
AcDbEntity
  8
0
  6
Continuous
100
AcDbLine
 10
127.4253146896215
 20
123.269027455536
 30
0.0
 11
127.3817349187838
 21
123.263593011957
 31
0.0
  0
LINE
  5
467
330
E3
100
AcDbEntity
  8
0
  6
Continuous
100
AcDbLine
 10
127.3817349187838
 20
123.263593011957
 30
0.0
 11
127.3381581257235
 21
123.258158568378
 31
0.0
  0
LINE
  5
468
330
E3
100
AcDbEntity
  8
0
  6
Continuous
100
AcDbLine
 10
127.3381581257235
 20
123.258158568378
 30
0.0
 11
127.2949118659438
 21
123.2527241247989
 31
0.0
  0
LINE
  5
469
330
E3
100
AcDbEntity
  8
0
  6
Continuous
100
AcDbLine
 10
127.2949118659438
 20
123.2527241247989
 30
0.0
 11
127.2523266727255
 21
123.2472896812199
 31
0.0
  0
LINE
  5
46A
330
E3
100
AcDbEntity
  8
0
  6
Continuous
100
AcDbLine
 10
127.2523266727255
 20
123.2472896812199
 30
0.0
 11
127.2107271237947
 21
123.2418552376409
 31
0.0
  0
LINE
  5
46B
330
E3
100
AcDbEntity
  8
0
  6
Continuous
100
AcDbLine
 10
127.2107271237947
 20
123.2418552376409
 30
0.0
 11
127.1704258857683
 21
123.2364178162846
 31
0.0
  0
LINE
  5
46C
330
E3
100
AcDbEntity
  8
0
  6
Continuous
100
AcDbLine
 10
127.1704258857683
 20
123.2364178162846
 30
0.0
 11
127.1317356252631
 21
123.2309833727056
 31
0.0
  0
LINE
  5
46D
330
E3
100
AcDbEntity
  8
0
  6
Continuous
100
AcDbLine
 10
127.1317356252631
 20
123.2309833727056
 30
0.0
 11
127.0949481644548
 21
123.2255489291266
 31
0.0
  0
LINE
  5
46E
330
E3
100
AcDbEntity
  8
0
  6
Continuous
100
AcDbLine
 10
127.0949481644548
 20
123.2255489291266
 30
0.0
 11
127.0603434144101
 21
123.2201144855476
 31
0.0
  0
LINE
  5
46F
330
E3
100
AcDbEntity
  8
0
  6
Continuous
100
AcDbLine
 10
127.0603434144101
 20
123.2201144855476
 30
0.0
 11
127.0281834195316
 21
123.2146800419686
 31
0.0
  0
LINE
  5
470
330
E3
100
AcDbEntity
  8
0
  6
Continuous
100
AcDbLine
 10
127.0281834195316
 20
123.2146800419686
 30
0.0
 11
126.9987153353355
 21
123.2092455983896
 31
0.0
  0
LINE
  5
471
330
E3
100
AcDbEntity
  8
0
  6
Continuous
100
AcDbLine
 10
126.9987153353355
 20
123.2092455983896
 30
0.0
 11
126.9721595173424
 21
123.2038111548106
 31
0.0
  0
LINE
  5
472
330
E3
100
AcDbEntity
  8
0
  6
Continuous
100
AcDbLine
 10
126.9721595173424
 20
123.2038111548106
 30
0.0
 11
126.9487244099633
 21
123.1983767112316
 31
0.0
  0
LINE
  5
473
330
E3
100
AcDbEntity
  8
0
  6
Continuous
100
AcDbLine
 10
126.9487244099633
 20
123.1983767112316
 30
0.0
 11
126.928582724282
 21
123.1929422676526
 31
0.0
  0
LINE
  5
474
330
E3
100
AcDbEntity
  8
0
  6
Continuous
100
AcDbLine
 10
126.928582724282
 20
123.1929422676526
 30
0.0
 11
126.9118893047182
 21
123.1875048462963
 31
0.0
  0
LINE
  5
475
330
E3
100
AcDbEntity
  8
0
  6
Continuous
100
AcDbLine
 10
126.9118893047182
 20
123.1875048462963
 30
0.0
 11
126.898772195696
 21
123.1820704027173
 31
0.0
  0
LINE
  5
476
330
E3
100
AcDbEntity
  8
0
  6
Continuous
100
AcDbLine
 10
126.898772195696
 20
123.1820704027173
 30
0.0
 11
126.8893326416437
 21
123.1766359591383
 31
0.0
  0
LINE
  5
477
330
E3
100
AcDbEntity
  8
0
  6
Continuous
100
AcDbLine
 10
126.8893326416437
 20
123.1766359591383
 30
0.0
 11
126.8836388695853
 21
123.1712016853968
 31
0.0
  0
LINE
  5
478
330
E3
100
AcDbEntity
  8
0
  6
Continuous
100
AcDbLine
 10
126.8836388695853
 20
123.1712016853968
 30
0.0
 11
126.8817362186312
 21
123.1657669027881
 31
0.0
  0
LINE
  5
479
330
E3
100
AcDbEntity
  8
0
  6
Continuous
100
AcDbLine
 10
127.8817362186311
 20
122.970114728875
 30
0.0
 11
127.879833567677
 21
122.9646799462663
 31
0.0
  0
LINE
  5
47A
330
E3
100
AcDbEntity
  8
0
  6
Continuous
100
AcDbLine
 10
127.879833567677
 20
122.9646799462663
 30
0.0
 11
127.8741400951373
 21
122.9592451636576
 31
0.0
  0
LINE
  5
47B
330
E3
100
AcDbEntity
  8
0
  6
Continuous
100
AcDbLine
 10
127.8741400951373
 20
122.9592451636576
 30
0.0
 11
127.8647006196489
 21
122.9538118612899
 31
0.0
  0
LINE
  5
47C
330
E3
100
AcDbEntity
  8
0
  6
Continuous
100
AcDbLine
 10
127.8647006196489
 20
122.9538118612899
 30
0.0
 11
127.8515835106267
 21
122.9483744399335
 31
0.0
  0
LINE
  5
47D
330
E3
100
AcDbEntity
  8
0
  6
Continuous
100
AcDbLine
 10
127.8515835106267
 20
122.9483744399335
 30
0.0
 11
127.8348900910629
 21
122.9429399963545
 31
0.0
  0
LINE
  5
47E
330
E3
100
AcDbEntity
  8
0
  6
Continuous
100
AcDbLine
 10
127.8348900910629
 20
122.9429399963545
 30
0.0
 11
127.8147484053816
 21
122.9375055527755
 31
0.0
  0
LINE
  5
47F
330
E3
100
AcDbEntity
  8
0
  6
Continuous
100
AcDbLine
 10
127.8147484053816
 20
122.9375055527755
 30
0.0
 11
127.7913132980026
 21
122.9320711091965
 31
0.0
  0
LINE
  5
480
330
E3
100
AcDbEntity
  8
0
  6
Continuous
100
AcDbLine
 10
127.7913132980026
 20
122.9320711091965
 30
0.0
 11
127.7647574800094
 21
122.9266366656175
 31
0.0
  0
LINE
  5
481
330
E3
100
AcDbEntity
  8
0
  6
Continuous
100
AcDbLine
 10
127.7647574800094
 20
122.9266366656175
 30
0.0
 11
127.7352893958133
 21
122.9212022220385
 31
0.0
  0
LINE
  5
482
330
E3
100
AcDbEntity
  8
0
  6
Continuous
100
AcDbLine
 10
127.7352893958133
 20
122.9212022220385
 30
0.0
 11
127.7031294009348
 21
122.9157677784595
 31
0.0
  0
LINE
  5
483
330
E3
100
AcDbEntity
  8
0
  6
Continuous
100
AcDbLine
 10
127.7031294009348
 20
122.9157677784595
 30
0.0
 11
127.6685246508901
 21
122.9103333348805
 31
0.0
  0
LINE
  5
484
330
E3
100
AcDbEntity
  8
0
  6
Continuous
100
AcDbLine
 10
127.6685246508901
 20
122.9103333348805
 30
0.0
 11
127.6317371900819
 21
122.9048959135242
 31
0.0
  0
LINE
  5
485
330
E3
100
AcDbEntity
  8
0
  6
Continuous
100
AcDbLine
 10
127.6317371900819
 20
122.9048959135242
 30
0.0
 11
127.5930439517993
 21
122.8994614699452
 31
0.0
  0
LINE
  5
486
330
E3
100
AcDbEntity
  8
0
  6
Continuous
100
AcDbLine
 10
127.5930439517993
 20
122.8994614699452
 30
0.0
 11
127.5527456915502
 21
122.8940270263662
 31
0.0
  0
LINE
  5
487
330
E3
100
AcDbEntity
  8
0
  6
Continuous
100
AcDbLine
 10
127.5527456915502
 20
122.8940270263662
 30
0.0
 11
127.5111461426194
 21
122.8885925827872
 31
0.0
  0
LINE
  5
488
330
E3
100
AcDbEntity
  8
0
  6
Continuous
100
AcDbLine
 10
127.5111461426194
 20
122.8885925827872
 30
0.0
 11
127.4685609494011
 21
122.8831581392082
 31
0.0
  0
LINE
  5
489
330
E3
100
AcDbEntity
  8
0
  6
Continuous
100
AcDbLine
 10
127.4685609494011
 20
122.8831581392082
 30
0.0
 11
127.4253146896215
 21
122.8777236956292
 31
0.0
  0
LINE
  5
48A
330
E3
100
AcDbEntity
  8
0
  6
Continuous
100
AcDbLine
 10
127.4253146896215
 20
122.8777236956292
 30
0.0
 11
127.3817349187838
 21
122.8722892520502
 31
0.0
  0
LINE
  5
48B
330
E3
100
AcDbEntity
  8
0
  6
Continuous
100
AcDbLine
 10
127.3817349187838
 20
122.8722892520502
 30
0.0
 11
127.3381581257235
 21
122.8668548084712
 31
0.0
  0
LINE
  5
48C
330
E3
100
AcDbEntity
  8
0
  6
Continuous
100
AcDbLine
 10
127.3381581257235
 20
122.8668548084712
 30
0.0
 11
127.2949118659438
 21
122.8614203648922
 31
0.0
  0
LINE
  5
48D
330
E3
100
AcDbEntity
  8
0
  6
Continuous
100
AcDbLine
 10
127.2949118659438
 20
122.8614203648922
 30
0.0
 11
127.2523266727255
 21
122.8559829435359
 31
0.0
  0
LINE
  5
48E
330
E3
100
AcDbEntity
  8
0
  6
Continuous
100
AcDbLine
 10
127.2523266727255
 20
122.8559829435359
 30
0.0
 11
127.2107271237947
 21
122.8505484999568
 31
0.0
  0
LINE
  5
48F
330
E3
100
AcDbEntity
  8
0
  6
Continuous
100
AcDbLine
 10
127.2107271237947
 20
122.8505484999568
 30
0.0
 11
127.1704258857683
 21
122.8451140563779
 31
0.0
  0
LINE
  5
490
330
E3
100
AcDbEntity
  8
0
  6
Continuous
100
AcDbLine
 10
127.1704258857683
 20
122.8451140563779
 30
0.0
 11
127.1317356252631
 21
122.8396796127988
 31
0.0
  0
LINE
  5
491
330
E3
100
AcDbEntity
  8
0
  6
Continuous
100
AcDbLine
 10
127.1317356252631
 20
122.8396796127988
 30
0.0
 11
127.0949481644548
 21
122.8342451692198
 31
0.0
  0
LINE
  5
492
330
E3
100
AcDbEntity
  8
0
  6
Continuous
100
AcDbLine
 10
127.0949481644548
 20
122.8342451692198
 30
0.0
 11
127.0603434144101
 21
122.8288107256408
 31
0.0
  0
LINE
  5
493
330
E3
100
AcDbEntity
  8
0
  6
Continuous
100
AcDbLine
 10
127.0603434144101
 20
122.8288107256408
 30
0.0
 11
127.0281834195316
 21
122.8233762820618
 31
0.0
  0
LINE
  5
494
330
E3
100
AcDbEntity
  8
0
  6
Continuous
100
AcDbLine
 10
127.0281834195316
 20
122.8233762820618
 30
0.0
 11
126.9987153353355
 21
122.8179418384828
 31
0.0
  0
LINE
  5
495
330
E3
100
AcDbEntity
  8
0
  6
Continuous
100
AcDbLine
 10
126.9987153353355
 20
122.8179418384828
 30
0.0
 11
126.9721595173424
 21
122.8125073949038
 31
0.0
  0
LINE
  5
496
330
E3
100
AcDbEntity
  8
0
  6
Continuous
100
AcDbLine
 10
126.9721595173424
 20
122.8125073949038
 30
0.0
 11
126.9487244099633
 21
122.8070699735475
 31
0.0
  0
LINE
  5
497
330
E3
100
AcDbEntity
  8
0
  6
Continuous
100
AcDbLine
 10
126.9487244099633
 20
122.8070699735475
 30
0.0
 11
126.928582724282
 21
122.8016355299685
 31
0.0
  0
LINE
  5
498
330
E3
100
AcDbEntity
  8
0
  6
Continuous
100
AcDbLine
 10
126.928582724282
 20
122.8016355299685
 30
0.0
 11
126.9118893047182
 21
122.7962010863895
 31
0.0
  0
LINE
  5
499
330
E3
100
AcDbEntity
  8
0
  6
Continuous
100
AcDbLine
 10
126.9118893047182
 20
122.7962010863895
 30
0.0
 11
126.898772195696
 21
122.7907666428105
 31
0.0
  0
LINE
  5
49A
330
E3
100
AcDbEntity
  8
0
  6
Continuous
100
AcDbLine
 10
126.898772195696
 20
122.7907666428105
 30
0.0
 11
126.8893326416437
 21
122.7853321992315
 31
0.0
  0
LINE
  5
49B
330
E3
100
AcDbEntity
  8
0
  6
Continuous
100
AcDbLine
 10
126.8893326416437
 20
122.7853321992315
 30
0.0
 11
126.8836388695853
 21
122.7798973375707
 31
0.0
  0
LINE
  5
49C
330
E3
100
AcDbEntity
  8
0
  6
Continuous
100
AcDbLine
 10
126.8836388695853
 20
122.7798973375707
 30
0.0
 11
126.8817362186312
 21
122.774462554962
 31
0.0
  0
LINE
  5
49D
330
E3
100
AcDbEntity
  8
0
  6
Continuous
100
AcDbLine
 10
127.8817362186311
 20
122.5788103810489
 30
0.0
 11
127.879833567677
 21
122.5733755984402
 31
0.0
  0
LINE
  5
49E
330
E3
100
AcDbEntity
  8
0
  6
Continuous
100
AcDbLine
 10
127.879833567677
 20
122.5733755984402
 30
0.0
 11
127.8741400951373
 21
122.5679408158315
 31
0.0
  0
LINE
  5
49F
330
E3
100
AcDbEntity
  8
0
  6
Continuous
100
AcDbLine
 10
127.8741400951373
 20
122.5679408158315
 30
0.0
 11
127.8647006196489
 21
122.5625051236058
 31
0.0
  0
LINE
  5
4A0
330
E3
100
AcDbEntity
  8
0
  6
Continuous
100
AcDbLine
 10
127.8647006196489
 20
122.5625051236058
 30
0.0
 11
127.8515835106267
 21
122.5570706800268
 31
0.0
  0
LINE
  5
4A1
330
E3
100
AcDbEntity
  8
0
  6
Continuous
100
AcDbLine
 10
127.8515835106267
 20
122.5570706800268
 30
0.0
 11
127.8348900910629
 21
122.5516362364478
 31
0.0
  0
LINE
  5
4A2
330
E3
100
AcDbEntity
  8
0
  6
Continuous
100
AcDbLine
 10
127.8348900910629
 20
122.5516362364478
 30
0.0
 11
127.8147484053816
 21
122.5462017928688
 31
0.0
  0
LINE
  5
4A3
330
E3
100
AcDbEntity
  8
0
  6
Continuous
100
AcDbLine
 10
127.8147484053816
 20
122.5462017928688
 30
0.0
 11
127.7913132980026
 21
122.5407673492898
 31
0.0
  0
LINE
  5
4A4
330
E3
100
AcDbEntity
  8
0
  6
Continuous
100
AcDbLine
 10
127.7913132980026
 20
122.5407673492898
 30
0.0
 11
127.7647574800094
 21
122.5353329057108
 31
0.0
  0
LINE
  5
4A5
330
E3
100
AcDbEntity
  8
0
  6
Continuous
100
AcDbLine
 10
127.7647574800094
 20
122.5353329057108
 30
0.0
 11
127.7352893958133
 21
122.5298984621318
 31
0.0
  0
LINE
  5
4A6
330
E3
100
AcDbEntity
  8
0
  6
Continuous
100
AcDbLine
 10
127.7352893958133
 20
122.5298984621318
 30
0.0
 11
127.7031294009348
 21
122.5244640185527
 31
0.0
  0
LINE
  5
4A7
330
E3
100
AcDbEntity
  8
0
  6
Continuous
100
AcDbLine
 10
127.7031294009348
 20
122.5244640185527
 30
0.0
 11
127.6685246508901
 21
122.5190265971964
 31
0.0
  0
LINE
  5
4A8
330
E3
100
AcDbEntity
  8
0
  6
Continuous
100
AcDbLine
 10
127.6685246508901
 20
122.5190265971964
 30
0.0
 11
127.6317371900819
 21
122.5135921536174
 31
0.0
  0
LINE
  5
4A9
330
E3
100
AcDbEntity
  8
0
  6
Continuous
100
AcDbLine
 10
127.6317371900819
 20
122.5135921536174
 30
0.0
 11
127.5930439517993
 21
122.5081577100384
 31
0.0
  0
LINE
  5
4AA
330
E3
100
AcDbEntity
  8
0
  6
Continuous
100
AcDbLine
 10
127.5930439517993
 20
122.5081577100384
 30
0.0
 11
127.5527456915502
 21
122.5027232664594
 31
0.0
  0
LINE
  5
4AB
330
E3
100
AcDbEntity
  8
0
  6
Continuous
100
AcDbLine
 10
127.5527456915502
 20
122.5027232664594
 30
0.0
 11
127.5111461426194
 21
122.4972888228804
 31
0.0
  0
LINE
  5
4AC
330
E3
100
AcDbEntity
  8
0
  6
Continuous
100
AcDbLine
 10
127.5111461426194
 20
122.4972888228804
 30
0.0
 11
127.4685609494011
 21
122.4918543793014
 31
0.0
  0
LINE
  5
4AD
330
E3
100
AcDbEntity
  8
0
  6
Continuous
100
AcDbLine
 10
127.4685609494011
 20
122.4918543793014
 30
0.0
 11
127.4253146896215
 21
122.4864199357224
 31
0.0
  0
LINE
  5
4AE
330
E3
100
AcDbEntity
  8
0
  6
Continuous
100
AcDbLine
 10
127.4253146896215
 20
122.4864199357224
 30
0.0
 11
127.3817349187838
 21
122.4809854921434
 31
0.0
  0
LINE
  5
4AF
330
E3
100
AcDbEntity
  8
0
  6
Continuous
100
AcDbLine
 10
127.3817349187838
 20
122.4809854921434
 30
0.0
 11
127.3381581257235
 21
122.4755480707871
 31
0.0
  0
LINE
  5
4B0
330
E3
100
AcDbEntity
  8
0
  6
Continuous
100
AcDbLine
 10
127.3381581257235
 20
122.4755480707871
 30
0.0
 11
127.2949118659438
 21
122.4701136272081
 31
0.0
  0
LINE
  5
4B1
330
E3
100
AcDbEntity
  8
0
  6
Continuous
100
AcDbLine
 10
127.2949118659438
 20
122.4701136272081
 30
0.0
 11
127.2523266727255
 21
122.4646791836291
 31
0.0
  0
LINE
  5
4B2
330
E3
100
AcDbEntity
  8
0
  6
Continuous
100
AcDbLine
 10
127.2523266727255
 20
122.4646791836291
 30
0.0
 11
127.2107271237947
 21
122.4592447400501
 31
0.0
  0
LINE
  5
4B3
330
E3
100
AcDbEntity
  8
0
  6
Continuous
100
AcDbLine
 10
127.2107271237947
 20
122.4592447400501
 30
0.0
 11
127.1704258857683
 21
122.4538102964711
 31
0.0
  0
LINE
  5
4B4
330
E3
100
AcDbEntity
  8
0
  6
Continuous
100
AcDbLine
 10
127.1704258857683
 20
122.4538102964711
 30
0.0
 11
127.1317356252631
 21
122.4483758528921
 31
0.0
  0
LINE
  5
4B5
330
E3
100
AcDbEntity
  8
0
  6
Continuous
100
AcDbLine
 10
127.1317356252631
 20
122.4483758528921
 30
0.0
 11
127.0949481644548
 21
122.4429414093131
 31
0.0
  0
LINE
  5
4B6
330
E3
100
AcDbEntity
  8
0
  6
Continuous
100
AcDbLine
 10
127.0949481644548
 20
122.4429414093131
 30
0.0
 11
127.0603434144101
 21
122.4375069657341
 31
0.0
  0
LINE
  5
4B7
330
E3
100
AcDbEntity
  8
0
  6
Continuous
100
AcDbLine
 10
127.0603434144101
 20
122.4375069657341
 30
0.0
 11
127.0281834195316
 21
122.432072522155
 31
0.0
  0
LINE
  5
4B8
330
E3
100
AcDbEntity
  8
0
  6
Continuous
100
AcDbLine
 10
127.0281834195316
 20
122.432072522155
 30
0.0
 11
126.9987153353355
 21
122.4266351007987
 31
0.0
  0
LINE
  5
4B9
330
E3
100
AcDbEntity
  8
0
  6
Continuous
100
AcDbLine
 10
126.9987153353355
 20
122.4266351007987
 30
0.0
 11
126.9721595173424
 21
122.4212006572197
 31
0.0
  0
LINE
  5
4BA
330
E3
100
AcDbEntity
  8
0
  6
Continuous
100
AcDbLine
 10
126.9721595173424
 20
122.4212006572197
 30
0.0
 11
126.9487244099633
 21
122.4157662136407
 31
0.0
  0
LINE
  5
4BB
330
E3
100
AcDbEntity
  8
0
  6
Continuous
100
AcDbLine
 10
126.9487244099633
 20
122.4157662136407
 30
0.0
 11
126.928582724282
 21
122.4103317700617
 31
0.0
  0
LINE
  5
4BC
330
E3
100
AcDbEntity
  8
0
  6
Continuous
100
AcDbLine
 10
126.928582724282
 20
122.4103317700617
 30
0.0
 11
126.9118893047182
 21
122.4048973264827
 31
0.0
  0
LINE
  5
4BD
330
E3
100
AcDbEntity
  8
0
  6
Continuous
100
AcDbLine
 10
126.9118893047182
 20
122.4048973264827
 30
0.0
 11
126.898772195696
 21
122.3994628829037
 31
0.0
  0
MTEXT
  5
4BE
330
E3
100
AcDbEntity
  8
Doc_ Floor
  6
Continuous
100
AcDbMText
 10
100.5528247465177
 20
117.0986402158567
 30
0.0
 40
2.5
 41
0.0
 71
     6
 72
     1
  1
{ROOF FIXING}
  7
GENERATED_STYLE_1
 73
     1
 44
1.0
  0
LINE
  5
4BF
330
E3
100
AcDbEntity
  8
Doc_ Floor
  6
Continuous
100
AcDbLine
 10
121.6962766241977
 20
120.5674419746545
 30
0.0
 11
118.4877483796028
 21
118.4148752507859
 31
0.0
  0
LINE
  5
4C0
330
E3
100
AcDbEntity
  8
Doc_ Floor
  6
Continuous
100
AcDbLine
 10
121.6962766241977
 20
120.5674419746545
 30
0.0
 11
117.8413265269905
 21
120.3075296604902
 31
0.0
  0
LINE
  5
4C1
330
E3
100
AcDbEntity
  8
Doc_ Floor
  6
Continuous
100
AcDbLine
 10
118.4877483796028
 20
118.4148752507859
 30
0.0
 11
117.8413265269905
 21
120.3075296604902
 31
0.0
  0
LWPOLYLINE
  5
4C2
330
E3
100
AcDbEntity
  8
Doc_ Floor
  6
Continuous
100
AcDbPolyline
 90
        5
 70
   128
 43
0.0
 10
118.1645364162677
 20
119.3612028493952
 10
114.255609476759
 20
118.311505371597
 10
110.3605713617633
 20
117.6178801861039
 10
106.2145878565824
 20
117.2349683209307
 10
101.5528247465178
 20
117.117410804092
  0
ENDBLK
  5
E5
330
E3
100
AcDbEntity
  8
0
100
AcDbBlockEnd
  0
BLOCK
  5
4C8
330
4C7
100
AcDbEntity
  8
0
100
AcDbBlockBegin
  2
R-TRS6-09 APRON DETAIL - SIDE_STORY_MARKER
 70
     0
 10
0.0
 20
0.0
 30
0.0
  3
R-TRS6-09 APRON DETAIL - SIDE_STORY_MARKER
  1

  0
ENDBLK
  5
4C9
330
4C7
100
AcDbEntity
  8
0
100
AcDbBlockEnd
  0
ENDSEC
  0
SECTION
  2
ENTITIES
  0
HATCH
  5
3F
330
1F
100
AcDbEntity
  8
Doc_ Finishes
  6
Continuous
100
AcDbHatch
 10
0.0
 20
0.0
 30
0.0
210
0.0
220
0.0
230
1.0
  2
SOLID
 70
     1
 71
     0
 91
        1
 92
        3
 72
     0
 73
     1
 93
       54
 10
27.4117749414874
 20
16.87044408857867
 10
26.89356552397386
 20
16.5825499677378
 10
26.5480925789648
 20
16.29465584689693
 10
26.12584786839819
 20
16.02595466744544
 10
25.76118198199976
 20
15.60370995687884
 10
25.39651609560134
 20
15.33500877742737
 10
25.07023609198168
 20
14.89357112547136
 10
24.49444785029994
 20
14.45213347351537
 10
23.93785255000758
 20
14.02988876294876
 10
23.43883607388344
 20
13.81876640766546
 10
22.74789018386533
 20
13.39652169709885
 10
22.09533017662603
 20
12.99346992792163
 10
21.63469958328064
 20
12.55203227596564
 10
20.90536781048376
 20
12.12978756539902
 10
20.59828074825351
 20
11.7459287376112
 10
20.04168544796116
 20
11.28529814426581
 10
19.36993249933246
 20
10.8630534336992
 10
18.73656543348255
 20
10.42161578174319
 10
18.04561954346447
 20
10.15291460229172
 10
17.1051654153843
 20
9.692284008946325
 10
16.39502658397681
 20
9.020531060317637
 10
15.83843128368446
 20
8.598286349751023
 10
15.12829245227699
 20
8.137655756405634
 10
14.84039833143612
 20
7.98411222529051
 10
14.37976773809073
 20
7.81137575278599
 10
14.07268067586046
 20
7.523481631945121
 10
14.0151018516923
 20
7.216394569714853
 10
14.14945244141803
 20
6.890114566095209
 10
14.4373465622589
 20
6.563834562475543
 10
14.8787842142149
 20
6.659799269422514
 10
15.51215128006482
 20
7.06285103859973
 10
16.01116775618899
 20
7.389131042219374
 10
16.33744775980864
 20
7.696218104449641
 10
16.51018423231316
 20
7.907340459732938
 10
17.01303929671522
 20
8.421711288968723
 10
17.33548071205699
 20
8.652026585641417
 10
17.75004824606785
 20
8.99749953065046
 10
18.14158425041142
 20
9.204783297655894
 10
19.24709767444037
 20
9.75754000967037
 10
20.23745345013295
 20
10.47151742935572
 10
21.4120614631637
 20
11.1624633193738
 10
21.84966052684182
 20
11.64612544238645
 10
22.49454335752537
 20
12.06069297639732
 10
23.78430901889248
 20
12.9819541630881
 10
24.3600972605742
 20
13.25833251909534
 10
25.6498629219413
 20
14.24868829478776
 10
25.85714668894673
 20
14.64022429913134
 10
26.68628175696843
 20
15.23904407048036
 10
27.28510152831745
 20
15.72270619349301
 10
27.81482671066464
 20
16.1142421978366
 10
28.27545730401003
 20
16.52880973184745
 10
28.22939424467549
 20
16.7821565581874
 10
28.09120506667188
 20
16.89731420652375
 10
27.56147988432467
 20
16.89731420652375
 97
        0
 75
     0
 76
     1
 98
        0
  0
LINE
  5
41
330
1F
100
AcDbEntity
  8
Doc_ Finishes
  6
Continuous
100
AcDbLine
 10
27.41177566876475
 20
16.87044600708104
 30
0.0
 11
26.89356756490952
 21
16.58254868214004
 31
0.0
  0
LINE
  5
42
330
1F
100
AcDbEntity
  8
Doc_ Finishes
  6
Continuous
100
AcDbLine
 10
26.89356756490952
 20
16.58254868214004
 30
0.0
 11
26.54809254523997
 21
16.29465578284815
 31
0.0
  0
LINE
  5
43
330
1F
100
AcDbEntity
  8
Doc_ Finishes
  6
Continuous
100
AcDbLine
 10
26.54809254523997
 20
16.29465578284815
 30
0.0
 11
26.12584579071597
 21
16.02595249803305
 31
0.0
  0
LINE
  5
44
330
1F
100
AcDbEntity
  8
Doc_ Finishes
  6
Continuous
100
AcDbLine
 10
26.12584579071597
 20
16.02595249803305
 30
0.0
 11
25.76118115656963
 21
15.60371016915814
 31
0.0
  0
LINE
  5
45
330
1F
100
AcDbEntity
  8
Doc_ Finishes
  6
Continuous
100
AcDbLine
 10
25.76118115656963
 20
15.60371016915814
 30
0.0
 11
25.39651652242329
 21
15.33500688434304
 31
0.0
  0
LINE
  5
46
330
1F
100
AcDbEntity
  8
Doc_ Finishes
  6
Continuous
100
AcDbLine
 10
25.39651652242329
 20
15.33500688434304
 30
0.0
 11
25.07023554287962
 21
14.89357051534225
 31
0.0
  0
LINE
  5
47
330
1F
100
AcDbEntity
  8
Doc_ Finishes
  6
Continuous
100
AcDbLine
 10
25.07023554287962
 20
14.89357051534225
 30
0.0
 11
24.49444974429583
 21
14.45213414634146
 31
0.0
  0
LINE
  5
48
330
1F
100
AcDbEntity
  8
Doc_ Finishes
  6
Continuous
100
AcDbLine
 10
24.49444974429583
 20
14.45213414634146
 30
0.0
 11
23.93785356018882
 21
14.02988739181747
 31
0.0
  0
LINE
  5
49
330
1F
100
AcDbEntity
  8
Doc_ Finishes
  6
Continuous
100
AcDbLine
 10
23.93785356018882
 20
14.02988739181747
 30
0.0
 11
23.43883507081038
 21
13.81876622738001
 31
0.0
  0
LINE
  5
4A
330
1F
100
AcDbEntity
  8
Doc_ Finishes
  6
Continuous
100
AcDbLine
 10
23.43883507081038
 20
13.81876622738001
 30
0.0
 11
22.74788945712038
 21
13.39652389850511
 31
0.0
  0
LINE
  5
4B
330
1F
100
AcDbEntity
  8
Doc_ Finishes
  6
Continuous
100
AcDbLine
 10
22.74788945712038
 20
13.39652389850511
 30
0.0
 11
22.09533192368214
 21
12.993471184107
 31
0.0
  0
LINE
  5
4C
330
1F
100
AcDbEntity
  8
Doc_ Finishes
  6
Continuous
100
AcDbLine
 10
22.09533192368214
 20
12.993471184107
 30
0.0
 11
21.63470151455547
 21
12.55203038945712
 31
0.0
  0
LINE
  5
4D
330
1F
100
AcDbEntity
  8
Doc_ Finishes
  6
Continuous
100
AcDbLine
 10
21.63470151455547
 20
12.55203038945712
 30
0.0
 11
20.90536782061369
 21
12.12978806058222
 31
0.0
  0
LINE
  5
4E
330
1F
100
AcDbEntity
  8
Doc_ Finishes
  6
Continuous
100
AcDbLine
 10
20.90536782061369
 20
12.12978806058222
 30
0.0
 11
20.59828088119591
 21
11.74592938630999
 31
0.0
  0
LINE
  5
4F
330
1F
100
AcDbEntity
  8
Doc_ Finishes
  6
Continuous
100
AcDbLine
 10
20.59828088119591
 20
11.74592938630999
 30
0.0
 11
20.0416846970889
 21
11.28529897718332
 31
0.0
  0
LINE
  5
50
330
1F
100
AcDbEntity
  8
Doc_ Finishes
  6
Continuous
100
AcDbLine
 10
20.0416846970889
 20
11.28529897718332
 30
0.0
 11
19.36993312352478
 21
10.86305222265932
 31
0.0
  0
LINE
  5
51
330
1F
100
AcDbEntity
  8
Doc_ Finishes
  6
Continuous
100
AcDbLine
 10
19.36993312352478
 20
10.86305222265932
 30
0.0
 11
18.73656520456333
 21
10.42161585365854
 31
0.0
  0
LINE
  5
52
330
1F
100
AcDbEntity
  8
Doc_ Finishes
  6
Continuous
100
AcDbLine
 10
18.73656520456333
 20
10.42161585365854
 30
0.0
 11
18.04561959087333
 21
10.15291256884343
 31
0.0
  0
LINE
  5
53
330
1F
100
AcDbEntity
  8
Doc_ Finishes
  6
Continuous
100
AcDbLine
 10
18.04561959087333
 20
10.15291256884343
 30
0.0
 11
17.1051647324941
 21
9.692282159716758
 31
0.0
  0
LINE
  5
54
330
1F
100
AcDbEntity
  8
Doc_ Finishes
  6
Continuous
100
AcDbLine
 10
17.1051647324941
 20
9.692282159716758
 30
0.0
 11
16.3950250786782
 21
9.020530586152635
 31
0.0
  0
LINE
  5
55
330
1F
100
AcDbEntity
  8
Doc_ Finishes
  6
Continuous
100
AcDbLine
 10
16.3950250786782
 20
9.020530586152635
 30
0.0
 11
15.8384333202203
 21
8.598288257277733
 31
0.0
  0
LINE
  5
56
330
1F
100
AcDbEntity
  8
Doc_ Finishes
  6
Continuous
100
AcDbLine
 10
15.8384333202203
 20
8.598288257277733
 30
0.0
 11
15.1282936664044
 21
8.137657848151063
 31
0.0
  0
LINE
  5
57
330
1F
100
AcDbEntity
  8
Doc_ Finishes
  6
Continuous
100
AcDbLine
 10
15.1282936664044
 20
8.137657848151063
 30
0.0
 11
14.84039634146341
 21
7.984114378442171
 31
0.0
  0
LINE
  5
58
330
1F
100
AcDbEntity
  8
Doc_ Finishes
  6
Continuous
100
AcDbLine
 10
14.84039634146341
 20
7.984114378442171
 30
0.0
 11
14.37976593233674
 21
7.811376868607396
 31
0.0
  0
LINE
  5
59
330
1F
100
AcDbEntity
  8
Doc_ Finishes
  6
Continuous
100
AcDbLine
 10
14.37976593233674
 20
7.811376868607396
 30
0.0
 11
14.07267899291896
 21
7.523479543666405
 31
0.0
  0
LINE
  5
5A
330
1F
100
AcDbEntity
  8
Doc_ Finishes
  6
Continuous
100
AcDbLine
 10
14.07267899291896
 20
7.523479543666405
 30
0.0
 11
14.0151012981904
 21
7.216392604248622
 31
0.0
  0
LINE
  5
5B
330
1F
100
AcDbEntity
  8
Doc_ Finishes
  6
Continuous
100
AcDbLine
 10
14.0151012981904
 20
7.216392604248622
 30
0.0
 11
14.14945072777341
 21
6.890116050354051
 31
0.0
  0
LINE
  5
5C
330
1F
100
AcDbEntity
  8
Doc_ Finishes
  6
Continuous
100
AcDbLine
 10
14.14945072777341
 20
6.890116050354051
 30
0.0
 11
14.4373480527144
 21
6.563835070810386
 31
0.0
  0
LINE
  5
5D
330
1F
100
AcDbEntity
  8
Doc_ Finishes
  6
Continuous
100
AcDbLine
 10
14.4373480527144
 20
6.563835070810386
 30
0.0
 11
14.87878442171519
 21
6.659800845790715
 31
0.0
  0
LINE
  5
5E
330
1F
100
AcDbEntity
  8
Doc_ Finishes
  6
Continuous
100
AcDbLine
 10
14.87878442171519
 20
6.659800845790715
 30
0.0
 11
15.51215234067663
 21
7.062849134539732
 31
0.0
  0
LINE
  5
5F
330
1F
100
AcDbEntity
  8
Doc_ Finishes
  6
Continuous
100
AcDbLine
 10
15.51215234067663
 20
7.062849134539732
 30
0.0
 11
16.01116640440598
 21
7.389130114083398
 31
0.0
  0
LINE
  5
60
330
1F
100
AcDbEntity
  8
Doc_ Finishes
  6
Continuous
100
AcDbLine
 10
16.01116640440598
 20
7.389130114083398
 30
0.0
 11
16.33744738394964
 21
7.69621705350118
 31
0.0
  0
LINE
  5
61
330
1F
100
AcDbEntity
  8
Doc_ Finishes
  6
Continuous
100
AcDbLine
 10
16.33744738394964
 20
7.69621705350118
 30
0.0
 11
16.51018489378442
 21
7.907342643587726
 31
0.0
  0
LINE
  5
62
330
1F
100
AcDbEntity
  8
Doc_ Finishes
  6
Continuous
100
AcDbLine
 10
16.51018489378442
 20
7.907342643587726
 30
0.0
 11
17.0130404209284
 21
8.421709284028323
 31
0.0
  0
LINE
  5
63
330
1F
100
AcDbEntity
  8
Doc_ Finishes
  6
Continuous
100
AcDbLine
 10
17.0130404209284
 20
8.421709284028323
 30
0.0
 11
17.33547993705743
 21
8.65202448859166
 31
0.0
  0
LINE
  5
64
330
1F
100
AcDbEntity
  8
Doc_ Finishes
  6
Continuous
100
AcDbLine
 10
17.33547993705743
 20
8.65202448859166
 30
0.0
 11
17.75004819040126
 21
8.997499508261212
 31
0.0
  0
LINE
  5
65
330
1F
100
AcDbEntity
  8
Doc_ Finishes
  6
Continuous
100
AcDbLine
 10
17.75004819040126
 20
8.997499508261212
 30
0.0
 11
18.14158536585366
 21
9.204783634933122
 31
0.0
  0
LINE
  5
66
330
1F
100
AcDbEntity
  8
Doc_ Finishes
  6
Continuous
100
AcDbLine
 10
18.14158536585366
 20
9.204783634933122
 30
0.0
 11
19.24709923288749
 21
9.75753835562549
 31
0.0
  0
LINE
  5
67
330
1F
100
AcDbEntity
  8
Doc_ Finishes
  6
Continuous
100
AcDbLine
 10
19.24709923288749
 20
9.75753835562549
 30
0.0
 11
20.23745328481511
 21
10.47151947285602
 31
0.0
  0
LINE
  5
68
330
1F
100
AcDbEntity
  8
Doc_ Finishes
  6
Continuous
100
AcDbLine
 10
20.23745328481511
 20
10.47151947285602
 30
0.0
 11
21.41206038552321
 21
11.16246508654602
 31
0.0
  0
LINE
  5
69
330
1F
100
AcDbEntity
  8
Doc_ Finishes
  6
Continuous
100
AcDbLine
 10
21.41206038552321
 20
11.16246508654602
 30
0.0
 11
21.84965971675846
 21
11.64612657356412
 31
0.0
  0
LINE
  5
6A
330
1F
100
AcDbEntity
  8
Doc_ Finishes
  6
Continuous
100
AcDbLine
 10
21.84965971675846
 20
11.64612657356412
 30
0.0
 11
22.49454317466562
 21
12.06069482690795
 31
0.0
  0
LINE
  5
6B
330
1F
100
AcDbEntity
  8
Doc_ Finishes
  6
Continuous
100
AcDbLine
 10
22.49454317466562
 20
12.06069482690795
 30
0.0
 11
23.78431009047993
 21
12.98195564516129
 31
0.0
  0
LINE
  5
6C
330
1F
100
AcDbEntity
  8
Doc_ Finishes
  6
Continuous
100
AcDbLine
 10
23.78431009047993
 20
12.98195564516129
 30
0.0
 11
24.36009588906373
 21
13.25833300550747
 31
0.0
  0
LINE
  5
6D
330
1F
100
AcDbEntity
  8
Doc_ Finishes
  6
Continuous
100
AcDbLine
 10
24.36009588906373
 20
13.25833300550747
 30
0.0
 11
25.64986280487805
 21
14.24868705743509
 31
0.0
  0
LINE
  5
6E
330
1F
100
AcDbEntity
  8
Doc_ Finishes
  6
Continuous
100
AcDbLine
 10
25.64986280487805
 20
14.24868705743509
 30
0.0
 11
25.85714693154996
 21
14.64022423288749
 31
0.0
  0
LINE
  5
6F
330
1F
100
AcDbEntity
  8
Doc_ Finishes
  6
Continuous
100
AcDbLine
 10
25.85714693154996
 20
14.64022423288749
 30
0.0
 11
26.68628343823761
 21
15.2390455350118
 31
0.0
  0
LINE
  5
70
330
1F
100
AcDbEntity
  8
Doc_ Finishes
  6
Continuous
100
AcDbLine
 10
26.68628343823761
 20
15.2390455350118
 30
0.0
 11
27.28510031471282
 21
15.7227070220299
 31
0.0
  0
LINE
  5
71
330
1F
100
AcDbEntity
  8
Doc_ Finishes
  6
Continuous
100
AcDbLine
 10
27.28510031471282
 20
15.7227070220299
 30
0.0
 11
27.81482838316287
 21
16.1142441974823
 31
0.0
  0
LINE
  5
72
330
1F
100
AcDbEntity
  8
Doc_ Finishes
  6
Continuous
100
AcDbLine
 10
27.81482838316287
 20
16.1142441974823
 30
0.0
 11
28.27545879228953
 21
16.52880802517702
 31
0.0
  0
LINE
  5
73
330
1F
100
AcDbEntity
  8
Doc_ Finishes
  6
Continuous
100
AcDbLine
 10
28.27545879228953
 20
16.52880802517702
 30
0.0
 11
28.22939221085759
 21
16.78215873328088
 31
0.0
  0
LINE
  5
74
330
1F
100
AcDbEntity
  8
Doc_ Finishes
  6
Continuous
100
AcDbLine
 10
28.22939221085759
 20
16.78215873328088
 30
0.0
 11
28.09120574350905
 21
16.897314122738
 31
0.0
  0
LINE
  5
75
330
1F
100
AcDbEntity
  8
Doc_ Finishes
  6
Continuous
100
AcDbLine
 10
28.09120574350905
 20
16.897314122738
 30
0.0
 11
27.56147767505901
 21
16.897314122738
 31
0.0
  0
LINE
  5
76
330
1F
100
AcDbEntity
  8
Doc_ Finishes
  6
Continuous
100
AcDbLine
 10
27.56147767505901
 20
16.897314122738
 30
0.0
 11
27.41177566876475
 21
16.87044600708104
 31
0.0
  0
HATCH
  5
77
330
1F
100
AcDbEntity
  8
Doc_ Finishes
  6
Continuous
100
AcDbHatch
 10
0.0
 20
0.0
 30
0.0
210
0.0
220
0.0
230
1.0
  2
SOLID
 70
     1
 71
     0
 91
        1
 92
        3
 72
     0
 73
     1
 93
       39
 10
27.65360600299377
 20
13.12014334109181
 10
27.21600693931564
 20
12.77467039608275
 10
26.54809257896482
 20
12.24494521373555
 10
25.92624127794851
 20
11.85340920939199
 10
25.32742150659951
 20
11.32368402704478
 10
24.72860173525052
 20
11.04730567103754
 10
24.08371890456698
 20
10.56364354802488
 10
23.62308831122158
 20
10.33332825135219
 10
23.231552306878
 20
10.03391836567767
 10
22.81698477286715
 20
9.619350831666825
 10
22.40241723885631
 20
9.38903553499415
 10
21.91875511584363
 20
9.043562589985086
 10
21.66540828950367
 20
8.859310352646935
 10
21.25084075549282
 20
8.582931996639696
 10
20.09926427212933
 20
7.753796928618002
 10
19.75379132712029
 20
7.477418572610764
 10
19.2931607337749
 20
7.316197864939873
 10
19.22406614477309
 20
6.993756449598113
 10
19.3622553227767
 20
6.717378093590874
 10
19.63863367878394
 20
6.602220445254527
 10
20.00713815346026
 20
6.8325357419272
 10
20.26048497980021
 20
7.131945627601722
 10
20.55989486547472
 20
7.362260924274415
 10
21.31993534449462
 20
7.707733869283458
 10
21.84966052684182
 20
8.122301403294307
 10
22.88607936186895
 20
8.882341882314256
 10
23.20852077721072
 20
9.342972475659646
 10
24.01462431556515
 20
9.734508480003234
 10
24.5673810275796
 20
10.05694989534501
 10
25.46561068460312
 20
10.60970660735953
 10
25.88017821861399
 20
11.07033720070492
 10
26.31777728229212
 20
11.34671555671216
 10
26.70931328663569
 20
11.30065249737762
 10
27.21600693931562
 20
11.55399932371759
 10
28.0681735370046
 20
12.17585062473387
 10
28.41364648201364
 20
12.49829204007566
 10
28.39061495234636
 20
12.77467039608289
 10
28.22939424467547
 20
13.00498569275559
 10
28.04514200733732
 20
13.05104875209013
 97
        0
 75
     0
 76
     1
 98
        0
  0
LINE
  5
78
330
1F
100
AcDbEntity
  8
Doc_ Finishes
  6
Continuous
100
AcDbLine
 10
27.6536064122738
 20
13.12014211250983
 30
0.0
 11
27.21600708103855
 21
12.77467151848938
 31
0.0
  0
LINE
  5
79
330
1F
100
AcDbEntity
  8
Doc_ Finishes
  6
Continuous
100
AcDbLine
 10
27.21600708103855
 20
12.77467151848938
 30
0.0
 11
26.54809254523997
 21
12.24494345003934
 31
0.0
  0
LINE
  5
7A
330
1F
100
AcDbEntity
  8
Doc_ Finishes
  6
Continuous
100
AcDbLine
 10
26.54809254523997
 20
12.24494345003934
 30
0.0
 11
25.92624016522423
 21
11.85341070023603
 31
0.0
  0
LINE
  5
7B
330
1F
100
AcDbEntity
  8
Doc_ Finishes
  6
Continuous
100
AcDbLine
 10
25.92624016522423
 20
11.85341070023603
 30
0.0
 11
25.32742328874902
 21
11.32368263178599
 31
0.0
  0
LINE
  5
7C
330
1F
100
AcDbEntity
  8
Doc_ Finishes
  6
Continuous
100
AcDbLine
 10
25.32742328874902
 20
11.32368263178599
 30
0.0
 11
24.72860198662471
 21
11.04730527143981
 31
0.0
  0
LINE
  5
7D
330
1F
100
AcDbEntity
  8
Doc_ Finishes
  6
Continuous
100
AcDbLine
 10
24.72860198662471
 20
11.04730527143981
 30
0.0
 11
24.08371852871754
 21
10.56364378442171
 31
0.0
  0
LINE
  5
7E
330
1F
100
AcDbEntity
  8
Doc_ Finishes
  6
Continuous
100
AcDbLine
 10
24.08371852871754
 20
10.56364378442171
 30
0.0
 11
23.62308811959087
 21
10.33332857985838
 31
0.0
  0
LINE
  5
7F
330
1F
100
AcDbEntity
  8
Doc_ Finishes
  6
Continuous
100
AcDbLine
 10
23.62308811959087
 20
10.33332857985838
 30
0.0
 11
23.23155094413847
 21
10.03392014162077
 31
0.0
  0
LINE
  5
80
330
1F
100
AcDbEntity
  8
Doc_ Finishes
  6
Continuous
100
AcDbLine
 10
23.23155094413847
 20
10.03392014162077
 30
0.0
 11
22.81698269079465
 21
9.619351888276947
 31
0.0
  0
LINE
  5
81
330
1F
100
AcDbEntity
  8
Doc_ Finishes
  6
Continuous
100
AcDbLine
 10
22.81698269079465
 20
9.619351888276947
 30
0.0
 11
22.40241886309992
 21
9.389036683713611
 31
0.0
  0
LINE
  5
82
330
1F
100
AcDbEntity
  8
Doc_ Finishes
  6
Continuous
100
AcDbLine
 10
22.40241886309992
 20
9.389036683713611
 30
0.0
 11
21.91875295043273
 21
9.04356166404406
 31
0.0
  0
LINE
  5
83
330
1F
100
AcDbEntity
  8
Doc_ Finishes
  6
Continuous
100
AcDbLine
 10
21.91875295043273
 20
9.04356166404406
 30
0.0
 11
21.66540666797797
 21
8.859308615263572
 31
0.0
  0
LINE
  5
84
330
1F
100
AcDbEntity
  8
Doc_ Finishes
  6
Continuous
100
AcDbLine
 10
21.66540666797797
 20
8.859308615263572
 30
0.0
 11
21.25084284028324
 21
8.582931254917387
 31
0.0
  0
LINE
  5
85
330
1F
100
AcDbEntity
  8
Doc_ Finishes
  6
Continuous
100
AcDbLine
 10
21.25084284028324
 20
8.582931254917387
 30
0.0
 11
20.09926239181747
 21
7.75379474822974
 31
0.0
  0
LINE
  5
86
330
1F
100
AcDbEntity
  8
Doc_ Finishes
  6
Continuous
100
AcDbLine
 10
20.09926239181747
 20
7.75379474822974
 30
0.0
 11
19.75379179779701
 21
7.477417387883556
 31
0.0
  0
LINE
  5
87
330
1F
100
AcDbEntity
  8
Doc_ Finishes
  6
Continuous
100
AcDbLine
 10
19.75379179779701
 20
7.477417387883556
 30
0.0
 11
19.29316138867033
 21
7.316199842643588
 31
0.0
  0
LINE
  5
88
330
1F
100
AcDbEntity
  8
Doc_ Finishes
  6
Continuous
100
AcDbLine
 10
19.29316138867033
 20
7.316199842643588
 30
0.0
 11
19.22406815499606
 21
6.993755900865461
 31
0.0
  0
LINE
  5
89
330
1F
100
AcDbEntity
  8
Doc_ Finishes
  6
Continuous
100
AcDbLine
 10
19.22406815499606
 20
6.993755900865461
 30
0.0
 11
19.36225462234461
 21
6.717378540519276
 31
0.0
  0
LINE
  5
8A
330
1F
100
AcDbEntity
  8
Doc_ Finishes
  6
Continuous
100
AcDbLine
 10
19.36225462234461
 20
6.717378540519276
 30
0.0
 11
19.63863198269079
 21
6.602218725413059
 31
0.0
  0
LINE
  5
8B
330
1F
100
AcDbEntity
  8
Doc_ Finishes
  6
Continuous
100
AcDbLine
 10
19.63863198269079
 20
6.602218725413059
 30
0.0
 11
20.00713808025177
 21
6.832533929976396
 31
0.0
  0
LINE
  5
8C
330
1F
100
AcDbEntity
  8
Doc_ Finishes
  6
Continuous
100
AcDbLine
 10
20.00713808025177
 20
6.832533929976396
 30
0.0
 11
20.26048436270653
 21
7.1319467938631
 31
0.0
  0
LINE
  5
8D
330
1F
100
AcDbEntity
  8
Doc_ Finishes
  6
Continuous
100
AcDbLine
 10
20.26048436270653
 20
7.1319467938631
 30
0.0
 11
20.55989280094414
 21
7.362261998426435
 31
0.0
  0
LINE
  5
8E
330
1F
100
AcDbEntity
  8
Doc_ Finishes
  6
Continuous
100
AcDbLine
 10
20.55989280094414
 20
7.362261998426435
 30
0.0
 11
21.31993607395751
 21
7.707732592446892
 31
0.0
  0
LINE
  5
8F
330
1F
100
AcDbEntity
  8
Doc_ Finishes
  6
Continuous
100
AcDbLine
 10
21.31993607395751
 20
7.707732592446892
 30
0.0
 11
21.84965971675846
 21
8.122300845790717
 31
0.0
  0
LINE
  5
90
330
1F
100
AcDbEntity
  8
Doc_ Finishes
  6
Continuous
100
AcDbLine
 10
21.84965971675846
 20
8.122300845790717
 30
0.0
 11
22.88608035011802
 21
8.882339693154996
 31
0.0
  0
LINE
  5
91
330
1F
100
AcDbEntity
  8
Doc_ Finishes
  6
Continuous
100
AcDbLine
 10
22.88608035011802
 20
8.882339693154996
 30
0.0
 11
23.20851986624705
 21
9.342974527930762
 31
0.0
  0
LINE
  5
92
330
1F
100
AcDbEntity
  8
Doc_ Finishes
  6
Continuous
100
AcDbLine
 10
23.20851986624705
 20
9.342974527930762
 30
0.0
 11
24.01462529504327
 21
9.734507277734066
 31
0.0
  0
LINE
  5
93
330
1F
100
AcDbEntity
  8
Doc_ Finishes
  6
Continuous
100
AcDbLine
 10
24.01462529504327
 20
9.734507277734066
 30
0.0
 11
24.56738001573564
 21
10.05695121951219
 31
0.0
  0
LINE
  5
94
330
1F
100
AcDbEntity
  8
Doc_ Finishes
  6
Continuous
100
AcDbLine
 10
24.56738001573564
 20
10.05695121951219
 30
0.0
 11
25.46560975609756
 21
10.60970594020456
 31
0.0
  0
LINE
  5
95
330
1F
100
AcDbEntity
  8
Doc_ Finishes
  6
Continuous
100
AcDbLine
 10
25.46560975609756
 20
10.60970594020456
 30
0.0
 11
25.88017800944139
 21
11.07033634933124
 31
0.0
  0
LINE
  5
96
330
1F
100
AcDbEntity
  8
Doc_ Finishes
  6
Continuous
100
AcDbLine
 10
25.88017800944139
 20
11.07033634933124
 30
0.0
 11
26.31777734067663
 21
11.34671370967742
 31
0.0
  0
LINE
  5
97
330
1F
100
AcDbEntity
  8
Doc_ Finishes
  6
Continuous
100
AcDbLine
 10
26.31777734067663
 20
11.34671370967742
 30
0.0
 11
26.70931451612903
 21
11.30065155389457
 31
0.0
  0
LINE
  5
98
330
1F
100
AcDbEntity
  8
Doc_ Finishes
  6
Continuous
100
AcDbLine
 10
26.70931451612903
 20
11.30065155389457
 30
0.0
 11
27.21600708103855
 21
11.55399783634933
 31
0.0
  0
LINE
  5
99
330
1F
100
AcDbEntity
  8
Doc_ Finishes
  6
Continuous
100
AcDbLine
 10
27.21600708103855
 20
11.55399783634933
 30
0.0
 11
28.06817466561763
 21
12.17585021636507
 31
0.0
  0
LINE
  5
9A
330
1F
100
AcDbEntity
  8
Doc_ Finishes
  6
Continuous
100
AcDbLine
 10
28.06817466561763
 20
12.17585021636507
 30
0.0
 11
28.41364525963808
 21
12.49829415814319
 31
0.0
  0
LINE
  5
9B
330
1F
100
AcDbEntity
  8
Doc_ Finishes
  6
Continuous
100
AcDbLine
 10
28.41364525963808
 20
12.49829415814319
 30
0.0
 11
28.39061418174666
 21
12.77467151848938
 31
0.0
  0
LINE
  5
9C
330
1F
100
AcDbEntity
  8
Doc_ Finishes
  6
Continuous
100
AcDbLine
 10
28.39061418174666
 20
12.77467151848938
 30
0.0
 11
28.22939221085759
 21
13.00498672305271
 31
0.0
  0
LINE
  5
9D
330
1F
100
AcDbEntity
  8
Doc_ Finishes
  6
Continuous
100
AcDbLine
 10
28.22939221085759
 20
13.00498672305271
 30
0.0
 11
28.04514358772619
 21
13.05104887883556
 31
0.0
  0
LINE
  5
9E
330
1F
100
AcDbEntity
  8
Doc_ Finishes
  6
Continuous
100
AcDbLine
 10
28.04514358772619
 20
13.05104887883556
 30
0.0
 11
27.6536064122738
 21
13.12014211250983
 31
0.0
  0
HATCH
  5
9F
330
1F
100
AcDbEntity
  8
Doc_ Finishes
  6
Continuous
100
AcDbHatch
 10
0.0
 20
0.0
 30
0.0
210
0.0
220
0.0
230
1.0
  2
SOLID
 70
     1
 71
     0
 91
        1
 92
        3
 72
     0
 73
     1
 93
       47
 10
28.06817353700456
 20
15.74573772316067
 10
28.30309513961077
 20
15.62136746295728
 10
28.4412843176144
 20
15.4002647781515
 10
28.93876535842742
 20
15.17916209334572
 10
29.82317609765057
 20
14.40530269652538
 10
30.92868952167951
 20
13.74199464210799
 10
31.59199757609689
 20
13.3827027792986
 10
32.20002995931279
 20
13.07868658769064
 10
33.55428390374828
 20
12.08372450606458
 10
34.07940278016201
 20
11.69679480765445
 10
34.88090001258301
 20
11.08876242443854
 10
35.59948373820179
 20
10.50836787682334
 10
36.5668079842271
 20
9.817421986805197
 10
37.06428902504012
 20
9.458130123995785
 10
37.81051058625966
 20
8.933011247582023
 10
38.61200781868061
 20
8.407892371168286
 10
38.77783483228498
 20
8.186789686362482
 10
39.38586721550092
 20
7.744584316750918
 10
40.18736444792187
 20
6.915449248729224
 10
40.7953968311378
 20
6.44560604351692
 10
41.56925622795804
 20
6.169227687509681
 10
42.23256428237543
 20
6.086314180707507
 10
42.48130480278193
 20
6.30741686551329
 10
42.14965077557326
 20
6.611433057121246
 10
41.48634272115586
 20
6.998362755531397
 10
40.76775899553709
 20
7.357654618340788
 10
40.18736444792187
 20
8.048600508358874
 10
38.99893751709079
 20
8.822459905179112
 10
38.47381864067705
 20
9.319940945992132
 10
38.22507812027052
 20
9.734508480003
 10
37.17484036744301
 20
10.31490302761817
 10
36.73263499783144
 20
10.78474623283046
 10
36.2351539570184
 20
11.17167593124059
 10
35.48893239579888
 20
11.61388130085215
 10
34.85326217698223
 20
12.16663801286669
 10
34.35578113616919
 20
12.58120554687754
 10
33.69247308175183
 20
12.99577308088841
 10
33.22262987653953
 20
13.32742710809708
 10
32.7251488357265
 20
13.5761676285036
 10
31.93747052110588
 20
14.06443605744977
 10
31.43077686842594
 20
14.38687747279155
 10
30.92408321574601
 20
14.70931888813342
 10
30.62467333007151
 20
15.100854892477
 10
29.95675896972068
 20
15.67664313415887
 10
29.47309684670803
 20
15.9530214901661
 10
28.82821401602447
 20
16.36758902417695
 10
28.50577260068269
 20
16.22939984617334
 97
        0
 75
     0
 76
     1
 98
        0
  0
LINE
  5
A0
330
1F
100
AcDbEntity
  8
Doc_ Finishes
  6
Continuous
100
AcDbLine
 10
28.30309697088906
 20
15.62136850904799
 30
0.0
 11
28.06817466561763
 21
15.74573809992132
 31
0.0
  0
LINE
  5
A1
330
1F
100
AcDbEntity
  8
Doc_ Finishes
  6
Continuous
100
AcDbLine
 10
28.44128343823761
 20
15.40026308025177
 30
0.0
 11
28.30309697088906
 21
15.62136850904799
 31
0.0
  0
LINE
  5
A2
330
1F
100
AcDbEntity
  8
Doc_ Finishes
  6
Continuous
100
AcDbLine
 10
28.93876622738001
 20
15.17916207710464
 30
0.0
 11
28.44128343823761
 21
15.40026308025177
 31
0.0
  0
LINE
  5
A3
330
1F
100
AcDbEntity
  8
Doc_ Finishes
  6
Continuous
100
AcDbLine
 10
29.82317466561762
 20
14.40530192761605
 30
0.0
 11
28.93876622738001
 21
15.17916207710464
 31
0.0
  0
LINE
  5
A4
330
1F
100
AcDbEntity
  8
Doc_ Finishes
  6
Continuous
100
AcDbLine
 10
30.92868853265146
 20
13.74199449252557
 30
0.0
 11
29.82317466561762
 21
14.40530192761605
 31
0.0
  0
LINE
  5
A5
330
1F
100
AcDbEntity
  8
Doc_ Finishes
  6
Continuous
100
AcDbLine
 10
31.59199596774193
 20
13.3827025963808
 30
0.0
 11
30.92868853265146
 21
13.74199449252557
 31
0.0
  0
LINE
  5
A6
330
1F
100
AcDbEntity
  8
Doc_ Finishes
  6
Continuous
100
AcDbLine
 10
32.20003147128246
 20
13.07868705743509
 30
0.0
 11
31.59199596774193
 21
13.3827025963808
 31
0.0
  0
LINE
  5
A7
330
1F
100
AcDbEntity
  8
Doc_ Finishes
  6
Continuous
100
AcDbLine
 10
33.55428452006294
 20
12.08372590479937
 30
0.0
 11
32.20003147128246
 21
13.07868705743509
 31
0.0
  0
LINE
  5
A8
330
1F
100
AcDbEntity
  8
Doc_ Finishes
  6
Continuous
100
AcDbLine
 10
34.07940106215578
 20
11.69679583005508
 30
0.0
 11
33.55428452006294
 21
12.08372590479937
 31
0.0
  0
LINE
  5
A9
330
1F
100
AcDbEntity
  8
Doc_ Finishes
  6
Continuous
100
AcDbLine
 10
34.8808993902439
 20
11.08876032651456
 30
0.0
 11
34.07940106215578
 21
11.69679583005508
 31
0.0
  0
LINE
  5
AA
330
1F
100
AcDbEntity
  8
Doc_ Finishes
  6
Continuous
100
AcDbLine
 10
35.59948318253343
 20
10.50836742722266
 30
0.0
 11
34.8808993902439
 21
11.08876032651456
 31
0.0
  0
LINE
  5
AB
330
1F
100
AcDbEntity
  8
Doc_ Finishes
  6
Continuous
100
AcDbLine
 10
36.56680615656963
 20
9.817421813532652
 30
0.0
 11
35.59948318253343
 21
10.50836742722266
 31
0.0
  0
LINE
  5
AC
330
1F
100
AcDbEntity
  8
Doc_ Finishes
  6
Continuous
100
AcDbLine
 10
37.06428894571204
 20
9.458129917387884
 30
0.0
 11
36.56680615656963
 21
9.817421813532652
 31
0.0
  0
LINE
  5
AD
330
1F
100
AcDbEntity
  8
Doc_ Finishes
  6
Continuous
100
AcDbLine
 10
37.8105109166011
 20
8.933013375295044
 30
0.0
 11
37.06428894571204
 21
9.458129917387884
 31
0.0
  0
LINE
  5
AE
330
1F
100
AcDbEntity
  8
Doc_ Finishes
  6
Continuous
100
AcDbLine
 10
38.61200924468922
 20
8.407892407553108
 30
0.0
 11
37.8105109166011
 21
8.933013375295044
 31
0.0
  0
LINE
  5
AF
330
1F
100
AcDbEntity
  8
Doc_ Finishes
  6
Continuous
100
AcDbLine
 10
38.77783389063729
 20
8.18679140440598
 30
0.0
 11
38.61200924468922
 21
8.407892407553108
 31
0.0
  0
LINE
  5
B0
330
1F
100
AcDbEntity
  8
Doc_ Finishes
  6
Continuous
100
AcDbLine
 10
39.3858693941778
 20
7.744584972462627
 30
0.0
 11
38.77783389063729
 21
8.18679140440598
 31
0.0
  0
LINE
  5
B1
330
1F
100
AcDbEntity
  8
Doc_ Finishes
  6
Continuous
100
AcDbLine
 10
40.18736329661684
 20
6.915448465774981
 30
0.0
 11
39.3858693941778
 21
7.744584972462627
 31
0.0
  0
LINE
  5
B2
330
1F
100
AcDbEntity
  8
Doc_ Finishes
  6
Continuous
100
AcDbLine
 10
40.79539880015735
 20
6.4456038552321
 30
0.0
 11
40.18736329661684
 21
6.915448465774981
 31
0.0
  0
LINE
  5
B3
330
1F
100
AcDbEntity
  8
Doc_ Finishes
  6
Continuous
100
AcDbLine
 10
41.56925452399685
 20
6.169226494885916
 30
0.0
 11
40.79539880015735
 21
6.4456038552321
 31
0.0
  0
LINE
  5
B4
330
1F
100
AcDbEntity
  8
Doc_ Finishes
  6
Continuous
100
AcDbLine
 10
42.23256638473643
 20
6.086316384736428
 30
0.0
 11
41.56925452399685
 21
6.169226494885916
 31
0.0
  0
LINE
  5
B5
330
1F
100
AcDbEntity
  8
Doc_ Finishes
  6
Continuous
100
AcDbLine
 10
42.48130556648308
 20
6.307417387883556
 30
0.0
 11
42.23256638473643
 21
6.086316384736428
 31
0.0
  0
LINE
  5
B6
330
1F
100
AcDbEntity
  8
Doc_ Finishes
  6
Continuous
100
AcDbLine
 10
42.14965184893784
 20
6.611432926829268
 30
0.0
 11
42.48130556648308
 21
6.307417387883556
 31
0.0
  0
LINE
  5
B7
330
1F
100
AcDbEntity
  8
Doc_ Finishes
  6
Continuous
100
AcDbLine
 10
41.48634441384736
 20
6.998363001573564
 30
0.0
 11
42.14965184893784
 21
6.611432926829268
 31
0.0
  0
LINE
  5
B8
330
1F
100
AcDbEntity
  8
Doc_ Finishes
  6
Continuous
100
AcDbLine
 10
40.76776062155783
 20
7.357654897718332
 30
0.0
 11
41.48634441384736
 21
6.998363001573564
 31
0.0
  0
LINE
  5
B9
330
1F
100
AcDbEntity
  8
Doc_ Finishes
  6
Continuous
100
AcDbLine
 10
40.18736329661684
 20
8.048600511408338
 30
0.0
 11
40.76776062155783
 21
7.357654897718332
 31
0.0
  0
LINE
  5
BA
330
1F
100
AcDbEntity
  8
Doc_ Finishes
  6
Continuous
100
AcDbLine
 10
38.99893931943352
 20
8.822460660896931
 30
0.0
 11
40.18736329661684
 21
8.048600511408338
 31
0.0
  0
LINE
  5
BB
330
1F
100
AcDbEntity
  8
Doc_ Finishes
  6
Continuous
100
AcDbLine
 10
38.47381835169158
 20
9.319939024390242
 30
0.0
 11
38.99893931943352
 21
8.822460660896931
 31
0.0
  0
LINE
  5
BC
330
1F
100
AcDbEntity
  8
Doc_ Finishes
  6
Continuous
100
AcDbLine
 10
38.22507916994492
 20
9.734507277734066
 30
0.0
 11
38.47381835169158
 21
9.319939024390242
 31
0.0
  0
LINE
  5
BD
330
1F
100
AcDbEntity
  8
Doc_ Finishes
  6
Continuous
100
AcDbLine
 10
37.17484166011014
 20
10.31490460267506
 30
0.0
 11
38.22507916994492
 21
9.734507277734066
 31
0.0
  0
LINE
  5
BE
330
1F
100
AcDbEntity
  8
Doc_ Finishes
  6
Continuous
100
AcDbLine
 10
36.7326352281668
 20
10.78474478756884
 30
0.0
 11
37.17484166011014
 21
10.31490460267506
 31
0.0
  0
LINE
  5
BF
330
1F
100
AcDbEntity
  8
Doc_ Finishes
  6
Continuous
100
AcDbLine
 10
36.23515243902439
 20
11.17167486231314
 30
0.0
 11
36.7326352281668
 21
10.78474478756884
 31
0.0
  0
LINE
  5
C0
330
1F
100
AcDbEntity
  8
Doc_ Finishes
  6
Continuous
100
AcDbLine
 10
35.48893046813532
 20
11.61388129425649
 30
0.0
 11
36.23515243902439
 21
11.17167486231314
 31
0.0
  0
LINE
  5
C1
330
1F
100
AcDbEntity
  8
Doc_ Finishes
  6
Continuous
100
AcDbLine
 10
34.85326121164437
 20
12.16663601494886
 30
0.0
 11
35.48893046813532
 21
11.61388129425649
 31
0.0
  0
LINE
  5
C2
330
1F
100
AcDbEntity
  8
Doc_ Finishes
  6
Continuous
100
AcDbLine
 10
34.35578284815106
 20
12.58120426829268
 30
0.0
 11
34.85326121164437
 21
12.16663601494886
 31
0.0
  0
LINE
  5
C3
330
1F
100
AcDbEntity
  8
Doc_ Finishes
  6
Continuous
100
AcDbLine
 10
33.69247098741149
 20
12.99577252163651
 30
0.0
 11
34.35578284815106
 21
12.58120426829268
 31
0.0
  0
LINE
  5
C4
330
1F
100
AcDbEntity
  8
Doc_ Finishes
  6
Continuous
100
AcDbLine
 10
33.2226308025177
 20
13.32742623918175
 30
0.0
 11
33.69247098741149
 21
12.99577252163651
 31
0.0
  0
LINE
  5
C5
330
1F
100
AcDbEntity
  8
Doc_ Finishes
  6
Continuous
100
AcDbLine
 10
32.7251480133753
 20
13.5761654209284
 30
0.0
 11
33.2226308025177
 21
13.32742623918175
 31
0.0
  0
LINE
  5
C6
330
1F
100
AcDbEntity
  8
Doc_ Finishes
  6
Continuous
100
AcDbLine
 10
31.93747098741148
 20
14.0644340086546
 30
0.0
 11
32.7251480133753
 21
13.5761654209284
 31
0.0
  0
LINE
  5
C7
330
1F
100
AcDbEntity
  8
Doc_ Finishes
  6
Continuous
100
AcDbLine
 10
31.43077842250197
 20
14.38687795043273
 30
0.0
 11
31.93747098741148
 21
14.0644340086546
 31
0.0
  0
LINE
  5
C8
330
1F
100
AcDbEntity
  8
Doc_ Finishes
  6
Continuous
100
AcDbLine
 10
30.92408143194335
 20
14.70931746656176
 30
0.0
 11
31.43077842250197
 21
14.38687795043273
 31
0.0
  0
LINE
  5
C9
330
1F
100
AcDbEntity
  8
Doc_ Finishes
  6
Continuous
100
AcDbLine
 10
30.62467299370574
 20
15.10085464201416
 30
0.0
 11
30.92408143194335
 21
14.70931746656176
 31
0.0
  0
LINE
  5
CA
330
1F
100
AcDbEntity
  8
Doc_ Finishes
  6
Continuous
100
AcDbLine
 10
29.95675845790716
 20
15.67664486624705
 30
0.0
 11
30.62467299370574
 21
15.10085464201416
 31
0.0
  0
LINE
  5
CB
330
1F
100
AcDbEntity
  8
Doc_ Finishes
  6
Continuous
100
AcDbLine
 10
29.47309697088906
 20
15.95302222659323
 30
0.0
 11
29.95675845790716
 21
15.67664486624705
 31
0.0
  0
LINE
  5
CC
330
1F
100
AcDbEntity
  8
Doc_ Finishes
  6
Continuous
100
AcDbLine
 10
28.8282135129819
 20
16.36759047993706
 30
0.0
 11
29.47309697088906
 21
15.95302222659323
 31
0.0
  0
LINE
  5
CD
330
1F
100
AcDbEntity
  8
Doc_ Finishes
  6
Continuous
100
AcDbLine
 10
28.50577399685287
 20
16.22939958693942
 30
0.0
 11
28.8282135129819
 21
16.36759047993706
 31
0.0
  0
LINE
  5
CE
330
1F
100
AcDbEntity
  8
Doc_ Finishes
  6
Continuous
100
AcDbLine
 10
28.06817466561763
 20
15.74573809992132
 30
0.0
 11
28.50577399685287
 21
16.22939958693942
 31
0.0
  0
LINE
  5
CF
330
1F
100
AcDbEntity
  8
Doc_ Finishes
  6
Continuous
 62
   254
370
    18
100
AcDbLine
 10
97.43333792289535
 20
5.093360051140834
 30
0.0
 11
97.43333792289535
 21
20.69901750590086
 31
0.0
  0
LINE
  5
D0
330
1F
100
AcDbEntity
  8
Doc_ Finishes
  6
Continuous
 62
   254
370
    18
100
AcDbLine
 10
7.000000491738787
 20
20.69901750590086
 30
0.0
 11
290.2406840086546
 21
20.69901750590086
 31
0.0
  0
LINE
  5
D1
330
1F
100
AcDbEntity
  8
Doc_ Finishes
  6
Continuous
 62
   254
370
    18
100
AcDbLine
 10
290.2406840086546
 20
20.69901750590086
 30
0.0
 11
290.2406840086546
 21
5.000000983477577
 31
0.0
  0
LINE
  5
D2
330
1F
100
AcDbEntity
  8
Doc_ Finishes
  6
Continuous
 62
   254
370
    18
100
AcDbLine
 10
290.2406840086546
 20
5.000000983477577
 30
0.0
 11
7.000000491738787
 21
5.000000983477577
 31
0.0
  0
LINE
  5
D3
330
1F
100
AcDbEntity
  8
Doc_ Finishes
  6
Continuous
 62
   254
370
    18
100
AcDbLine
 10
7.000000491738787
 20
20.69901750590086
 30
0.0
 11
7.000000491738787
 21
5.000000983477577
 31
0.0
  0
LINE
  5
D4
330
1F
100
AcDbEntity
  8
Doc_ Finishes
  6
Continuous
 62
   254
370
    18
100
AcDbLine
 10
190.2919443351691
 20
5.093360051140834
 30
0.0
 11
190.2919443351691
 21
20.69901750590086
 31
0.0
  0
LINE
  5
D5
330
1F
100
AcDbEntity
  8
Doc_ Finishes
  6
Continuous
 62
   254
370
    18
100
AcDbLine
 10
190.2919443351691
 20
12.8961909913454
 30
0.0
 11
290.2406840086546
 21
12.8961909913454
 31
0.0
  0
MTEXT
  5
D7
330
1F
100
AcDbEntity
  8
0
  6
Continuous
100
AcDbMText
 10
210.3494767103412
 20
15.00228372306228
 30
0.0
 40
2.25
 41
0.0
 71
     7
 72
     1
  1
{R-TRS6-09}
  7
GENERATED_STYLE_1
 73
     1
 44
1.0
  0
MTEXT
  5
D8
330
1F
100
AcDbEntity
  8
0
  6
Continuous
100
AcDbMText
 10
210.3494767103412
 20
11.03300550383743
 30
0.0
 40
3.0
 41
0.0
 71
     1
 72
     1
  1
{APRON DETAIL - SIDE}
  7
GENERATED_STYLE_1
 73
     1
 44
1.0
  0
MTEXT
  5
DA
330
1F
100
AcDbEntity
  8
Doc_ Floor
  6
Continuous
100
AcDbMText
 10
29.78353726544612
 20
13.33283672870609
 30
0.0
 40
5.603347280334726
 41
0.0
 71
     1
 72
     1
  1
{The Roofing Store}
  7
GENERATED_STYLE_2
 73
     1
 44
1.0
  0
MTEXT
  5
DC
102
{ACAD_XDICTIONARY
360
4F5
102
}
330
1F
100
AcDbEntity
  8
0
  6
Continuous
100
AcDbMText
 10
102.7389238446655
 20
6.378784417288156
 30
0.0
 40
1.5
 41
0.0
 71
     7
 72
     1
  1
{P: HEAD OFFICE              09 277 2717\P    ALBANY             09 972 0060\P    KATIKAIT            07 549 5190\P    WELLINGTON              04 974 5792\P    CHRISTCHURCH          03 348 6528}
  7
GENERATED_STYLE_1
 73
     1
 44
1.062946161486498
  0
MTEXT
  5
DD
330
1F
100
AcDbEntity
  8
0
  6
Continuous
100
AcDbMText
 10
149.4184566143587
 20
9.199084231526156
 30
0.0
 40
1.5
 41
0.0
 71
     7
 72
     1
  1
{WEB: www.theroofingstore.co.nz}
  7
GENERATED_STYLE_1
 73
     1
 44
1.0
  0
MTEXT
  5
DE
330
1F
100
AcDbEntity
  8
0
  6
Continuous
100
AcDbMText
 10
149.4184566143587
 20
6.620946023411263
 30
0.0
 40
1.5
 41
0.0
 71
     7
 72
     1
  1
{Copyright \U+00A9 The Roofing Store 2013}
  7
GENERATED_STYLE_1
 73
     1
 44
1.0
  0
MTEXT
  5
DF
330
1F
100
AcDbEntity
  8
0
  6
Continuous
100
AcDbMText
 10
273.9546684065315
 20
15.01595205690762
 30
0.0
 40
2.25
 41
0.0
 71
     7
 72
     1
  1
{1:5}
  7
GENERATED_STYLE_1
 73
     1
 44
1.0
  0
MTEXT
  5
E0
330
1F
100
AcDbEntity
  8
0
  6
Continuous
100
AcDbMText
 10
264.8396605309016
 20
15.51746459162148
 30
0.0
 40
1.5
 41
0.0
 71
     7
 72
     1
  1
{SCALE:}
  7
GENERATED_STYLE_1
 73
     1
 44
1.0
  0
MTEXT
  5
E1
330
1F
100
AcDbEntity
  8
0
  6
Continuous
100
AcDbMText
 10
191.5066235617487
 20
15.48695559872207
 30
0.0
 40
1.5
 41
0.0
 71
     7
 72
     1
  1
{DETAIL NUMBER:}
  7
GENERATED_STYLE_1
 73
     1
 44
1.0
  0
MTEXT
  5
E2
330
1F
100
AcDbEntity
  8
0
  6
Continuous
100
AcDbMText
 10
191.5066235617487
 20
9.005462392315325
 30
0.0
 40
1.5
 41
0.0
 71
     7
 72
     1
  1
{TITLE:}
  7
GENERATED_STYLE_1
 73
     1
 44
1.0
  0
INSERT
  5
4C3
102
{ACAD_XDICTIONARY
360
4C4
102
}
330
1F
100
AcDbEntity
  8
0
  6
Continuous
100
AcDbBlockReference
  2
Drawing_1_2
 10
-1488.68793027213
 20
350.9956652514564
 30
0.0
  0
ENDSEC
  0
SECTION
  2
OBJECTS
  0
DICTIONARY
  5
C
330
0
100
AcDbDictionary
281
     1
  3
ACAD_GROUP
350
D
  3
ACAD_LAYOUT
350
1A
  3
ACAD_MATERIAL
350
3B
  3
ACAD_MLEADERSTYLE
350
4F0
  3
ACAD_MLINESTYLE
350
17
  3
ACAD_PLOTSETTINGS
350
19
  3
ACAD_PLOTSTYLENAME
350
E
  3
ACAD_SCALELIST
350
4CA
  3
ACAD_VISUALSTYLE
350
2A
  3
AcDbVariableDictionary
350
4EE
  3
WATERMARKS
350
4EC
  0
DICTIONARY
  5
4F5
330
DC
100
AcDbDictionary
280
     1
281
     1
  3
ACAD_MTEXT_RT
360
4F6
  0
DICTIONARY
  5
4C4
330
4C3
100
AcDbDictionary
280
     1
281
     1
  3
ACAD_FILTER
360
4C5
  0
DICTIONARY
  5
D
102
{ACAD_REACTORS
330
C
102
}
330
C
100
AcDbDictionary
281
     1
  0
DICTIONARY
  5
1A
102
{ACAD_REACTORS
330
C
102
}
330
C
100
AcDbDictionary
281
     1
  3
Layout1
350
1E
  3
Model
350
22
  0
DICTIONARY
  5
3B
102
{ACAD_REACTORS
330
C
102
}
330
C
100
AcDbDictionary
281
     1
  3
ByBlock
350
3D
  3
ByLayer
350
3C
  3
Global
350
3E
  0
DICTIONARY
  5
4F0
102
{ACAD_REACTORS
330
C
102
}
330
C
100
AcDbDictionary
281
     1
  0
DICTIONARY
  5
17
102
{ACAD_REACTORS
330
C
102
}
330
C
100
AcDbDictionary
281
     1
  3
Standard
350
18
  0
DICTIONARY
  5
19
102
{ACAD_REACTORS
330
C
102
}
330
C
100
AcDbDictionary
281
     1
  0
ACDBDICTIONARYWDFLT
  5
E
102
{ACAD_REACTORS
330
C
102
}
330
C
100
AcDbDictionary
281
     1
  3
Normal
350
F
100
AcDbDictionaryWithDefault
340
F
  0
DICTIONARY
  5
4CA
102
{ACAD_REACTORS
330
C
102
}
330
C
100
AcDbDictionary
281
     1
  3
A0
350
4CB
  3
A1
350
4CC
  3
A2
350
4CD
  3
A3
350
4CE
  3
A4
350
4CF
  3
A5
350
4D0
  3
A6
350
4D1
  3
A7
350
4D2
  3
A8
350
4D3
  3
A9
350
4D4
  3
B0
350
4D5
  3
B1
350
4D6
  3
B2
350
4D7
  3
B3
350
4D8
  3
B4
350
4D9
  3
B5
350
4DA
  3
B6
350
4DB
  3
B7
350
4DC
  3
B8
350
4DD
  3
B9
350
4DE
  3
C0
350
4DF
  3
C1
350
4E0
  3
C2
350
4E1
  3
C3
350
4E2
  3
C4
350
4E3
  3
C5
350
4E4
  3
C6
350
4E5
  3
C7
350
4E6
  3
C8
350
4E7
  3
C9
350
4E8
  3
D0
350
4E9
  3
D1
350
4EA
  3
D2
350
4EB
  0
DICTIONARY
  5
2A
102
{ACAD_REACTORS
330
C
102
}
330
C
100
AcDbDictionary
281
     1
  3
2dWireframe
350
2F
  3
3D Hidden
350
31
  3
3dWireframe
350
30
  3
Basic
350
32
  3
Brighten
350
36
  3
ColorChange
350
3A
  3
Conceptual
350
34
  3
Dim
350
35
  3
Facepattern
350
39
  3
Flat
350
2B
  3
FlatWithEdges
350
2C
  3
Gouraud
350
2D
  3
GouraudWithEdges
350
2E
  3
Linepattern
350
38
  3
Realistic
350
33
  3
Thicken
350
37
  0
DICTIONARY
  5
4EE
102
{ACAD_REACTORS
330
C
102
}
330
C
100
AcDbDictionary
281
     1
  3
CANNOSCALE
350
4F2
  3
DIMASSOC
350
4F3
  3
HIDETEXT
350
4F4
  3
XCLIPFRAME
350
4F1
  0
DICTIONARY
  5
4EC
102
{ACAD_REACTORS
330
C
102
}
330
C
100
AcDbDictionary
281
     1
  3
AC_WATERMARK
350
4ED
  0
XRECORD
  5
4F6
102
{ACAD_REACTORS
330
4F5
102
}
330
4F5
100
AcDbXrecord
280
     1
 40
956118.0
  1
{P: HEAD OFFICE ^I^I09 277 2717\P    ALBANY ^I^I09 972 0060\P    KATIKAIT^I^I07 549 5190\P    WELLINGTON^I^I04 974 5792\P    CHRISTCHURCH^I^I03 348 6528}
  0
DICTIONARY
  5
4C5
102
{ACAD_REACTORS
330
4C4
102
}
330
4C4
100
AcDbDictionary
280
     1
281
     1
  3
SPATIAL
360
4C6
  0
LAYOUT
  5
1E
102
{ACAD_REACTORS
330
1A
102
}
330
1A
100
AcDbPlotSettings
  1

  2
none_device
  4

  6

 40
0.0
 41
0.0
 42
0.0
 43
0.0
 44
0.0
 45
0.0
 46
0.0
 47
0.0
 48
0.0
 49
0.0
140
0.0
141
0.0
142
1.0
143
1.0
 70
   688
 72
     0
 73
     0
 74
     5
  7

 75
    16
147
1.0
148
0.0
149
0.0
100
AcDbLayout
  1
Layout1
 70
     1
 71
     1
 10
0.0
 20
0.0
 11
12.0
 21
9.0
 12
0.0
 22
0.0
 32
0.0
 14
1.000000000000000E+20
 24
1.000000000000000E+20
 34
1.000000000000000E+20
 15
-1.000000000000000E+20
 25
-1.000000000000000E+20
 35
-1.000000000000000E+20
146
0.0
 13
0.0
 23
0.0
 33
0.0
 16
1.0
 26
0.0
 36
0.0
 17
0.0
 27
1.0
 37
0.0
 76
     0
330
1B
  0
LAYOUT
  5
22
102
{ACAD_REACTORS
330
1A
102
}
330
1A
100
AcDbPlotSettings
  1

  2
none_device
  4

  6

 40
0.0
 41
0.0
 42
0.0
 43
0.0
 44
0.0
 45
0.0
 46
0.0
 47
0.0
 48
0.0
 49
0.0
140
0.0
141
0.0
142
1.0
143
1.0
 70
  1712
 72
     0
 73
     0
 74
     0
  7

 75
     0
147
1.0
148
0.0
149
0.0
100
AcDbLayout
  1
Model
 70
     1
 71
     0
 10
0.0
 20
0.0
 11
12.0
 21
9.0
 12
0.0
 22
0.0
 32
0.0
 14
1.000000000000000E+20
 24
1.000000000000000E+20
 34
1.000000000000000E+20
 15
-1.000000000000000E+20
 25
-1.000000000000000E+20
 35
-1.000000000000000E+20
146
0.0
 13
0.0
 23
0.0
 33
0.0
 16
1.0
 26
0.0
 36
0.0
 17
0.0
 27
1.0
 37
0.0
 76
     0
330
1F
331
29
  0
MATERIAL
  5
3D
102
{ACAD_REACTORS
330
3B
102
}
102
{ACAD_XDICTIONARY
360
519
102
}
330
3B
100
AcDbMaterial
  1
ByBlock
  0
MATERIAL
  5
3C
102
{ACAD_REACTORS
330
3B
102
}
102
{ACAD_XDICTIONARY
360
517
102
}
330
3B
100
AcDbMaterial
  1
ByLayer
  0
MATERIAL
  5
3E
102
{ACAD_REACTORS
330
3B
102
}
102
{ACAD_XDICTIONARY
360
51B
102
}
330
3B
100
AcDbMaterial
  1
Global
  0
MLINESTYLE
  5
18
102
{ACAD_REACTORS
330
17
102
}
330
17
100
AcDbMlineStyle
  2
Standard
 70
     0
  3

 62
   256
 51
90.0
 52
90.0
 71
     2
 49
0.5
 62
   256
  6
BYLAYER
 49
-0.5
 62
   256
  6
BYLAYER
  0
ACDBPLACEHOLDER
  5
F
102
{ACAD_REACTORS
330
E
102
}
330
E
  0
SCALE
  5
4CB
102
{ACAD_REACTORS
330
4CA
102
}
330
4CA
100
AcDbScale
 70
     0
300
1:1
140
1.0
141
1.0
290
     1
  0
SCALE
  5
4CC
102
{ACAD_REACTORS
330
4CA
102
}
330
4CA
100
AcDbScale
 70
     0
300
1:2
140
1.0
141
2.0
290
     0
  0
SCALE
  5
4CD
102
{ACAD_REACTORS
330
4CA
102
}
330
4CA
100
AcDbScale
 70
     0
300
1:4
140
1.0
141
4.0
290
     0
  0
SCALE
  5
4CE
102
{ACAD_REACTORS
330
4CA
102
}
330
4CA
100
AcDbScale
 70
     0
300
1:5
140
1.0
141
5.0
290
     0
  0
SCALE
  5
4CF
102
{ACAD_REACTORS
330
4CA
102
}
330
4CA
100
AcDbScale
 70
     0
300
1:8
140
1.0
141
8.0
290
     0
  0
SCALE
  5
4D0
102
{ACAD_REACTORS
330
4CA
102
}
330
4CA
100
AcDbScale
 70
     0
300
1:10
140
1.0
141
10.0
290
     0
  0
SCALE
  5
4D1
102
{ACAD_REACTORS
330
4CA
102
}
330
4CA
100
AcDbScale
 70
     0
300
1:16
140
1.0
141
16.0
290
     0
  0
SCALE
  5
4D2
102
{ACAD_REACTORS
330
4CA
102
}
330
4CA
100
AcDbScale
 70
     0
300
1:20
140
1.0
141
20.0
290
     0
  0
SCALE
  5
4D3
102
{ACAD_REACTORS
330
4CA
102
}
330
4CA
100
AcDbScale
 70
     0
300
1:30
140
1.0
141
30.0
290
     0
  0
SCALE
  5
4D4
102
{ACAD_REACTORS
330
4CA
102
}
330
4CA
100
AcDbScale
 70
     0
300
1:40
140
1.0
141
40.0
290
     0
  0
SCALE
  5
4D5
102
{ACAD_REACTORS
330
4CA
102
}
330
4CA
100
AcDbScale
 70
     0
300
1:50
140
1.0
141
50.0
290
     0
  0
SCALE
  5
4D6
102
{ACAD_REACTORS
330
4CA
102
}
330
4CA
100
AcDbScale
 70
     0
300
1:100
140
1.0
141
100.0
290
     0
  0
SCALE
  5
4D7
102
{ACAD_REACTORS
330
4CA
102
}
330
4CA
100
AcDbScale
 70
     0
300
2:1
140
2.0
141
1.0
290
     0
  0
SCALE
  5
4D8
102
{ACAD_REACTORS
330
4CA
102
}
330
4CA
100
AcDbScale
 70
     0
300
4:1
140
4.0
141
1.0
290
     0
  0
SCALE
  5
4D9
102
{ACAD_REACTORS
330
4CA
102
}
330
4CA
100
AcDbScale
 70
     0
300
8:1
140
8.0
141
1.0
290
     0
  0
SCALE
  5
4DA
102
{ACAD_REACTORS
330
4CA
102
}
330
4CA
100
AcDbScale
 70
     0
300
10:1
140
10.0
141
1.0
290
     0
  0
SCALE
  5
4DB
102
{ACAD_REACTORS
330
4CA
102
}
330
4CA
100
AcDbScale
 70
     0
300
100:1
140
100.0
141
1.0
290
     0
  0
SCALE
  5
4DC
102
{ACAD_REACTORS
330
4CA
102
}
330
4CA
100
AcDbScale
 70
     0
300
1/128" = 1'-0"
140
0.0078125
141
12.0
290
     0
  0
SCALE
  5
4DD
102
{ACAD_REACTORS
330
4CA
102
}
330
4CA
100
AcDbScale
 70
     0
300
1/64" = 1'-0"
140
0.015625
141
12.0
290
     0
  0
SCALE
  5
4DE
102
{ACAD_REACTORS
330
4CA
102
}
330
4CA
100
AcDbScale
 70
     0
300
1/32" = 1'-0"
140
0.03125
141
12.0
290
     0
  0
SCALE
  5
4DF
102
{ACAD_REACTORS
330
4CA
102
}
330
4CA
100
AcDbScale
 70
     0
300
1/16" = 1'-0"
140
0.0625
141
12.0
290
     0
  0
SCALE
  5
4E0
102
{ACAD_REACTORS
330
4CA
102
}
330
4CA
100
AcDbScale
 70
     0
300
3/32" = 1'-0"
140
0.09375
141
12.0
290
     0
  0
SCALE
  5
4E1
102
{ACAD_REACTORS
330
4CA
102
}
330
4CA
100
AcDbScale
 70
     0
300
1/8" = 1'-0"
140
0.125
141
12.0
290
     0
  0
SCALE
  5
4E2
102
{ACAD_REACTORS
330
4CA
102
}
330
4CA
100
AcDbScale
 70
     0
300
3/16" = 1'-0"
140
0.1875
141
12.0
290
     0
  0
SCALE
  5
4E3
102
{ACAD_REACTORS
330
4CA
102
}
330
4CA
100
AcDbScale
 70
     0
300
1/4" = 1'-0"
140
0.25
141
12.0
290
     0
  0
SCALE
  5
4E4
102
{ACAD_REACTORS
330
4CA
102
}
330
4CA
100
AcDbScale
 70
     0
300
3/8" = 1'-0"
140
0.375
141
12.0
290
     0
  0
SCALE
  5
4E5
102
{ACAD_REACTORS
330
4CA
102
}
330
4CA
100
AcDbScale
 70
     0
300
1/2" = 1'-0"
140
0.5
141
12.0
290
     0
  0
SCALE
  5
4E6
102
{ACAD_REACTORS
330
4CA
102
}
330
4CA
100
AcDbScale
 70
     0
300
3/4" = 1'-0"
140
0.75
141
12.0
290
     0
  0
SCALE
  5
4E7
102
{ACAD_REACTORS
330
4CA
102
}
330
4CA
100
AcDbScale
 70
     0
300
1" = 1'-0"
140
1.0
141
12.0
290
     0
  0
SCALE
  5
4E8
102
{ACAD_REACTORS
330
4CA
102
}
330
4CA
100
AcDbScale
 70
     0
300
1-1/2" = 1'-0"
140
1.5
141
12.0
290
     0
  0
SCALE
  5
4E9
102
{ACAD_REACTORS
330
4CA
102
}
330
4CA
100
AcDbScale
 70
     0
300
3" = 1'-0"
140
3.0
141
12.0
290
     0
  0
SCALE
  5
4EA
102
{ACAD_REACTORS
330
4CA
102
}
330
4CA
100
AcDbScale
 70
     0
300
6" = 1'-0"
140
6.0
141
12.0
290
     0
  0
SCALE
  5
4EB
102
{ACAD_REACTORS
330
4CA
102
}
330
4CA
100
AcDbScale
 70
     0
300
1'-0" = 1'-0"
140
12.0
141
12.0
290
     0
  0
VISUALSTYLE
  5
2F
102
{ACAD_REACTORS
330
2A
102
}
102
{ACAD_XDICTIONARY
360
4FF
102
}
330
2A
100
AcDbVisualStyle
  2
2dWireframe
 70
     4
 71
     0
 72
     2
 73
     0
 90
        0
 40
-0.6
 41
-30.0
 62
     5
 63
     7
 74
     1
 91
        4
 64
     7
 65
   257
 75
     1
175
     1
 42
1.0
 92
        0
 66
   257
 43
1.0
 76
     1
 77
     6
 78
     2
 67
     7
 79
     5
170
     0
171
     0
290
     0
174
     0
 93
        1
 44
0.0
173
     0
291
     0
 45
0.0
1001
ACAD
1000
AcDbSavedByObjectVersion
1070
     0
  0
VISUALSTYLE
  5
31
102
{ACAD_REACTORS
330
2A
102
}
102
{ACAD_XDICTIONARY
360
503
102
}
330
2A
100
AcDbVisualStyle
  2
3D Hidden
 70
     6
 71
     1
 72
     2
 73
     2
 90
        0
 40
-0.6
 41
-30.0
 62
     5
 63
     7
 74
     2
 91
        2
 64
     7
 65
   257
 75
     2
175
     1
 42
40.0
 92
        0
 66
   257
 43
1.0
 76
     1
 77
     6
 78
     2
 67
     7
 79
     3
170
     0
171
     0
290
     0
174
     0
 93
        1
 44
0.0
173
     0
291
     0
 45
0.0
1001
ACAD
1000
AcDbSavedByObjectVersion
1070
     0
  0
VISUALSTYLE
  5
30
102
{ACAD_REACTORS
330
2A
102
}
102
{ACAD_XDICTIONARY
360
501
102
}
330
2A
100
AcDbVisualStyle
  2
3dWireframe
 70
     5
 71
     0
 72
     2
 73
     0
 90
        0
 40
-0.6
 41
-30.0
 62
     5
 63
     7
 74
     1
 91
        4
 64
     7
 65
   257
 75
     1
175
     1
 42
1.0
 92
        0
 66
   257
 43
1.0
 76
     1
 77
     6
 78
     2
 67
     7
 79
     5
170
     0
171
     0
290
     0
174
     0
 93
        1
 44
0.0
173
     0
291
     0
 45
0.0
1001
ACAD
1000
AcDbSavedByObjectVersion
1070
     0
  0
VISUALSTYLE
  5
32
102
{ACAD_REACTORS
330
2A
102
}
102
{ACAD_XDICTIONARY
360
505
102
}
330
2A
100
AcDbVisualStyle
  2
Basic
 70
     7
 71
     1
 72
     0
 73
     1
 90
        0
 40
-0.6
 41
-30.0
 62
     5
 63
     7
 74
     0
 91
        4
 64
     7
 65
   257
 75
     1
175
     1
 42
1.0
 92
        8
 66
     7
 43
1.0
 76
     1
 77
     6
 78
     2
 67
     7
 79
     5
170
     0
171
     0
290
     0
174
     0
 93
        1
 44
0.0
173
     0
291
     1
 45
0.0
1001
ACAD
1000
AcDbSavedByObjectVersion
1070
     0
  0
VISUALSTYLE
  5
36
102
{ACAD_REACTORS
330
2A
102
}
102
{ACAD_XDICTIONARY
360
50D
102
}
330
2A
100
AcDbVisualStyle
  2
Brighten
 70
    12
 71
     2
 72
     2
 73
     0
 90
        0
 40
-0.6
 41
-30.0
 62
     5
 63
     7
 74
     1
 91
        4
 64
     7
 65
   257
 75
     1
175
     1
 42
1.0
 92
        8
 66
     7
 43
1.0
 76
     1
 77
     6
 78
     2
 67
     7
 79
     5
170
     0
171
     0
290
     0
174
     0
 93
        1
 44
50.0
173
     0
291
     1
 45
0.0
1001
ACAD
1000
AcDbSavedByObjectVersion
1070
     0
  0
VISUALSTYLE
  5
3A
102
{ACAD_REACTORS
330
2A
102
}
102
{ACAD_XDICTIONARY
360
515
102
}
330
2A
100
AcDbVisualStyle
  2
ColorChange
 70
    16
 71
     2
 72
     2
 73
     3
 90
        0
 40
-0.6
 41
-30.0
 62
     5
 63
     8
 74
     1
 91
        4
 64
     7
 65
   257
 75
     1
175
     1
 42
1.0
 92
        8
 66
     8
 43
1.0
 76
     1
 77
     6
 78
     2
 67
     7
 79
     5
170
     0
171
     0
290
     0
174
     0
 93
        1
 44
0.0
173
     0
291
     1
 45
0.0
1001
ACAD
1000
AcDbSavedByObjectVersion
1070
     0
  0
VISUALSTYLE
  5
34
102
{ACAD_REACTORS
330
2A
102
}
102
{ACAD_XDICTIONARY
360
509
102
}
330
2A
100
AcDbVisualStyle
  2
Conceptual
 70
     9
 71
     3
 72
     2
 73
     0
 90
        0
 40
-0.6
 41
-30.0
 62
     5
 63
     7
 74
     2
 91
        2
 64
     7
 65
   257
 75
     1
175
     1
 42
40.0
 92
        8
 66
     7
 43
1.0
 76
     1
 77
     6
 78
     2
 67
     7
 79
     3
170
     0
171
     0
290
     0
174
     0
 93
        1
 44
0.0
173
     0
291
     0
 45
0.0
1001
ACAD
1000
AcDbSavedByObjectVersion
1070
     0
  0
VISUALSTYLE
  5
35
102
{ACAD_REACTORS
330
2A
102
}
102
{ACAD_XDICTIONARY
360
50B
102
}
330
2A
100
AcDbVisualStyle
  2
Dim
 70
    11
 71
     2
 72
     2
 73
     0
 90
        0
 40
-0.6
 41
-30.0
 62
     5
 63
     7
 74
     1
 91
        4
 64
     7
 65
   257
 75
     1
175
     1
 42
1.0
 92
        8
 66
     7
 43
1.0
 76
     1
 77
     6
 78
     2
 67
     7
 79
     5
170
     0
171
     0
290
     0
174
     0
 93
        1
 44
-50.0
173
     0
291
     1
 45
0.0
1001
ACAD
1000
AcDbSavedByObjectVersion
1070
     0
  0
VISUALSTYLE
  5
39
102
{ACAD_REACTORS
330
2A
102
}
102
{ACAD_XDICTIONARY
360
513
102
}
330
2A
100
AcDbVisualStyle
  2
Facepattern
 70
    15
 71
     2
 72
     2
 73
     0
 90
        0
 40
-0.6
 41
-30.0
 62
     5
 63
     7
 74
     1
 91
        4
 64
     7
 65
   257
 75
     1
175
     1
 42
1.0
 92
        8
 66
     7
 43
1.0
 76
     1
 77
     6
 78
     2
 67
     7
 79
     5
170
     0
171
     0
290
     0
174
     0
 93
        1
 44
0.0
173
     0
291
     1
 45
0.0
1001
ACAD
1000
AcDbSavedByObjectVersion
1070
     0
  0
VISUALSTYLE
  5
2B
102
{ACAD_REACTORS
330
2A
102
}
102
{ACAD_XDICTIONARY
360
4F7
102
}
330
2A
100
AcDbVisualStyle
  2
Flat
 70
     0
 71
     2
 72
     1
 73
     1
 90
        2
 40
-0.6
 41
30.0
 62
     5
 63
     7
 74
     0
 91
        4
 64
     7
 65
   257
 75
     1
175
     1
 42
1.0
 92
        8
 66
     7
 43
1.0
 76
     1
 77
     6
 78
     2
 67
     7
 79
     5
170
     0
171
     0
290
     0
174
     0
 93
       13
 44
0.0
173
     0
291
     1
 45
0.0
1001
ACAD
1000
AcDbSavedByObjectVersion
1070
     0
  0
VISUALSTYLE
  5
2C
102
{ACAD_REACTORS
330
2A
102
}
102
{ACAD_XDICTIONARY
360
4F9
102
}
330
2A
100
AcDbVisualStyle
  2
FlatWithEdges
 70
     1
 71
     2
 72
     1
 73
     1
 90
        2
 40
-0.6
 41
30.0
 62
     5
 63
     7
 74
     1
 91
        4
 64
     7
 65
   257
 75
     1
175
     1
 42
1.0
 92
        0
 66
   257
 43
1.0
 76
     1
 77
     6
 78
     2
 67
     7
 79
     5
170
     0
171
     0
290
     0
174
     0
 93
       13
 44
0.0
173
     0
291
     1
 45
0.0
1001
ACAD
1000
AcDbSavedByObjectVersion
1070
     0
  0
VISUALSTYLE
  5
2D
102
{ACAD_REACTORS
330
2A
102
}
102
{ACAD_XDICTIONARY
360
4FB
102
}
330
2A
100
AcDbVisualStyle
  2
Gouraud
 70
     2
 71
     2
 72
     2
 73
     1
 90
        2
 40
-0.6
 41
30.0
 62
     5
 63
     7
 74
     0
 91
        4
 64
     7
 65
   257
 75
     1
175
     1
 42
1.0
 92
        0
 66
     7
 43
1.0
 76
     1
 77
     6
 78
     2
 67
     7
 79
     5
170
     0
171
     0
290
     0
174
     0
 93
       13
 44
0.0
173
     0
291
     1
 45
0.0
1001
ACAD
1000
AcDbSavedByObjectVersion
1070
     0
  0
VISUALSTYLE
  5
2E
102
{ACAD_REACTORS
330
2A
102
}
102
{ACAD_XDICTIONARY
360
4FD
102
}
330
2A
100
AcDbVisualStyle
  2
GouraudWithEdges
 70
     3
 71
     2
 72
     2
 73
     1
 90
        2
 40
-0.6
 41
30.0
 62
     5
 63
     7
 74
     1
 91
        4
 64
     7
 65
   257
 75
     1
175
     1
 42
1.0
 92
        0
 66
   257
 43
1.0
 76
     1
 77
     6
 78
     2
 67
     7
 79
     5
170
     0
171
     0
290
     0
174
     0
 93
       13
 44
0.0
173
     0
291
     1
 45
0.0
1001
ACAD
1000
AcDbSavedByObjectVersion
1070
     0
  0
VISUALSTYLE
  5
38
102
{ACAD_REACTORS
330
2A
102
}
102
{ACAD_XDICTIONARY
360
511
102
}
330
2A
100
AcDbVisualStyle
  2
Linepattern
 70
    14
 71
     2
 72
     2
 73
     0
 90
        0
 40
-0.6
 41
-30.0
 62
     5
 63
     7
 74
     1
 91
        4
 64
     7
 65
   257
 75
     7
175
     7
 42
1.0
 92
        8
 66
     7
 43
1.0
 76
     1
 77
     6
 78
     2
 67
     7
 79
     5
170
     0
171
     0
290
     0
174
     0
 93
        1
 44
0.0
173
     0
291
     1
 45
0.0
1001
ACAD
1000
AcDbSavedByObjectVersion
1070
     0
  0
VISUALSTYLE
  5
33
102
{ACAD_REACTORS
330
2A
102
}
102
{ACAD_XDICTIONARY
360
507
102
}
330
2A
100
AcDbVisualStyle
  2
Realistic
 70
     8
 71
     2
 72
     2
 73
     0
 90
        0
 40
-0.6
 41
-30.0
 62
     5
 63
     7
 74
     1
 91
        0
 64
     7
 65
   257
 75
     1
175
     1
 42
1.0
 92
        8
 66
     8
 43
1.0
 76
     1
 77
     6
 78
     2
 67
     7
 79
     5
170
     0
171
     0
290
     0
174
     0
 93
       13
 44
0.0
173
     0
291
     0
 45
0.0
1001
ACAD
1000
AcDbSavedByObjectVersion
1070
     0
  0
VISUALSTYLE
  5
37
102
{ACAD_REACTORS
330
2A
102
}
102
{ACAD_XDICTIONARY
360
50F
102
}
330
2A
100
AcDbVisualStyle
  2
Thicken
 70
    13
 71
     2
 72
     2
 73
     0
 90
        0
 40
-0.6
 41
-30.0
 62
     5
 63
     7
 74
     1
 91
        4
 64
     7
 65
   257
 75
     1
175
     1
 42
1.0
 92
       12
 66
     7
 43
1.0
 76
     1
 77
     6
 78
     2
 67
     7
 79
     5
170
     0
171
     0
290
     0
174
     0
 93
        1
 44
0.0
173
     0
291
     1
 45
0.0
1001
ACAD
1000
AcDbSavedByObjectVersion
1070
     0
  0
DICTIONARYVAR
  5
4F2
102
{ACAD_REACTORS
330
4EE
102
}
330
4EE
100
DictionaryVariables
280
     0
  1
1:1
  0
DICTIONARYVAR
  5
4F3
102
{ACAD_REACTORS
330
4EE
102
}
330
4EE
100
DictionaryVariables
280
     0
  1
2
  0
DICTIONARYVAR
  5
4F4
102
{ACAD_REACTORS
330
4EE
102
}
330
4EE
100
DictionaryVariables
280
     0
  1
1
  0
DICTIONARYVAR
  5
4F1
102
{ACAD_REACTORS
330
4EE
102
}
330
4EE
100
DictionaryVariables
280
     0
  1
0
  0
XRECORD
  5
4ED
102
{ACAD_REACTORS
330
4EC
102
}
330
4EC
100
AcDbXrecord
280
     1
1000
This DWG file was created in ArchiCAD(TM)®
  0
SPATIAL_FILTER
  5
4C6
102
{ACAD_REACTORS
330
4C5
102
}
330
4C5
100
AcDbFilter
100
AcDbSpatialFilter
 70
     4
 10
46.3773244410241
 20
23.56187964509124
 10
246.2123859504618
 20
23.56187964509124
 10
246.2123859504618
 20
198.9052447763431
 10
46.3773244410241
 20
198.9052447763431
210
0.0
220
0.0
230
1.0
 11
0.0
 21
0.0
 31
0.0
 71
     1
 72
     0
 73
     0
 40
1.0
 40
0.0
 40
0.0
 40
0.0
 40
0.0
 40
1.0
 40
0.0
 40
0.0
 40
0.0
 40
0.0
 40
1.0
 40
0.0
 40
1.0
 40
0.0
 40
0.0
 40
0.0
 40
0.0
 40
1.0
 40
0.0
 40
0.0
 40
0.0
 40
0.0
 40
1.0
 40
0.0
  0
DICTIONARY
  5
519
330
3D
100
AcDbDictionary
280
     1
281
     1
  3
ACAD_XREC_ROUNDTRIP
360
51A
  0
DICTIONARY
  5
517
330
3C
100
AcDbDictionary
280
     1
281
     1
  3
ACAD_XREC_ROUNDTRIP
360
518
  0
DICTIONARY
  5
51B
330
3E
100
AcDbDictionary
280
     1
281
     1
  3
ACAD_XREC_ROUNDTRIP
360
51C
  0
DICTIONARY
  5
4FF
330
2F
100
AcDbDictionary
280
     1
281
     1
  3
ACAD_XREC_ROUNDTRIP
360
500
  0
DICTIONARY
  5
503
330
31
100
AcDbDictionary
280
     1
281
     1
  3
ACAD_XREC_ROUNDTRIP
360
504
  0
DICTIONARY
  5
501
330
30
100
AcDbDictionary
280
     1
281
     1
  3
ACAD_XREC_ROUNDTRIP
360
502
  0
DICTIONARY
  5
505
330
32
100
AcDbDictionary
280
     1
281
     1
  3
ACAD_XREC_ROUNDTRIP
360
506
  0
DICTIONARY
  5
50D
330
36
100
AcDbDictionary
280
     1
281
     1
  3
ACAD_XREC_ROUNDTRIP
360
50E
  0
DICTIONARY
  5
515
330
3A
100
AcDbDictionary
280
     1
281
     1
  3
ACAD_XREC_ROUNDTRIP
360
516
  0
DICTIONARY
  5
509
330
34
100
AcDbDictionary
280
     1
281
     1
  3
ACAD_XREC_ROUNDTRIP
360
50A
  0
DICTIONARY
  5
50B
330
35
100
AcDbDictionary
280
     1
281
     1
  3
ACAD_XREC_ROUNDTRIP
360
50C
  0
DICTIONARY
  5
513
330
39
100
AcDbDictionary
280
     1
281
     1
  3
ACAD_XREC_ROUNDTRIP
360
514
  0
DICTIONARY
  5
4F7
330
2B
100
AcDbDictionary
280
     1
281
     1
  3
ACAD_XREC_ROUNDTRIP
360
4F8
  0
DICTIONARY
  5
4F9
330
2C
100
AcDbDictionary
280
     1
281
     1
  3
ACAD_XREC_ROUNDTRIP
360
4FA
  0
DICTIONARY
  5
4FB
330
2D
100
AcDbDictionary
280
     1
281
     1
  3
ACAD_XREC_ROUNDTRIP
360
4FC
  0
DICTIONARY
  5
4FD
330
2E
100
AcDbDictionary
280
     1
281
     1
  3
ACAD_XREC_ROUNDTRIP
360
4FE
  0
DICTIONARY
  5
511
330
38
100
AcDbDictionary
280
     1
281
     1
  3
ACAD_XREC_ROUNDTRIP
360
512
  0
DICTIONARY
  5
507
330
33
100
AcDbDictionary
280
     1
281
     1
  3
ACAD_XREC_ROUNDTRIP
360
508
  0
DICTIONARY
  5
50F
330
37
100
AcDbDictionary
280
     1
281
     1
  3
ACAD_XREC_ROUNDTRIP
360
510
  0
XRECORD
  5
51A
102
{ACAD_REACTORS
330
519
102
}
330
519
100
AcDbXrecord
280
     1
102
MATERIAL
148
0.0
149
0.0
149
0.0
 93
        0
 94
      127
282
     0
 72
     1
 77
     1
171
     1
175
     1
179
     1
273
     0
  0
XRECORD
  5
518
102
{ACAD_REACTORS
330
517
102
}
330
517
100
AcDbXrecord
280
     1
102
MATERIAL
148
0.0
149
0.0
149
0.0
 93
        0
 94
      127
282
     0
 72
     1
 77
     1
171
     1
175
     1
179
     1
273
     0
  0
XRECORD
  5
51C
102
{ACAD_REACTORS
330
51B
102
}
330
51B
100
AcDbXrecord
280
     1
102
MATERIAL
148
0.0
149
0.0
149
0.0
 93
        0
 94
      127
282
     0
 72
     1
 77
     1
171
     1
175
     1
179
     1
273
     0
  0
XRECORD
  5
500
102
{ACAD_REACTORS
330
4FF
102
}
330
4FF
100
AcDbXrecord
280
     1
102
RTVSPropertyOp0
 70
     1
102
RTVSPropertyOp1
 70
     1
102
RTVSPropertyOp2
 70
     1
102
RTVSPropertyOp3
 70
     1
102
RTVSPropertyOp4
 70
     1
102
RTVSPropertyOp5
 70
     1
102
RTVSPropertyOp6
 70
     1
102
RTVSPropertyOp7
 70
     1
102
RTVSPropertyOp8
 70
     1
102
RTVSPropertyOp9
 70
     1
102
RTVSPropertyOp10
 70
     1
102
RTVSPropertyOp11
 70
     1
102
RTVSPropertyOp12
 70
     1
102
RTVSPropertyOp13
 70
     1
102
RTVSPropertyOp14
 70
     1
102
RTVSPropertyOp15
 70
     1
102
RTVSPropertyOp16
 70
     1
102
RTVSPropertyOp17
 70
     1
102
RTVSPropertyOp18
 70
     1
102
RTVSPropertyOp19
 70
     1
102
RTVSPropertyOp20
 70
     1
102
RTVSPropertyOp21
 70
     1
102
RTVSPropertyOp22
 70
     1
102
RTVSPropertyOp23
 70
     1
102
RTVSPropertyOp24
 70
     1
102
RTVSPropertyOp25
 70
     1
102
RTVSPropertyOp26
 70
     1
102
RTVSPropertyOp27
 70
     1
102
RTVSPropertyOp28
 70
     1
102
RTVSPropertyOp29
 70
     1
102
RTVSPropertyOp30
 70
     1
102
RTVSPropertyOp31
 70
     1
102
RTVSPropertyOp32
 70
     1
  0
XRECORD
  5
504
102
{ACAD_REACTORS
330
503
102
}
330
503
100
AcDbXrecord
280
     1
102
RTVSPropertyOp0
 70
     1
102
RTVSPropertyOp1
 70
     1
102
RTVSPropertyOp2
 70
     1
102
RTVSPropertyOp3
 70
     1
102
RTVSPropertyOp4
 70
     1
102
RTVSPropertyOp5
 70
     1
102
RTVSPropertyOp6
 70
     1
102
RTVSPropertyOp7
 70
     1
102
RTVSPropertyOp8
 70
     1
102
RTVSPropertyOp9
 70
     1
102
RTVSPropertyOp10
 70
     1
102
RTVSPropertyOp11
 70
     1
102
RTVSPropertyOp12
 70
     1
102
RTVSPropertyOp13
 70
     1
102
RTVSPropertyOp14
 70
     1
102
RTVSPropertyOp15
 70
     1
102
RTVSPropertyOp16
 70
     1
102
RTVSPropertyOp17
 70
     1
102
RTVSPropertyOp18
 70
     1
102
RTVSPropertyOp19
 70
     1
102
RTVSPropertyOp20
 70
     1
102
RTVSPropertyOp21
 70
     1
102
RTVSPropertyOp22
 70
     1
102
RTVSPropertyOp23
 70
     1
102
RTVSPropertyOp24
 70
     1
102
RTVSPropertyOp25
 70
     1
102
RTVSPropertyOp26
 70
     1
102
RTVSPropertyOp27
 70
     1
102
RTVSPropertyOp28
 70
     1
102
RTVSPropertyOp29
 70
     1
102
RTVSPropertyOp30
 70
     1
102
RTVSPropertyOp31
 70
     1
102
RTVSPropertyOp32
 70
     1
  0
XRECORD
  5
502
102
{ACAD_REACTORS
330
501
102
}
330
501
100
AcDbXrecord
280
     1
102
RTVSPropertyOp0
 70
     1
102
RTVSPropertyOp1
 70
     1
102
RTVSPropertyOp2
 70
     1
102
RTVSPropertyOp3
 70
     1
102
RTVSPropertyOp4
 70
     1
102
RTVSPropertyOp5
 70
     1
102
RTVSPropertyOp6
 70
     1
102
RTVSPropertyOp7
 70
     1
102
RTVSPropertyOp8
 70
     1
102
RTVSPropertyOp9
 70
     1
102
RTVSPropertyOp10
 70
     1
102
RTVSPropertyOp11
 70
     1
102
RTVSPropertyOp12
 70
     1
102
RTVSPropertyOp13
 70
     1
102
RTVSPropertyOp14
 70
     1
102
RTVSPropertyOp15
 70
     1
102
RTVSPropertyOp16
 70
     1
102
RTVSPropertyOp17
 70
     1
102
RTVSPropertyOp18
 70
     1
102
RTVSPropertyOp19
 70
     1
102
RTVSPropertyOp20
 70
     1
102
RTVSPropertyOp21
 70
     1
102
RTVSPropertyOp22
 70
     1
102
RTVSPropertyOp23
 70
     1
102
RTVSPropertyOp24
 70
     1
102
RTVSPropertyOp25
 70
     1
102
RTVSPropertyOp26
 70
     1
102
RTVSPropertyOp27
 70
     1
102
RTVSPropertyOp28
 70
     1
102
RTVSPropertyOp29
 70
     1
102
RTVSPropertyOp30
 70
     1
102
RTVSPropertyOp31
 70
     1
102
RTVSPropertyOp32
 70
     1
  0
XRECORD
  5
506
102
{ACAD_REACTORS
330
505
102
}
330
505
100
AcDbXrecord
280
     1
102
RTVSPropertyOp0
 70
     1
102
RTVSPropertyOp1
 70
     1
102
RTVSPropertyOp2
 70
     1
102
RTVSPropertyOp3
 70
     1
102
RTVSPropertyOp4
 70
     1
102
RTVSPropertyOp5
 70
     1
102
RTVSPropertyOp6
 70
     1
102
RTVSPropertyOp7
 70
     1
102
RTVSPropertyOp8
 70
     1
102
RTVSPropertyOp9
 70
     1
102
RTVSPropertyOp10
 70
     1
102
RTVSPropertyOp11
 70
     1
102
RTVSPropertyOp12
 70
     1
102
RTVSPropertyOp13
 70
     1
102
RTVSPropertyOp14
 70
     1
102
RTVSPropertyOp15
 70
     1
102
RTVSPropertyOp16
 70
     1
102
RTVSPropertyOp17
 70
     1
102
RTVSPropertyOp18
 70
     1
102
RTVSPropertyOp19
 70
     1
102
RTVSPropertyOp20
 70
     1
102
RTVSPropertyOp21
 70
     1
102
RTVSPropertyOp22
 70
     1
102
RTVSPropertyOp23
 70
     1
102
RTVSPropertyOp24
 70
     1
102
RTVSPropertyOp25
 70
     1
102
RTVSPropertyOp26
 70
     1
102
RTVSPropertyOp27
 70
     1
102
RTVSPropertyOp28
 70
     1
102
RTVSPropertyOp29
 70
     1
102
RTVSPropertyOp30
 70
     1
102
RTVSPropertyOp31
 70
     1
102
RTVSPropertyOp32
 70
     1
  0
XRECORD
  5
50E
102
{ACAD_REACTORS
330
50D
102
}
330
50D
100
AcDbXrecord
280
     1
102
RTVSPropertyOp0
 70
     1
102
RTVSPropertyOp1
 70
     1
102
RTVSPropertyOp2
 70
     1
102
RTVSPropertyOp3
 70
     1
102
RTVSPropertyOp4
 70
     1
102
RTVSPropertyOp5
 70
     1
102
RTVSPropertyOp6
 70
     1
102
RTVSPropertyOp7
 70
     1
102
RTVSPropertyOp8
 70
     1
102
RTVSPropertyOp9
 70
     1
102
RTVSPropertyOp10
 70
     1
102
RTVSPropertyOp11
 70
     1
102
RTVSPropertyOp12
 70
     1
102
RTVSPropertyOp13
 70
     1
102
RTVSPropertyOp14
 70
     1
102
RTVSPropertyOp15
 70
     1
102
RTVSPropertyOp16
 70
     1
102
RTVSPropertyOp17
 70
     1
102
RTVSPropertyOp18
 70
     1
102
RTVSPropertyOp19
 70
     1
102
RTVSPropertyOp20
 70
     1
102
RTVSPropertyOp21
 70
     1
102
RTVSPropertyOp22
 70
     1
102
RTVSPropertyOp23
 70
     1
102
RTVSPropertyOp24
 70
     1
102
RTVSPropertyOp25
 70
     1
102
RTVSPropertyOp26
 70
     1
102
RTVSPropertyOp27
 70
     1
102
RTVSPropertyOp28
 70
     1
102
RTVSPropertyOp29
 70
     1
102
RTVSPropertyOp30
 70
     1
102
RTVSPropertyOp31
 70
     1
102
RTVSPropertyOp32
 70
     1
  0
XRECORD
  5
516
102
{ACAD_REACTORS
330
515
102
}
330
515
100
AcDbXrecord
280
     1
102
RTVSPropertyOp0
 70
     1
102
RTVSPropertyOp1
 70
     1
102
RTVSPropertyOp2
 70
     1
102
RTVSPropertyOp3
 70
     1
102
RTVSPropertyOp4
 70
     1
102
RTVSPropertyOp5
 70
     1
102
RTVSPropertyOp6
 70
     1
102
RTVSPropertyOp7
 70
     1
102
RTVSPropertyOp8
 70
     1
102
RTVSPropertyOp9
 70
     1
102
RTVSPropertyOp10
 70
     1
102
RTVSPropertyOp11
 70
     1
102
RTVSPropertyOp12
 70
     1
102
RTVSPropertyOp13
 70
     1
102
RTVSPropertyOp14
 70
     1
102
RTVSPropertyOp15
 70
     1
102
RTVSPropertyOp16
 70
     1
102
RTVSPropertyOp17
 70
     1
102
RTVSPropertyOp18
 70
     1
102
RTVSPropertyOp19
 70
     1
102
RTVSPropertyOp20
 70
     1
102
RTVSPropertyOp21
 70
     1
102
RTVSPropertyOp22
 70
     1
102
RTVSPropertyOp23
 70
     1
102
RTVSPropertyOp24
 70
     1
102
RTVSPropertyOp25
 70
     1
102
RTVSPropertyOp26
 70
     1
102
RTVSPropertyOp27
 70
     1
102
RTVSPropertyOp28
 70
     1
102
RTVSPropertyOp29
 70
     1
102
RTVSPropertyOp30
 70
     1
102
RTVSPropertyOp31
 70
     1
102
RTVSPropertyOp32
 70
     1
  0
XRECORD
  5
50A
102
{ACAD_REACTORS
330
509
102
}
330
509
100
AcDbXrecord
280
     1
102
RTVSPropertyOp0
 70
     1
102
RTVSPropertyOp1
 70
     1
102
RTVSPropertyOp2
 70
     1
102
RTVSPropertyOp3
 70
     1
102
RTVSPropertyOp4
 70
     1
102
RTVSPropertyOp5
 70
     1
102
RTVSPropertyOp6
 70
     1
102
RTVSPropertyOp7
 70
     1
102
RTVSPropertyOp8
 70
     1
102
RTVSPropertyOp9
 70
     1
102
RTVSPropertyOp10
 70
     1
102
RTVSPropertyOp11
 70
     1
102
RTVSPropertyOp12
 70
     1
102
RTVSPropertyOp13
 70
     1
102
RTVSPropertyOp14
 70
     1
102
RTVSPropertyOp15
 70
     1
102
RTVSPropertyOp16
 70
     1
102
RTVSPropertyOp17
 70
     1
102
RTVSPropertyOp18
 70
     1
102
RTVSPropertyOp19
 70
     1
102
RTVSPropertyOp20
 70
     1
102
RTVSPropertyOp21
 70
     1
102
RTVSPropertyOp22
 70
     1
102
RTVSPropertyOp23
 70
     1
102
RTVSPropertyOp24
 70
     1
102
RTVSPropertyOp25
 70
     1
102
RTVSPropertyOp26
 70
     1
102
RTVSPropertyOp27
 70
     1
102
RTVSPropertyOp28
 70
     1
102
RTVSPropertyOp29
 70
     1
102
RTVSPropertyOp30
 70
     1
102
RTVSPropertyOp31
 70
     1
102
RTVSPropertyOp32
 70
     1
  0
XRECORD
  5
50C
102
{ACAD_REACTORS
330
50B
102
}
330
50B
100
AcDbXrecord
280
     1
102
RTVSPropertyOp0
 70
     1
102
RTVSPropertyOp1
 70
     1
102
RTVSPropertyOp2
 70
     1
102
RTVSPropertyOp3
 70
     1
102
RTVSPropertyOp4
 70
     1
102
RTVSPropertyOp5
 70
     1
102
RTVSPropertyOp6
 70
     1
102
RTVSPropertyOp7
 70
     1
102
RTVSPropertyOp8
 70
     1
102
RTVSPropertyOp9
 70
     1
102
RTVSPropertyOp10
 70
     1
102
RTVSPropertyOp11
 70
     1
102
RTVSPropertyOp12
 70
     1
102
RTVSPropertyOp13
 70
     1
102
RTVSPropertyOp14
 70
     1
102
RTVSPropertyOp15
 70
     1
102
RTVSPropertyOp16
 70
     1
102
RTVSPropertyOp17
 70
     1
102
RTVSPropertyOp18
 70
     1
102
RTVSPropertyOp19
 70
     1
102
RTVSPropertyOp20
 70
     1
102
RTVSPropertyOp21
 70
     1
102
RTVSPropertyOp22
 70
     1
102
RTVSPropertyOp23
 70
     1
102
RTVSPropertyOp24
 70
     1
102
RTVSPropertyOp25
 70
     1
102
RTVSPropertyOp26
 70
     1
102
RTVSPropertyOp27
 70
     1
102
RTVSPropertyOp28
 70
     1
102
RTVSPropertyOp29
 70
     1
102
RTVSPropertyOp30
 70
     1
102
RTVSPropertyOp31
 70
     1
102
RTVSPropertyOp32
 70
     1
  0
XRECORD
  5
514
102
{ACAD_REACTORS
330
513
102
}
330
513
100
AcDbXrecord
280
     1
102
RTVSPropertyOp0
 70
     1
102
RTVSPropertyOp1
 70
     1
102
RTVSPropertyOp2
 70
     1
102
RTVSPropertyOp3
 70
     1
102
RTVSPropertyOp4
 70
     1
102
RTVSPropertyOp5
 70
     1
102
RTVSPropertyOp6
 70
     1
102
RTVSPropertyOp7
 70
     1
102
RTVSPropertyOp8
 70
     1
102
RTVSPropertyOp9
 70
     1
102
RTVSPropertyOp10
 70
     1
102
RTVSPropertyOp11
 70
     1
102
RTVSPropertyOp12
 70
     1
102
RTVSPropertyOp13
 70
     1
102
RTVSPropertyOp14
 70
     1
102
RTVSPropertyOp15
 70
     1
102
RTVSPropertyOp16
 70
     1
102
RTVSPropertyOp17
 70
     1
102
RTVSPropertyOp18
 70
     1
102
RTVSPropertyOp19
 70
     1
102
RTVSPropertyOp20
 70
     1
102
RTVSPropertyOp21
 70
     1
102
RTVSPropertyOp22
 70
     1
102
RTVSPropertyOp23
 70
     1
102
RTVSPropertyOp24
 70
     1
102
RTVSPropertyOp25
 70
     1
102
RTVSPropertyOp26
 70
     1
102
RTVSPropertyOp27
 70
     1
102
RTVSPropertyOp28
 70
     1
102
RTVSPropertyOp29
 70
     1
102
RTVSPropertyOp30
 70
     1
102
RTVSPropertyOp31
 70
     1
102
RTVSPropertyOp32
 70
     1
  0
XRECORD
  5
4F8
102
{ACAD_REACTORS
330
4F7
102
}
330
4F7
100
AcDbXrecord
280
     1
102
RTVSPropertyOp0
 70
     1
102
RTVSPropertyOp1
 70
     1
102
RTVSPropertyOp2
 70
     1
102
RTVSPropertyOp3
 70
     1
102
RTVSPropertyOp4
 70
     1
102
RTVSPropertyOp5
 70
     1
102
RTVSPropertyOp6
 70
     1
102
RTVSPropertyOp7
 70
     1
102
RTVSPropertyOp8
 70
     1
102
RTVSPropertyOp9
 70
     1
102
RTVSPropertyOp10
 70
     1
102
RTVSPropertyOp11
 70
     1
102
RTVSPropertyOp12
 70
     1
102
RTVSPropertyOp13
 70
     1
102
RTVSPropertyOp14
 70
     1
102
RTVSPropertyOp15
 70
     1
102
RTVSPropertyOp16
 70
     1
102
RTVSPropertyOp17
 70
     1
102
RTVSPropertyOp18
 70
     1
102
RTVSPropertyOp19
 70
     1
102
RTVSPropertyOp20
 70
     1
102
RTVSPropertyOp21
 70
     1
102
RTVSPropertyOp22
 70
     1
102
RTVSPropertyOp23
 70
     1
102
RTVSPropertyOp24
 70
     1
102
RTVSPropertyOp25
 70
     1
102
RTVSPropertyOp26
 70
     1
102
RTVSPropertyOp27
 70
     1
102
RTVSPropertyOp28
 70
     1
102
RTVSPropertyOp29
 70
     1
102
RTVSPropertyOp30
 70
     1
102
RTVSPropertyOp31
 70
     1
102
RTVSPropertyOp32
 70
     1
  0
XRECORD
  5
4FA
102
{ACAD_REACTORS
330
4F9
102
}
330
4F9
100
AcDbXrecord
280
     1
102
RTVSPropertyOp0
 70
     1
102
RTVSPropertyOp1
 70
     1
102
RTVSPropertyOp2
 70
     1
102
RTVSPropertyOp3
 70
     1
102
RTVSPropertyOp4
 70
     1
102
RTVSPropertyOp5
 70
     1
102
RTVSPropertyOp6
 70
     1
102
RTVSPropertyOp7
 70
     1
102
RTVSPropertyOp8
 70
     1
102
RTVSPropertyOp9
 70
     1
102
RTVSPropertyOp10
 70
     1
102
RTVSPropertyOp11
 70
     1
102
RTVSPropertyOp12
 70
     1
102
RTVSPropertyOp13
 70
     1
102
RTVSPropertyOp14
 70
     1
102
RTVSPropertyOp15
 70
     1
102
RTVSPropertyOp16
 70
     1
102
RTVSPropertyOp17
 70
     1
102
RTVSPropertyOp18
 70
     1
102
RTVSPropertyOp19
 70
     1
102
RTVSPropertyOp20
 70
     1
102
RTVSPropertyOp21
 70
     1
102
RTVSPropertyOp22
 70
     1
102
RTVSPropertyOp23
 70
     1
102
RTVSPropertyOp24
 70
     1
102
RTVSPropertyOp25
 70
     1
102
RTVSPropertyOp26
 70
     1
102
RTVSPropertyOp27
 70
     1
102
RTVSPropertyOp28
 70
     1
102
RTVSPropertyOp29
 70
     1
102
RTVSPropertyOp30
 70
     1
102
RTVSPropertyOp31
 70
     1
102
RTVSPropertyOp32
 70
     1
  0
XRECORD
  5
4FC
102
{ACAD_REACTORS
330
4FB
102
}
330
4FB
100
AcDbXrecord
280
     1
102
RTVSPropertyOp0
 70
     1
102
RTVSPropertyOp1
 70
     1
102
RTVSPropertyOp2
 70
     1
102
RTVSPropertyOp3
 70
     1
102
RTVSPropertyOp4
 70
     1
102
RTVSPropertyOp5
 70
     1
102
RTVSPropertyOp6
 70
     1
102
RTVSPropertyOp7
 70
     1
102
RTVSPropertyOp8
 70
     1
102
RTVSPropertyOp9
 70
     1
102
RTVSPropertyOp10
 70
     1
102
RTVSPropertyOp11
 70
     1
102
RTVSPropertyOp12
 70
     1
102
RTVSPropertyOp13
 70
     1
102
RTVSPropertyOp14
 70
     1
102
RTVSPropertyOp15
 70
     1
102
RTVSPropertyOp16
 70
     1
102
RTVSPropertyOp17
 70
     1
102
RTVSPropertyOp18
 70
     1
102
RTVSPropertyOp19
 70
     1
102
RTVSPropertyOp20
 70
     1
102
RTVSPropertyOp21
 70
     1
102
RTVSPropertyOp22
 70
     1
102
RTVSPropertyOp23
 70
     1
102
RTVSPropertyOp24
 70
     1
102
RTVSPropertyOp25
 70
     1
102
RTVSPropertyOp26
 70
     1
102
RTVSPropertyOp27
 70
     1
102
RTVSPropertyOp28
 70
     1
102
RTVSPropertyOp29
 70
     1
102
RTVSPropertyOp30
 70
     1
102
RTVSPropertyOp31
 70
     1
102
RTVSPropertyOp32
 70
     1
  0
XRECORD
  5
4FE
102
{ACAD_REACTORS
330
4FD
102
}
330
4FD
100
AcDbXrecord
280
     1
102
RTVSPropertyOp0
 70
     1
102
RTVSPropertyOp1
 70
     1
102
RTVSPropertyOp2
 70
     1
102
RTVSPropertyOp3
 70
     1
102
RTVSPropertyOp4
 70
     1
102
RTVSPropertyOp5
 70
     1
102
RTVSPropertyOp6
 70
     1
102
RTVSPropertyOp7
 70
     1
102
RTVSPropertyOp8
 70
     1
102
RTVSPropertyOp9
 70
     1
102
RTVSPropertyOp10
 70
     1
102
RTVSPropertyOp11
 70
     1
102
RTVSPropertyOp12
 70
     1
102
RTVSPropertyOp13
 70
     1
102
RTVSPropertyOp14
 70
     1
102
RTVSPropertyOp15
 70
     1
102
RTVSPropertyOp16
 70
     1
102
RTVSPropertyOp17
 70
     1
102
RTVSPropertyOp18
 70
     1
102
RTVSPropertyOp19
 70
     1
102
RTVSPropertyOp20
 70
     1
102
RTVSPropertyOp21
 70
     1
102
RTVSPropertyOp22
 70
     1
102
RTVSPropertyOp23
 70
     1
102
RTVSPropertyOp24
 70
     1
102
RTVSPropertyOp25
 70
     1
102
RTVSPropertyOp26
 70
     1
102
RTVSPropertyOp27
 70
     1
102
RTVSPropertyOp28
 70
     1
102
RTVSPropertyOp29
 70
     1
102
RTVSPropertyOp30
 70
     1
102
RTVSPropertyOp31
 70
     1
102
RTVSPropertyOp32
 70
     1
  0
XRECORD
  5
512
102
{ACAD_REACTORS
330
511
102
}
330
511
100
AcDbXrecord
280
     1
102
RTVSPropertyOp0
 70
     1
102
RTVSPropertyOp1
 70
     1
102
RTVSPropertyOp2
 70
     1
102
RTVSPropertyOp3
 70
     1
102
RTVSPropertyOp4
 70
     1
102
RTVSPropertyOp5
 70
     1
102
RTVSPropertyOp6
 70
     1
102
RTVSPropertyOp7
 70
     1
102
RTVSPropertyOp8
 70
     1
102
RTVSPropertyOp9
 70
     1
102
RTVSPropertyOp10
 70
     1
102
RTVSPropertyOp11
 70
     1
102
RTVSPropertyOp12
 70
     1
102
RTVSPropertyOp13
 70
     1
102
RTVSPropertyOp14
 70
     1
102
RTVSPropertyOp15
 70
     1
102
RTVSPropertyOp16
 70
     1
102
RTVSPropertyOp17
 70
     1
102
RTVSPropertyOp18
 70
     1
102
RTVSPropertyOp19
 70
     1
102
RTVSPropertyOp20
 70
     1
102
RTVSPropertyOp21
 70
     1
102
RTVSPropertyOp22
 70
     1
102
RTVSPropertyOp23
 70
     1
102
RTVSPropertyOp24
 70
     1
102
RTVSPropertyOp25
 70
     1
102
RTVSPropertyOp26
 70
     1
102
RTVSPropertyOp27
 70
     1
102
RTVSPropertyOp28
 70
     1
102
RTVSPropertyOp29
 70
     1
102
RTVSPropertyOp30
 70
     1
102
RTVSPropertyOp31
 70
     1
102
RTVSPropertyOp32
 70
     1
  0
XRECORD
  5
508
102
{ACAD_REACTORS
330
507
102
}
330
507
100
AcDbXrecord
280
     1
102
RTVSPropertyOp0
 70
     1
102
RTVSPropertyOp1
 70
     1
102
RTVSPropertyOp2
 70
     1
102
RTVSPropertyOp3
 70
     1
102
RTVSPropertyOp4
 70
     1
102
RTVSPropertyOp5
 70
     1
102
RTVSPropertyOp6
 70
     1
102
RTVSPropertyOp7
 70
     1
102
RTVSPropertyOp8
 70
     1
102
RTVSPropertyOp9
 70
     1
102
RTVSPropertyOp10
 70
     1
102
RTVSPropertyOp11
 70
     1
102
RTVSPropertyOp12
 70
     1
102
RTVSPropertyOp13
 70
     1
102
RTVSPropertyOp14
 70
     1
102
RTVSPropertyOp15
 70
     1
102
RTVSPropertyOp16
 70
     1
102
RTVSPropertyOp17
 70
     1
102
RTVSPropertyOp18
 70
     1
102
RTVSPropertyOp19
 70
     1
102
RTVSPropertyOp20
 70
     1
102
RTVSPropertyOp21
 70
     1
102
RTVSPropertyOp22
 70
     1
102
RTVSPropertyOp23
 70
     1
102
RTVSPropertyOp24
 70
     1
102
RTVSPropertyOp25
 70
     1
102
RTVSPropertyOp26
 70
     1
102
RTVSPropertyOp27
 70
     1
102
RTVSPropertyOp28
 70
     1
102
RTVSPropertyOp29
 70
     1
102
RTVSPropertyOp30
 70
     1
102
RTVSPropertyOp31
 70
     1
102
RTVSPropertyOp32
 70
     1
  0
XRECORD
  5
510
102
{ACAD_REACTORS
330
50F
102
}
330
50F
100
AcDbXrecord
280
     1
102
RTVSPropertyOp0
 70
     1
102
RTVSPropertyOp1
 70
     1
102
RTVSPropertyOp2
 70
     1
102
RTVSPropertyOp3
 70
     1
102
RTVSPropertyOp4
 70
     1
102
RTVSPropertyOp5
 70
     1
102
RTVSPropertyOp6
 70
     1
102
RTVSPropertyOp7
 70
     1
102
RTVSPropertyOp8
 70
     1
102
RTVSPropertyOp9
 70
     1
102
RTVSPropertyOp10
 70
     1
102
RTVSPropertyOp11
 70
     1
102
RTVSPropertyOp12
 70
     1
102
RTVSPropertyOp13
 70
     1
102
RTVSPropertyOp14
 70
     1
102
RTVSPropertyOp15
 70
     1
102
RTVSPropertyOp16
 70
     1
102
RTVSPropertyOp17
 70
     1
102
RTVSPropertyOp18
 70
     1
102
RTVSPropertyOp19
 70
     1
102
RTVSPropertyOp20
 70
     1
102
RTVSPropertyOp21
 70
     1
102
RTVSPropertyOp22
 70
     1
102
RTVSPropertyOp23
 70
     1
102
RTVSPropertyOp24
 70
     1
102
RTVSPropertyOp25
 70
     1
102
RTVSPropertyOp26
 70
     1
102
RTVSPropertyOp27
 70
     1
102
RTVSPropertyOp28
 70
     1
102
RTVSPropertyOp29
 70
     1
102
RTVSPropertyOp30
 70
     1
102
RTVSPropertyOp31
 70
     1
102
RTVSPropertyOp32
 70
     1
  0
ENDSEC
  0
EOF
