  0
SECTION
  2
HEADER
  9
$ACADVER
  1
AC1015
  9
$ACADMAINTVER
 70
     6
  9
$DWGCODEPAGE
  3
ANSI_949
  9
$INSBASE
 10
0.0
 20
0.0
 30
0.0
  9
$EXTMIN
 10
1.000000000000000E+20
 20
1.000000000000000E+20
 30
1.000000000000000E+20
  9
$EXTMAX
 10
-1.000000000000000E+20
 20
-1.000000000000000E+20
 30
-1.000000000000000E+20
  9
$LIMMIN
 10
0.0
 20
0.0
  9
$LIMMAX
 10
12.0
 20
9.0
  9
$ORTHOMODE
 70
     0
  9
$REGENMODE
 70
     1
  9
$FILLMODE
 70
     1
  9
$QTEXTMODE
 70
     0
  9
$MIRRTEXT
 70
     1
  9
$LTSCALE
 40
1.0
  9
$ATTMODE
 70
     1
  9
$TEXTSIZE
 40
0.2
  9
$TRACEWID
 40
0.05
  9
$TEXTSTYLE
  7
Standard
  9
$CLAYER
  8
0
  9
$CELTYPE
  6
ByLayer
  9
$CECOLOR
 62
   256
  9
$CELTSCALE
 40
1.0
  9
$DISPSILH
 70
     0
  9
$DIMSCALE
 40
1.0
  9
$DIMASZ
 40
0.18
  9
$DIMEXO
 40
0.0625
  9
$DIMDLI
 40
0.38
  9
$DIMRND
 40
0.0
  9
$DIMDLE
 40
0.0
  9
$DIMEXE
 40
0.18
  9
$DIMTP
 40
0.0
  9
$DIMTM
 40
0.0
  9
$DIMTXT
 40
0.18
  9
$DIMCEN
 40
0.09
  9
$DIMTSZ
 40
0.0
  9
$DIMTOL
 70
     0
  9
$DIMLIM
 70
     0
  9
$DIMTIH
 70
     1
  9
$DIMTOH
 70
     1
  9
$DIMSE1
 70
     0
  9
$DIMSE2
 70
     0
  9
$DIMTAD
 70
     0
  9
$DIMZIN
 70
     0
  9
$DIMBLK
  1

  9
$DIMASO
 70
     1
  9
$DIMSHO
 70
     1
  9
$DIMPOST
  1

  9
$DIMAPOST
  1

  9
$DIMALT
 70
     0
  9
$DIMALTD
 70
     2
  9
$DIMALTF
 40
25.4
  9
$DIMLFAC
 40
1.0
  9
$DIMTOFL
 70
     0
  9
$DIMTVP
 40
0.0
  9
$DIMTIX
 70
     0
  9
$DIMSOXD
 70
     0
  9
$DIMSAH
 70
     0
  9
$DIMBLK1
  1

  9
$DIMBLK2
  1

  9
$DIMSTYLE
  2
Standard
  9
$DIMCLRD
 70
     0
  9
$DIMCLRE
 70
     0
  9
$DIMCLRT
 70
     0
  9
$DIMTFAC
 40
1.0
  9
$DIMGAP
 40
0.09
  9
$DIMJUST
 70
     0
  9
$DIMSD1
 70
     0
  9
$DIMSD2
 70
     0
  9
$DIMTOLJ
 70
     1
  9
$DIMTZIN
 70
     0
  9
$DIMALTZ
 70
     0
  9
$DIMALTTZ
 70
     0
  9
$DIMUPT
 70
     0
  9
$DIMDEC
 70
     4
  9
$DIMTDEC
 70
     4
  9
$DIMALTU
 70
     2
  9
$DIMALTTD
 70
     2
  9
$DIMTXSTY
  7
Standard
  9
$DIMAUNIT
 70
     0
  9
$DIMADEC
 70
     0
  9
$DIMALTRND
 40
0.0
  9
$DIMAZIN
 70
     0
  9
$DIMDSEP
 70
    46
  9
$DIMATFIT
 70
     3
  9
$DIMFRAC
 70
     0
  9
$DIMLDRBLK
  1

  9
$DIMLUNIT
 70
     2
  9
$DIMLWD
 70
    -2
  9
$DIMLWE
 70
    -2
  9
$DIMTMOVE
 70
     0
  9
$LUNITS
 70
     2
  9
$LUPREC
 70
     4
  9
$SKETCHINC
 40
0.1
  9
$FILLETRAD
 40
0.5
  9
$AUNITS
 70
     0
  9
$AUPREC
 70
     0
  9
$MENU
  1
.
  9
$ELEVATION
 40
0.0
  9
$PELEVATION
 40
0.0
  9
$THICKNESS
 40
0.0
  9
$LIMCHECK
 70
     0
  9
$CHAMFERA
 40
0.5
  9
$CHAMFERB
 40
0.5
  9
$CHAMFERC
 40
1.0
  9
$CHAMFERD
 40
0.0
  9
$SKPOLY
 70
     0
  9
$TDCREATE
 40
2456522.580859178
  9
$TDUCREATE
 40
2456522.080859178
  9
$TDUPDATE
 40
2456522.580888264
  9
$TDUUPDATE
 40
2456522.080888264
  9
$TDINDWG
 40
0.0000000116
  9
$TDUSRTIMER
 40
0.0000000116
  9
$USRTIMER
 70
     1
  9
$ANGBASE
 50
0.0
  9
$ANGDIR
 70
     0
  9
$PDMODE
 70
     0
  9
$PDSIZE
 40
0.0
  9
$PLINEWID
 40
0.0
  9
$SPLFRAME
 70
     0
  9
$SPLINETYPE
 70
     6
  9
$SPLINESEGS
 70
     8
  9
$HANDSEED
  5
5D4
  9
$SURFTAB1
 70
     6
  9
$SURFTAB2
 70
     6
  9
$SURFTYPE
 70
     6
  9
$SURFU
 70
     6
  9
$SURFV
 70
     6
  9
$UCSBASE
  2

  9
$UCSNAME
  2

  9
$UCSORG
 10
0.0
 20
0.0
 30
0.0
  9
$UCSXDIR
 10
1.0
 20
0.0
 30
0.0
  9
$UCSYDIR
 10
0.0
 20
1.0
 30
0.0
  9
$UCSORTHOREF
  2

  9
$UCSORTHOVIEW
 70
     0
  9
$UCSORGTOP
 10
0.0
 20
0.0
 30
0.0
  9
$UCSORGBOTTOM
 10
0.0
 20
0.0
 30
0.0
  9
$UCSORGLEFT
 10
0.0
 20
0.0
 30
0.0
  9
$UCSORGRIGHT
 10
0.0
 20
0.0
 30
0.0
  9
$UCSORGFRONT
 10
0.0
 20
0.0
 30
0.0
  9
$UCSORGBACK
 10
0.0
 20
0.0
 30
0.0
  9
$PUCSBASE
  2

  9
$PUCSNAME
  2

  9
$PUCSORG
 10
0.0
 20
0.0
 30
0.0
  9
$PUCSXDIR
 10
1.0
 20
0.0
 30
0.0
  9
$PUCSYDIR
 10
0.0
 20
1.0
 30
0.0
  9
$PUCSORTHOREF
  2

  9
$PUCSORTHOVIEW
 70
     0
  9
$PUCSORGTOP
 10
0.0
 20
0.0
 30
0.0
  9
$PUCSORGBOTTOM
 10
0.0
 20
0.0
 30
0.0
  9
$PUCSORGLEFT
 10
0.0
 20
0.0
 30
0.0
  9
$PUCSORGRIGHT
 10
0.0
 20
0.0
 30
0.0
  9
$PUCSORGFRONT
 10
0.0
 20
0.0
 30
0.0
  9
$PUCSORGBACK
 10
0.0
 20
0.0
 30
0.0
  9
$USERI1
 70
     0
  9
$USERI2
 70
     0
  9
$USERI3
 70
     0
  9
$USERI4
 70
     0
  9
$USERI5
 70
     0
  9
$USERR1
 40
0.0
  9
$USERR2
 40
0.0
  9
$USERR3
 40
0.0
  9
$USERR4
 40
0.0
  9
$USERR5
 40
0.0
  9
$WORLDVIEW
 70
     1
  9
$SHADEDGE
 70
     3
  9
$SHADEDIF
 70
    70
  9
$TILEMODE
 70
     1
  9
$MAXACTVP
 70
    64
  9
$PINSBASE
 10
0.0
 20
0.0
 30
0.0
  9
$PLIMCHECK
 70
     0
  9
$PEXTMIN
 10
1.000000000000000E+20
 20
1.000000000000000E+20
 30
1.000000000000000E+20
  9
$PEXTMAX
 10
-1.000000000000000E+20
 20
-1.000000000000000E+20
 30
-1.000000000000000E+20
  9
$PLIMMIN
 10
0.0
 20
0.0
  9
$PLIMMAX
 10
12.0
 20
9.0
  9
$UNITMODE
 70
     0
  9
$VISRETAIN
 70
     1
  9
$PLINEGEN
 70
     0
  9
$PSLTSCALE
 70
     1
  9
$TREEDEPTH
 70
  3020
  9
$CMLSTYLE
  2
Standard
  9
$CMLJUST
 70
     0
  9
$CMLSCALE
 40
1.0
  9
$PROXYGRAPHICS
 70
     1
  9
$MEASUREMENT
 70
     0
  9
$CELWEIGHT
370
    -1
  9
$ENDCAPS
280
     0
  9
$JOINSTYLE
280
     0
  9
$LWDISPLAY
290
     1
  9
$INSUNITS
 70
     4
  9
$HYPERLINKBASE
  1

  9
$STYLESHEET
  1

  9
$XEDIT
290
     1
  9
$CEPSNTYPE
380
     0
  9
$PSTYLEMODE
290
     1
  9
$FINGERPRINTGUID
  2
{ABC411B5-FC73-42DD-A1E8-76E75CE7DB3C}
  9
$VERSIONGUID
  2
{FAEB1C32-E019-11D5-929B-00C0DF256EC4}
  9
$EXTNAMES
290
     1
  9
$PSVPSCALE
 40
0.0
  9
$OLESTARTUP
290
     0
  0
ENDSEC
  0
SECTION
  2
CLASSES
  0
CLASS
  1
ACDBDICTIONARYWDFLT
  2
AcDbDictionaryWithDefault
  3
ObjectDBX Classes
 90
        0
280
     0
281
     0
  0
CLASS
  1
VISUALSTYLE
  2
AcDbVisualStyle
  3
ObjectDBX Classes
 90
     4095
280
     0
281
     0
  0
CLASS
  1
MATERIAL
  2
AcDbMaterial
  3
ObjectDBX Classes
 90
     1153
280
     0
281
     0
  0
CLASS
  1
SPATIAL_FILTER
  2
AcDbSpatialFilter
  3
ObjectDBX Classes
 90
        0
280
     0
281
     0
  0
CLASS
  1
SCALE
  2
AcDbScale
  3
ObjectDBX Classes
 90
     1153
280
     0
281
     0
  0
CLASS
  1
DICTIONARYVAR
  2
AcDbDictionaryVar
  3
ObjectDBX Classes
 90
        0
280
     0
281
     0
  0
CLASS
  1
ACDBPLACEHOLDER
  2
AcDbPlaceHolder
  3
ObjectDBX Classes
 90
        0
280
     0
281
     0
  0
CLASS
  1
LAYOUT
  2
AcDbLayout
  3
ObjectDBX Classes
 90
        0
280
     0
281
     0
  0
ENDSEC
  0
SECTION
  2
TABLES
  0
TABLE
  2
VPORT
  5
8
330
0
100
AcDbSymbolTable
 70
     1
  0
VPORT
  5
29
330
8
100
AcDbSymbolTableRecord
100
AcDbViewportTableRecord
  2
*Active
 70
     0
 10
0.0
 20
0.0
 11
1.0
 21
1.0
 12
148.6203422501967
 22
97.01054600287482
 13
0.0
 23
0.0
 14
0.5
 24
0.5
 15
0.5
 25
0.5
 16
0.0
 26
0.0
 36
1.0
 17
0.0
 27
0.0
 37
0.0
 40
193.7666017324761
 41
1.490997388632183
 42
50.0
 43
0.0
 44
0.0
 50
0.0
 51
0.0
 71
     0
 72
   100
 73
     1
 74
     3
 75
     0
 76
     0
 77
     0
 78
     0
281
     0
 65
     1
110
0.0
120
0.0
130
0.0
111
1.0
121
0.0
131
0.0
112
0.0
122
1.0
132
0.0
 79
     0
146
0.0
  0
ENDTAB
  0
TABLE
  2
LTYPE
  5
5
330
0
100
AcDbSymbolTable
 70
     2
  0
LTYPE
  5
14
330
5
100
AcDbSymbolTableRecord
100
AcDbLinetypeTableRecord
  2
ByBlock
 70
     0
  3

 72
    65
 73
     0
 40
0.0
  0
LTYPE
  5
15
330
5
100
AcDbSymbolTableRecord
100
AcDbLinetypeTableRecord
  2
ByLayer
 70
     0
  3

 72
    65
 73
     0
 40
0.0
  0
LTYPE
  5
16
330
5
100
AcDbSymbolTableRecord
100
AcDbLinetypeTableRecord
  2
Continuous
 70
     0
  3
Solid line
 72
    65
 73
     0
 40
0.0
  0
LTYPE
  5
11E
330
5
100
AcDbSymbolTableRecord
100
AcDbLinetypeTableRecord
  2
Dashed
 70
     0
  3
- - - - - 
 72
    65
 73
     2
 40
5.644444465637207
 49
2.822222232818604
 74
     0
 49
-2.822222232818603
 74
     0
  0
ENDTAB
  0
TABLE
  2
LAYER
  5
2
330
0
100
AcDbSymbolTable
 70
     3
  0
LAYER
  5
10
330
2
100
AcDbSymbolTableRecord
100
AcDbLayerTableRecord
  2
0
 70
     0
 62
     7
  6
Continuous
370
    -3
390
F
  0
LAYER
  5
40
330
2
100
AcDbSymbolTableRecord
100
AcDbLayerTableRecord
  2
Doc_ Finishes
 70
     0
 62
     7
  6
Continuous
370
    -3
390
F
  0
LAYER
  5
DB
330
2
100
AcDbSymbolTableRecord
100
AcDbLayerTableRecord
  2
Doc_ Floor
 70
     0
 62
     7
  6
Continuous
370
    -3
390
F
  0
ENDTAB
  0
TABLE
  2
STYLE
  5
3
330
0
100
AcDbSymbolTable
 70
     4
  0
STYLE
  5
11
330
3
100
AcDbSymbolTableRecord
100
AcDbTextStyleTableRecord
  2
Standard
 70
     0
 40
0.0
 41
1.0
 50
0.0
 71
     0
 42
0.2
  3
txt
  4

  0
STYLE
  5
D6
330
3
100
AcDbSymbolTableRecord
100
AcDbTextStyleTableRecord
  2
GENERATED_STYLE_1
 70
     0
 40
0.0
 41
1.0
 50
0.0
 71
     0
 42
0.2
  3

  4

1001
ACAD
1000
Century Gothic
1071
       34
  0
STYLE
  5
D9
330
3
100
AcDbSymbolTableRecord
100
AcDbTextStyleTableRecord
  2
GENERATED_STYLE_2
 70
     0
 40
0.0
 41
1.0
 50
0.0
 71
     0
 42
0.2
  3

  4

1001
ACAD
1000
DilleniaUPC
1071
 33554450
  0
STYLE
  5
142
330
3
100
AcDbSymbolTableRecord
100
AcDbTextStyleTableRecord
  2
GENERATED_STYLE_3
 70
     0
 40
0.0
 41
1.0
 50
0.0
 71
     0
 42
0.2
  3

  4

1001
ACAD
1000
Arial
1071
       34
  0
ENDTAB
  0
TABLE
  2
VIEW
  5
6
330
0
100
AcDbSymbolTable
 70
     0
  0
ENDTAB
  0
TABLE
  2
UCS
  5
7
330
0
100
AcDbSymbolTable
 70
     0
  0
ENDTAB
  0
TABLE
  2
APPID
  5
9
330
0
100
AcDbSymbolTable
 70
     1
  0
APPID
  5
12
330
9
100
AcDbSymbolTableRecord
100
AcDbRegAppTableRecord
  2
ACAD
 70
     0
  0
ENDTAB
  0
TABLE
  2
DIMSTYLE
  5
A
330
0
100
AcDbSymbolTable
 70
     1
100
AcDbDimStyleTable
  0
DIMSTYLE
105
27
330
A
100
AcDbSymbolTableRecord
100
AcDbDimStyleTableRecord
  2
Standard
 70
     0
178
     0
340
11
  0
ENDTAB
  0
TABLE
  2
BLOCK_RECORD
  5
1
330
0
100
AcDbSymbolTable
 70
     3
  0
BLOCK_RECORD
  5
1F
330
1
100
AcDbSymbolTableRecord
100
AcDbBlockTableRecord
  2
*Model_Space
340
22
  0
BLOCK_RECORD
  5
1B
330
1
100
AcDbSymbolTableRecord
100
AcDbBlockTableRecord
  2
*Paper_Space
340
1E
  0
BLOCK_RECORD
  5
E3
330
1
100
AcDbSymbolTableRecord
100
AcDbBlockTableRecord
  2
Drawing_1_2
340
0
102
{BLKREFS
331
57A
102
}
  0
BLOCK_RECORD
  5
57E
330
1
100
AcDbSymbolTableRecord
100
AcDbBlockTableRecord
  2
R-TRS6-06 BARGE DETAIL - HEAD_STORY_MARKER
340
0
  0
ENDTAB
  0
ENDSEC
  0
SECTION
  2
BLOCKS
  0
BLOCK
  5
20
330
1F
100
AcDbEntity
  8
0
100
AcDbBlockBegin
  2
*Model_Space
 70
     0
 10
0.0
 20
0.0
 30
0.0
  3
*Model_Space
  1

  0
ENDBLK
  5
21
330
1F
100
AcDbEntity
  8
0
100
AcDbBlockEnd
  0
BLOCK
  5
1C
330
1B
100
AcDbEntity
 67
     1
  8
0
100
AcDbBlockBegin
  2
*Paper_Space
 70
     0
 10
0.0
 20
0.0
 30
0.0
  3
*Paper_Space
  1

  0
ENDBLK
  5
1D
330
1B
100
AcDbEntity
 67
     1
  8
0
100
AcDbBlockEnd
  0
BLOCK
  5
E4
330
E3
100
AcDbEntity
  8
0
100
AcDbBlockBegin
  2
Drawing_1_2
 70
     0
 10
107.2260115974659
 20
-35.16744529250214
 30
0.0
  3
Drawing_1_2
  1

  0
HATCH
  5
E6
330
E3
100
AcDbEntity
  8
0
  6
Continuous
 62
   255
370
     0
100
AcDbHatch
 10
0.0
 20
0.0
 30
0.0
210
0.0
220
0.0
230
1.0
  2
SOLID
 70
     1
 71
     0
 91
        1
 92
        3
 72
     0
 73
     1
 93
        4
 10
139.5725703313196
 20
32.4027868319835
 10
268.2951204155992
 20
32.4027868319835
 10
268.2951204155992
 20
105.2866077618993
 10
139.5725703313196
 20
127.9838673464639
 97
        0
 75
     0
 76
     1
 98
        0
  0
HATCH
  5
E7
330
E3
100
AcDbEntity
  8
0
  6
Continuous
 62
   255
370
     0
100
AcDbHatch
 10
0.0
 20
0.0
 30
0.0
210
0.0
220
0.0
230
1.0
  2
SOLID
 70
     1
 71
     0
 91
        1
 92
        3
 72
     0
 73
     1
 93
        4
 10
139.5725642695223
 20
127.9838682952208
 10
268.2951251912679
 20
105.2866110479837
 10
268.2951251912679
 20
123.564288958505
 10
139.5725642695223
 20
146.2615462057422
 97
        0
 75
     0
 76
     1
 98
        0
  0
LINE
  5
E8
330
E3
100
AcDbEntity
  8
0
  6
Continuous
100
AcDbLine
 10
139.5725642695223
 20
146.2615473091642
 30
0.0
 11
268.2951251912679
 21
123.5642900619271
 31
0.0
  0
LINE
  5
E9
330
E3
100
AcDbEntity
  8
0
  6
Continuous
100
AcDbLine
 10
139.572569603554
 20
127.9838711399741
 30
0.0
 11
139.572569603554
 21
146.2615502536416
 31
0.0
  0
LINE
  5
EA
330
E3
100
AcDbEntity
  8
0
  6
Continuous
100
AcDbLine
 10
268.2951204155992
 20
105.2866077618993
 30
0.0
 11
139.5725703313196
 21
127.9838673464639
 31
0.0
  0
HATCH
  5
EB
330
E3
100
AcDbEntity
  8
0
  6
Continuous
 62
   255
370
     0
100
AcDbHatch
 10
0.0
 20
0.0
 30
0.0
210
0.0
220
0.0
230
1.0
  2
SOLID
 70
     1
 71
     0
 91
        1
 92
        3
 72
     0
 73
     1
 93
        4
 10
268.2951204155992
 20
40.18768148619853
 10
139.5725703313196
 20
40.18768148619853
 10
139.5725703313196
 20
32.4027868319835
 10
268.2951204155992
 20
32.4027868319835
 97
        0
 75
     0
 76
     1
 98
        0
  0
LINE
  5
EC
330
E3
100
AcDbEntity
  8
0
  6
Continuous
100
AcDbLine
 10
139.5725662413803
 20
40.18768275541628
 30
0.0
 11
268.2951239349237
 21
40.18768275541628
 31
0.0
  0
LINE
  5
ED
330
E3
100
AcDbEntity
  8
0
  6
Continuous
100
AcDbLine
 10
139.572569603554
 20
32.40279198529486
 30
0.0
 11
139.572569603554
 21
40.18768229263806
 31
0.0
  0
HATCH
  5
EE
330
E3
100
AcDbEntity
  8
0
  6
Continuous
 62
   255
370
     0
100
AcDbHatch
 10
0.0
 20
0.0
 30
0.0
210
0.0
220
0.0
230
1.0
  2
SOLID
 70
     1
 71
     0
 91
        1
 92
        3
 72
     0
 73
     1
 93
        4
 10
149.572568411742
 20
40.18768281630238
 10
149.572568411742
 20
126.2206014342968
 10
139.572568411742
 20
127.9838712413814
 10
139.572568411742
 20
40.18768281630238
 97
        0
 75
     0
 76
     1
 98
        0
  0
LINE
  5
EF
330
E3
100
AcDbEntity
  8
0
  6
Continuous
100
AcDbLine
 10
149.5725681187243
 20
126.2205998912586
 30
0.0
 11
149.5725681187243
 21
40.18768165454389
 31
0.0
  0
LINE
  5
F0
330
E3
100
AcDbEntity
  8
0
  6
Continuous
100
AcDbLine
 10
139.572569603554
 20
127.9838711399741
 30
0.0
 11
149.5725681187243
 21
126.2205998912586
 31
0.0
  0
LINE
  5
F1
330
E3
100
AcDbEntity
  8
0
  6
Continuous
100
AcDbLine
 10
139.572569603554
 20
40.18768165454389
 30
0.0
 11
139.572569603554
 21
127.9838711399741
 31
0.0
  0
LINE
  5
F2
330
E3
100
AcDbEntity
  8
0
  6
Continuous
100
AcDbLine
 10
149.5725681187243
 20
40.18768165454389
 30
0.0
 11
139.572569603554
 21
40.18768165454389
 31
0.0
  0
HATCH
  5
F3
330
E3
100
AcDbEntity
  8
0
  6
Continuous
 62
   255
370
     0
100
AcDbHatch
 10
0.0
 20
0.0
 30
0.0
210
0.0
220
0.0
230
1.0
  2
SOLID
 70
     1
 71
     0
 91
        1
 92
        3
 72
     0
 73
     1
 93
        5
 10
149.5725673034869
 20
40.1876810653721
 10
163.416589144229
 20
40.1876810653721
 10
268.2951211393186
 20
80.80814944083514
 10
268.2951211393186
 20
91.53199399575237
 10
149.5725673034869
 20
45.54960538638562
 97
        0
 75
     0
 76
     1
 98
        0
  0
LINE
  5
F4
330
E3
100
AcDbEntity
  8
0
  6
Continuous
100
AcDbLine
 10
268.2951211393186
 20
80.80814944083514
 30
0.0
 11
163.416589144229
 21
40.1876810653721
 31
0.0
  0
LINE
  5
F5
330
E3
100
AcDbEntity
  8
0
  6
Continuous
100
AcDbLine
 10
149.5725684897948
 20
45.54960536250537
 30
0.0
 11
268.2951213141043
 21
91.53200008395777
 31
0.0
  0
LINE
  5
F6
330
E3
100
AcDbEntity
  8
0
  6
Continuous
100
AcDbLine
 10
149.5725681187243
 20
40.18768165454389
 30
0.0
 11
149.5725681187243
 21
45.54960607359671
 31
0.0
  0
LINE
  5
F7
330
E3
100
AcDbEntity
  8
0
  6
Continuous
100
AcDbLine
 10
163.4165887883929
 20
40.18768165454389
 30
0.0
 11
149.5725681187243
 21
40.18768165454389
 31
0.0
  0
HATCH
  5
F8
330
E3
100
AcDbEntity
  8
0
  6
Continuous
 62
   253
370
    25
100
AcDbHatch
 10
0.0
 20
0.0
 30
0.0
210
0.0
220
0.0
230
1.0
  2
SOLID
 70
     1
 71
     0
 91
        1
 92
        3
 72
     0
 73
     1
 93
        4
 10
132.7797202068282
 20
158.6985152161107
 10
237.7892622935412
 20
140.182499714382
 10
238.6922328174093
 20
145.3035000300455
 10
133.6826907306962
 20
163.8195155317742
 97
        0
 75
     0
 76
     1
 98
        0
  0
LINE
  5
F9
330
E3
100
AcDbEntity
  8
0
  6
Continuous
100
AcDbLine
 10
132.7797212928099
 20
158.6985155819714
 30
0.0
 11
237.7892617183556
 21
140.182498391157
 31
0.0
  0
LINE
  5
FA
330
E3
100
AcDbEntity
  8
0
  6
Continuous
100
AcDbLine
 10
237.7892617183556
 20
140.182498391157
 30
0.0
 11
238.6922336203919
 21
145.3034987346604
 31
0.0
  0
LINE
  5
FB
330
E3
100
AcDbEntity
  8
0
  6
Continuous
100
AcDbLine
 10
238.6922336203919
 20
145.3034987346604
 30
0.0
 11
133.682689613131
 21
163.8195159254748
 31
0.0
  0
LINE
  5
FC
330
E3
100
AcDbEntity
  8
0
  6
Continuous
100
AcDbLine
 10
133.682689613131
 20
163.8195159254748
 30
0.0
 11
132.7797212928099
 21
158.6985155819714
 31
0.0
  0
HATCH
  5
FD
330
E3
100
AcDbEntity
  8
0
  6
Continuous
 62
   255
370
     0
100
AcDbHatch
 10
0.0
 20
0.0
 30
0.0
210
0.0
220
0.0
230
1.0
  2
SOLID
 70
     1
 71
     0
 91
        1
 92
        3
 72
     0
 73
     1
 93
        4
 10
142.7663338758
 20
154.8372427409282
 10
141.2035002767976
 20
145.9739729638183
 10
154.9908088189685
 20
143.5428984764813
 10
156.5536424179709
 20
152.4061682535911
 97
        0
 75
     0
 76
     1
 98
        0
  0
LINE
  5
FE
330
E3
100
AcDbEntity
  8
0
  6
Continuous
100
AcDbLine
 10
141.2035000559048
 20
145.9739743371046
 30
0.0
 11
156.5536427287069
 21
152.4061689952908
 31
0.0
  0
LINE
  5
FF
330
E3
100
AcDbEntity
  8
0
  6
Continuous
100
AcDbLine
 10
142.7663349381322
 20
154.8372438868822
 30
0.0
 11
154.9908078464794
 21
143.5428994455131
 31
0.0
  0
LINE
  5
100
330
E3
100
AcDbEntity
  8
0
  6
Continuous
100
AcDbLine
 10
142.7663349381322
 20
154.8372438868822
 30
0.0
 11
141.2035000559048
 21
145.9739743371046
 31
0.0
  0
LINE
  5
101
330
E3
100
AcDbEntity
  8
0
  6
Continuous
100
AcDbLine
 10
141.2035000559048
 20
145.9739743371046
 30
0.0
 11
154.9908078464794
 21
143.5428994455131
 31
0.0
  0
LINE
  5
102
330
E3
100
AcDbEntity
  8
0
  6
Continuous
100
AcDbLine
 10
154.9908078464794
 20
143.5428994455131
 30
0.0
 11
156.5536427287069
 21
152.4061689952908
 31
0.0
  0
LINE
  5
103
330
E3
100
AcDbEntity
  8
0
  6
Continuous
100
AcDbLine
 10
156.5536427287069
 20
152.4061689952908
 30
0.0
 11
142.7663349381322
 21
154.8372438868822
 31
0.0
  0
HATCH
  5
104
330
E3
100
AcDbEntity
  8
0
  6
Continuous
 62
   255
370
     0
100
AcDbHatch
 10
0.0
 20
0.0
 30
0.0
210
0.0
220
0.0
230
1.0
  2
SOLID
 70
     1
 71
     0
 91
        1
 92
        3
 72
     0
 73
     1
 93
       12
 10
131.3943280739767
 20
132.5773569609295
 10
131.3943280739767
 20
134.5773569609295
 10
129.7943280739767
 20
134.5773569609295
 10
129.7943280739767
 20
135.5773569609295
 10
131.3943280739767
 20
135.5773569609295
 10
131.3943280739767
 20
159.5773569609296
 10
129.7943280739767
 20
159.5773569609296
 10
129.7943280739767
 20
160.5773569609296
 10
131.3943280739767
 20
160.5773569609296
 10
131.3943280739767
 20
162.5773569609296
 10
127.3943280739767
 20
162.5773569609296
 10
127.3943280739767
 20
132.5773569609295
 97
        0
 75
     0
 76
     1
 98
        0
  0
HATCH
  5
105
330
E3
100
AcDbEntity
  8
0
  6
Continuous
100
AcDbHatch
 10
0.0
 20
0.0
 30
0.0
210
0.0
220
0.0
230
1.0
  2
Wood_0002
 70
     0
 71
     0
 91
        1
 92
        3
 72
     0
 73
     1
 93
       12
 10
131.3943280739767
 20
132.5773569609295
 10
131.3943280739767
 20
134.5773569609295
 10
129.7943280739767
 20
134.5773569609295
 10
129.7943280739767
 20
135.5773569609295
 10
131.3943280739767
 20
135.5773569609295
 10
131.3943280739767
 20
159.5773569609296
 10
129.7943280739767
 20
159.5773569609296
 10
129.7943280739767
 20
160.5773569609296
 10
131.3943280739767
 20
160.5773569609296
 10
131.3943280739767
 20
162.5773569609296
 10
127.3943280739767
 20
162.5773569609296
 10
127.3943280739767
 20
132.5773569609295
 97
        0
 75
     0
 76
     2
 52
0.0
 41
1.0
 77
     0
 78
     1
 53
9.999999999999996
 43
107.2260115974659
 44
-35.16744529250214
 45
-0.1562833557601421
 46
0.8863269542313407
 79
     0
 98
        0
  0
LINE
  5
106
330
E3
100
AcDbEntity
  8
0
  6
Continuous
100
AcDbLine
 10
131.3943281652364
 20
132.5773564630817
 30
0.0
 11
131.3943281652364
 21
134.5773575988018
 31
0.0
  0
LINE
  5
107
330
E3
100
AcDbEntity
  8
0
  6
Continuous
100
AcDbLine
 10
131.3943281652364
 20
134.5773575988018
 30
0.0
 11
129.7943294056894
 21
134.5773575988018
 31
0.0
  0
LINE
  5
108
330
E3
100
AcDbEntity
  8
0
  6
Continuous
100
AcDbLine
 10
129.7943294056894
 20
134.5773575988018
 30
0.0
 11
129.7943294056894
 21
135.5773581666619
 31
0.0
  0
LINE
  5
109
330
E3
100
AcDbEntity
  8
0
  6
Continuous
100
AcDbLine
 10
129.7943294056894
 20
135.5773581666619
 30
0.0
 11
131.3943281652364
 21
135.5773581666619
 31
0.0
  0
LINE
  5
10A
330
E3
100
AcDbEntity
  8
0
  6
Continuous
100
AcDbLine
 10
131.3943281652364
 20
135.5773581666619
 30
0.0
 11
131.3943281652364
 21
159.5773574684428
 31
0.0
  0
LINE
  5
10B
330
E3
100
AcDbEntity
  8
0
  6
Continuous
100
AcDbLine
 10
131.3943281652364
 20
159.5773574684428
 30
0.0
 11
129.7943294056894
 21
159.5773574684428
 31
0.0
  0
LINE
  5
10C
330
E3
100
AcDbEntity
  8
0
  6
Continuous
100
AcDbLine
 10
129.7943294056894
 20
159.5773574684428
 30
0.0
 11
129.7943294056894
 21
160.5773580363029
 31
0.0
  0
LINE
  5
10D
330
E3
100
AcDbEntity
  8
0
  6
Continuous
100
AcDbLine
 10
129.7943294056894
 20
160.5773580363029
 30
0.0
 11
131.3943281652364
 21
160.5773580363029
 31
0.0
  0
LINE
  5
10E
330
E3
100
AcDbEntity
  8
0
  6
Continuous
100
AcDbLine
 10
131.3943281652364
 20
160.5773580363029
 30
0.0
 11
131.3943281652364
 21
162.5773555903078
 31
0.0
  0
LINE
  5
10F
330
E3
100
AcDbEntity
  8
0
  6
Continuous
100
AcDbLine
 10
131.3943281652364
 20
162.5773555903078
 30
0.0
 11
127.3943294755114
 21
162.5773555903078
 31
0.0
  0
LINE
  5
110
330
E3
100
AcDbEntity
  8
0
  6
Continuous
100
AcDbLine
 10
127.3943294755114
 20
162.5773555903078
 30
0.0
 11
127.3943294755114
 21
132.5773564630817
 31
0.0
  0
LINE
  5
111
330
E3
100
AcDbEntity
  8
0
  6
Continuous
100
AcDbLine
 10
127.3943294755114
 20
132.5773564630817
 30
0.0
 11
131.3943281652364
 21
132.5773564630817
 31
0.0
  0
HATCH
  5
112
330
E3
100
AcDbEntity
  8
0
  6
Continuous
 62
   255
370
     0
100
AcDbHatch
 10
0.0
 20
0.0
 30
0.0
210
0.0
220
0.0
230
1.0
  2
SOLID
 70
     1
 71
     0
 91
        1
 92
        3
 72
     0
 73
     1
 93
        4
 10
134.2636554386134
 20
132.5087844611539
 10
138.2636554386133
 20
132.5087844611539
 10
138.2636554386133
 20
141.5087844611539
 10
134.2636554386133
 20
141.5087844611539
 97
        0
 75
     0
 76
     1
 98
        0
  0
LINE
  5
113
330
E3
100
AcDbEntity
  8
0
  6
Continuous
100
AcDbLine
 10
134.263654570038
 20
132.5087845248316
 30
0.0
 11
138.2636568414783
 21
141.508786053857
 31
0.0
  0
LINE
  5
114
330
E3
100
AcDbEntity
  8
0
  6
Continuous
100
AcDbLine
 10
134.263654570038
 20
132.5087845248316
 30
0.0
 11
138.2636568414783
 21
132.5087845248316
 31
0.0
  0
LINE
  5
115
330
E3
100
AcDbEntity
  8
0
  6
Continuous
100
AcDbLine
 10
138.2636568414783
 20
132.5087845248316
 30
0.0
 11
138.2636568414783
 21
141.508786053857
 31
0.0
  0
LINE
  5
116
330
E3
100
AcDbEntity
  8
0
  6
Continuous
100
AcDbLine
 10
138.2636568414783
 20
141.508786053857
 30
0.0
 11
134.263654570038
 21
141.508786053857
 31
0.0
  0
LINE
  5
117
330
E3
100
AcDbEntity
  8
0
  6
Continuous
100
AcDbLine
 10
134.263654570038
 20
141.508786053857
 30
0.0
 11
134.263654570038
 21
132.5087845248316
 31
0.0
  0
HATCH
  5
118
330
E3
100
AcDbEntity
  8
0
  6
Continuous
 62
   255
370
     0
100
AcDbHatch
 10
0.0
 20
0.0
 30
0.0
210
0.0
220
0.0
230
1.0
  2
SOLID
 70
     1
 71
     0
 91
        1
 92
        3
 72
     0
 73
     1
 93
        4
 10
132.4636554386134
 20
156.9195308765072
 10
132.4636554386134
 20
60.04973053735953
 10
134.2636554386134
 20
60.04973053735953
 10
134.2636554386134
 20
156.9195308765072
 97
        0
 75
     0
 76
     1
 98
        0
  0
HATCH
  5
119
330
E3
100
AcDbEntity
  8
0
  6
Continuous
100
AcDbHatch
 10
0.0
 20
0.0
 30
0.0
210
0.0
220
0.0
230
1.0
  2
Plaster_0002
 70
     0
 71
     0
 91
        1
 92
        3
 72
     0
 73
     1
 93
        4
 10
132.4636554386134
 20
156.9195308765072
 10
132.4636554386134
 20
60.04973053735953
 10
134.2636554386134
 20
60.04973053735953
 10
134.2636554386134
 20
156.9195308765072
 97
        0
 75
     0
 76
     2
 52
0.0
 41
1.0
 77
     0
 78
     2
 53
0.0
 43
107.2260115974659
 44
-35.16744529250214
 45
0.0
 46
1.732050807568877
 79
     2
 49
0.0
 49
-1.0
 53
0.0
 43
107.7260115974659
 44
-34.30141990426132
 45
0.0
 46
1.732050807568877
 79
     2
 49
0.0
 49
-1.0
 98
        0
  0
LINE
  5
11A
330
E3
100
AcDbEntity
  8
0
  6
Continuous
100
AcDbLine
 10
132.463656413262
 20
156.9195313485025
 30
0.0
 11
132.463656413262
 21
60.04972892245548
 31
0.0
  0
LINE
  5
11B
330
E3
100
AcDbEntity
  8
0
  6
Continuous
100
AcDbLine
 10
132.463656413262
 20
60.04972892245548
 30
0.0
 11
134.263654570038
 21
60.04972892245548
 31
0.0
  0
LINE
  5
11C
330
E3
100
AcDbEntity
  8
0
  6
Continuous
100
AcDbLine
 10
134.263654570038
 20
60.04972892245548
 30
0.0
 11
134.263654570038
 21
156.9195313485025
 31
0.0
  0
LINE
  5
11D
330
E3
100
AcDbEntity
  8
0
  6
Continuous
100
AcDbLine
 10
134.263654570038
 20
156.9195313485025
 30
0.0
 11
132.463656413262
 21
156.9195313485025
 31
0.0
  0
LINE
  5
11F
330
E3
100
AcDbEntity
  8
0
  6
Dashed
100
AcDbLine
 10
138.3875841887468
 20
156.9366877644972
 30
0.0
 11
235.76737272081
 21
139.7660057980236
 31
0.0
  0
LINE
  5
120
330
E3
100
AcDbEntity
  8
0
  6
Dashed
100
AcDbLine
 10
148.982681109157
 20
162.7712195093324
 30
0.0
 11
151.6493540657376
 21
162.3010119327601
 31
0.0
  0
LINE
  5
121
330
E3
100
AcDbEntity
  8
0
  6
Dashed
100
AcDbLine
 10
139.1104853571437
 20
155.8703072681133
 30
0.0
 11
139.1104853571437
 21
49.31458693620137
 31
0.0
  0
LINE
  5
122
330
E3
100
AcDbEntity
  8
0
  6
Continuous
 62
     9
370
    18
100
AcDbLine
 10
133.4048523803287
 20
162.2438226855394
 30
0.0
 11
134.7114549360753
 21
158.3578980444604
 31
0.0
  0
LINE
  5
123
330
E3
100
AcDbEntity
  8
0
  6
Dashed
100
AcDbLine
 10
138.3875841887468
 20
142.7041548611421
 30
0.0
 11
138.3875841887468
 21
156.9366877644972
 31
0.0
  0
LWPOLYLINE
  5
124
330
E3
100
AcDbEntity
  8
0
  6
Continuous
100
AcDbPolyline
 90
        8
 70
   128
 43
0.0
 10
155.6552481308751
 20
159.942694963039
 10
158.0156608206646
 20
159.6040220449547
 10
158.4377945200602
 20
160.0261557443504
 10
158.1846005069315
 20
160.5481728475729
 10
126.6377320917205
 20
166.1107369066436
 10
126.6377320917205
 20
148.7224333964631
 10
124.6369367122487
 20
147.4115674581884
 10
126.6032356196606
 20
145.4452685507765
  0
LWPOLYLINE
  5
125
330
E3
100
AcDbEntity
  8
0
  6
Continuous
100
AcDbPolyline
 90
        7
 70
   128
 43
0.0
 10
157.8670001201997
 20
160.1177003849947
 10
155.2098564202443
 20
160.5336011380311
 10
155.2098564202443
 20
159.3975759329774
 10
158.6756960288818
 20
158.8584453271894
 10
159.0607893187303
 20
157.5298734772119
 10
160.0235225433519
 20
156.3553389431735
 10
161.0440197614507
 20
155.9317363243401
  0
HATCH
  5
126
330
E3
100
AcDbEntity
  8
0
  6
Continuous
 62
   255
370
     0
100
AcDbHatch
 10
0.0
 20
0.0
 30
0.0
210
0.0
220
0.0
230
1.0
  2
SOLID
 70
     1
 71
     0
 91
        1
 92
        3
 72
     0
 73
     1
 93
        8
 10
202.2660422139567
 20
130.3929326260704
 10
196.0345127398982
 20
129.0798542986855
 10
207.8029801946164
 20
127.7667798986749
 10
201.5714507205579
 20
126.45370157129
 10
196.776813976436
 20
99.26197176422622
 10
268.2951210143314
 20
99.26197176422622
 10
268.2951210143314
 20
157.5846624331342
 10
207.0606789580786
 20
157.5846624331342
 97
        0
 75
     0
 76
     1
 98
        0
  0
LINE
  5
127
330
E3
100
AcDbEntity
  8
0
  6
Continuous
100
AcDbLine
 10
207.0606772406483
 20
157.5846594500949
 30
0.0
 11
202.26604278972
 21
130.3929328097068
 31
0.0
  0
LINE
  5
128
330
E3
100
AcDbEntity
  8
0
  6
Continuous
100
AcDbLine
 10
201.5714514985719
 20
126.4537015007262
 30
0.0
 11
196.7768134659285
 21
99.26197127862282
 31
0.0
  0
LINE
  5
129
330
E3
100
AcDbEntity
  8
0
  6
Continuous
100
AcDbLine
 10
201.5714514985719
 20
126.4537015007262
 30
0.0
 11
207.8029805604947
 21
127.7667797976248
 31
0.0
  0
LINE
  5
12A
330
E3
100
AcDbEntity
  8
0
  6
Continuous
100
AcDbLine
 10
207.8029805604947
 20
127.7667797976248
 30
0.0
 11
196.0345101460819
 21
129.0798545128082
 31
0.0
  0
LINE
  5
12B
330
E3
100
AcDbEntity
  8
0
  6
Continuous
100
AcDbLine
 10
196.0345101460819
 20
129.0798545128082
 30
0.0
 11
202.26604278972
 21
130.3929328097068
 31
0.0
  0
HATCH
  5
12C
330
E3
100
AcDbEntity
  8
0
  6
Continuous
 62
   255
370
     0
100
AcDbHatch
 10
0.0
 20
0.0
 30
0.0
210
0.0
220
0.0
230
1.0
  2
SOLID
 70
     1
 71
     0
 91
        1
 92
        3
 72
     0
 73
     1
 93
        8
 10
141.7463269089472
 20
99.19453332372244
 10
114.5545966868439
 20
103.9891677746506
 10
114.5545966868439
 20
32.40278992681966
 10
172.8772848583159
 20
32.40278992681966
 10
172.8772848583159
 20
93.70530399993083
 10
145.6855582179279
 20
98.49993845085902
 10
144.3724799210292
 20
104.7314710944971
 10
143.0594052058458
 20
92.96300068008432
 97
        0
 75
     0
 76
     1
 98
        0
  0
LINE
  5
12D
330
E3
100
AcDbEntity
  8
0
  6
Continuous
100
AcDbLine
 10
172.8772848583159
 20
93.70530542031189
 30
0.0
 11
145.6855582179279
 21
98.49993987124006
 31
0.0
  0
LINE
  5
12E
330
E3
100
AcDbEntity
  8
0
  6
Continuous
100
AcDbLine
 10
141.7463269089472
 20
99.19453116238824
 30
0.0
 11
114.5545966868439
 21
103.9891691950317
 31
0.0
  0
LINE
  5
12F
330
E3
100
AcDbEntity
  8
0
  6
Continuous
100
AcDbLine
 10
141.7463269089472
 20
99.19453116238824
 30
0.0
 11
143.0594052058458
 21
92.96300210046537
 31
0.0
  0
LINE
  5
130
330
E3
100
AcDbEntity
  8
0
  6
Continuous
100
AcDbLine
 10
143.0594052058458
 20
92.96300210046537
 30
0.0
 11
144.3724799210292
 21
104.7314689331629
 31
0.0
  0
LINE
  5
131
330
E3
100
AcDbEntity
  8
0
  6
Continuous
100
AcDbLine
 10
144.3724799210292
 20
104.7314689331629
 30
0.0
 11
145.6855582179279
 21
98.49993987124006
 31
0.0
  0
LINE
  5
132
330
E3
100
AcDbEntity
  8
Doc_ Floor
  6
Continuous
100
AcDbLine
 10
119.9680942236226
 20
147.7444340883047
 30
0.0
 11
119.9680942236226
 21
148.7224321794517
 31
0.0
  0
LINE
  5
133
330
E3
100
AcDbEntity
  8
Doc_ Floor
  6
Continuous
100
AcDbLine
 10
119.9680942236226
 20
148.7224321794517
 30
0.0
 11
119.9680942236226
 21
162.5773555903078
 31
0.0
  0
LINE
  5
134
330
E3
100
AcDbEntity
  8
Doc_ Floor
  6
Continuous
100
AcDbLine
 10
118.9680936557626
 20
149.2997831856826
 30
0.0
 11
120.9680912097675
 21
148.1450847549361
 31
0.0
  0
LINE
  5
135
330
E3
100
AcDbEntity
  8
Doc_ Floor
  6
Continuous
100
AcDbLine
 10
120.9680912097675
 20
162.0000081657922
 30
0.0
 11
118.9680936557626
 21
163.1547065965387
 31
0.0
  0
LINE
  5
136
330
E3
100
AcDbEntity
  8
Doc_ Floor
  6
Continuous
100
AcDbLine
 10
119.9680942236226
 20
162.5773555903078
 30
0.0
 11
119.9680942236226
 21
163.5553572631701
 31
0.0
  0
LINE
  5
137
330
E3
100
AcDbEntity
  8
Doc_ Floor
  6
Continuous
100
AcDbLine
 10
121.4680914936975
 20
148.7224321794517
 30
0.0
 11
118.4680933718325
 21
148.7224321794517
 31
0.0
  0
LINE
  5
138
330
E3
100
AcDbEntity
  8
Doc_ Floor
  6
Continuous
100
AcDbLine
 10
121.4680914936975
 20
162.5773555903078
 30
0.0
 11
118.4680933718325
 21
162.5773555903078
 31
0.0
  0
MTEXT
  5
139
330
E3
100
AcDbEntity
  8
Doc_ Floor
  6
Continuous
100
AcDbMText
 10
119.4680925578211
 20
154.3204826811163
 30
0.0
 40
2.5
 41
0.0
 71
     7
 72
     1
  1
{A}
  7
GENERATED_STYLE_1
 11
6.123233995736766E-17
 21
1.0
 31
0.0
 73
     1
 44
1.0
  0
LINE
  5
13A
330
E3
100
AcDbEntity
  8
Doc_ Floor
  6
Continuous
100
AcDbLine
 10
161.2240812037237
 20
172.1538556773373
 30
0.0
 11
160.2609400673879
 21
172.3236827053931
 31
0.0
  0
LINE
  5
13B
330
E3
100
AcDbEntity
  8
Doc_ Floor
  6
Continuous
100
AcDbLine
 10
160.2609400673879
 20
172.3236827053931
 30
0.0
 11
135.9384216351985
 21
176.6123998788165
 31
0.0
  0
LINE
  5
13C
330
E3
100
AcDbEntity
  8
Doc_ Floor
  6
Continuous
100
AcDbLine
 10
159.5187155452767
 20
171.4391315648308
 30
0.0
 11
161.0031681712144
 21
173.2082338459554
 31
0.0
  0
LINE
  5
13D
330
E3
100
AcDbEntity
  8
Doc_ Floor
  6
Continuous
100
AcDbLine
 10
136.680649739025
 20
177.4969510193788
 30
0.0
 11
135.196193531372
 21
175.7278487382542
 31
0.0
  0
LINE
  5
13E
330
E3
100
AcDbEntity
  8
Doc_ Floor
  6
Continuous
100
AcDbLine
 10
135.9384216351985
 20
176.6123998788165
 30
0.0
 11
134.9752804988627
 21
176.7822269068724
 31
0.0
  0
LINE
  5
13F
330
E3
100
AcDbEntity
  8
Doc_ Floor
  6
Continuous
100
AcDbLine
 10
160.5214131447117
 20
173.8008966848329
 30
0.0
 11
160.0004669900642
 21
170.8464723076686
 31
0.0
  0
LINE
  5
140
330
E3
100
AcDbEntity
  8
Doc_ Floor
  6
Continuous
100
AcDbLine
 10
136.1988947125223
 20
178.089610276541
 30
0.0
 11
135.6779485578747
 21
175.135189481092
 31
0.0
  0
MTEXT
  5
141
330
E3
100
AcDbEntity
  8
Doc_ Floor
  6
Continuous
100
AcDbMText
 10
147.1901111189338
 20
175.136136572326
 30
0.0
 40
2.5
 41
0.0
 71
     7
 72
     1
  1
{B}
  7
GENERATED_STYLE_1
 11
0.9848077530089556
 21
-0.1736481776853757
 31
0.0
 73
     1
 44
1.0
  0
MTEXT
  5
143
330
E3
100
AcDbEntity
  8
Doc_ Floor
  6
Continuous
100
AcDbMText
 10
203.6109579524559
 20
166.829138787489
 30
0.0
 40
2.500000000000001
 41
56.68353220040037
 71
     4
 72
     1
  1
\A1;{\fCentury Gothic|b0|i0|c0|p34;TRS 6\PMIN. ROOF PITCH 4\fArial|b0|i0|c0|p34;\H1.029412x;\U+00B0}
  7
GENERATED_STYLE_1
 73
     1
 44
1.056356172275314
  0
LINE
  5
144
330
E3
100
AcDbEntity
  8
Doc_ Floor
  6
Continuous
100
AcDbLine
 10
183.9713147115151
 20
153.3275903125231
 30
0.0
 11
185.4882391678093
 21
156.8810601451207
 31
0.0
  0
LINE
  5
145
330
E3
100
AcDbEntity
  8
Doc_ Floor
  6
Continuous
100
AcDbLine
 10
183.9713147115151
 20
153.3275903125231
 30
0.0
 11
187.0617439797336
 21
155.6465252816975
 31
0.0
  0
LINE
  5
146
330
E3
100
AcDbEntity
  8
Doc_ Floor
  6
Continuous
100
AcDbLine
 10
185.4882391678093
 20
156.8810601451207
 30
0.0
 11
187.0617439797336
 21
155.6465252816975
 31
0.0
  0
LWPOLYLINE
  5
147
330
E3
100
AcDbEntity
  8
Doc_ Floor
  6
Continuous
100
AcDbPolyline
 90
        9
 70
   128
 43
0.0
 10
186.2749909729182
 20
156.2637926341547
 10
188.5825121512632
 20
158.9775022171747
 10
190.7354867830677
 20
161.2367995181697
 10
192.7732559550443
 20
163.0702208055849
 10
194.7351607539059
 20
164.5063023478656
 10
196.660542266365
 20
165.573580413457
 10
198.5887415791346
 20
166.3005912708043
 10
200.5590997789273
 20
166.7158711883528
 10
202.6109579524559
 20
166.8479564345479
  0
MTEXT
  5
148
330
E3
100
AcDbEntity
  8
Doc_ Floor
  6
Continuous
100
AcDbMText
 10
217.7652934107131
 20
135.8151137183091
 30
0.0
 40
2.5
 41
0.0
 71
     4
 72
     1
  1
{UNDERLAY}
  7
GENERATED_STYLE_1
 73
     1
 44
1.0
  0
LINE
  5
149
330
E3
100
AcDbEntity
  8
Doc_ Floor
  6
Continuous
100
AcDbLine
 10
190.3055351310545
 20
147.7821531314863
 30
0.0
 11
193.3591407849012
 21
145.414943804321
 31
0.0
  0
LINE
  5
14A
330
E3
100
AcDbEntity
  8
Doc_ Floor
  6
Continuous
100
AcDbLine
 10
190.3055351310545
 20
147.7821531314863
 30
0.0
 11
191.7664308158655
 21
144.2052839532325
 31
0.0
  0
LINE
  5
14B
330
E3
100
AcDbEntity
  8
Doc_ Floor
  6
Continuous
100
AcDbLine
 10
193.3591407849012
 20
145.414943804321
 30
0.0
 11
191.7664308158655
 21
144.2052839532325
 31
0.0
  0
LWPOLYLINE
  5
14C
330
E3
100
AcDbEntity
  8
Doc_ Floor
  6
Continuous
100
AcDbPolyline
 90
       11
 70
   128
 43
0.0
 10
192.5627848521073
 20
144.8101141336437
 10
194.7186386754931
 20
142.5196592464375
 10
197.0173643686526
 20
140.6117085419212
 10
198.2367956039972
 20
139.79374512012
 10
199.5117345319048
 20
139.0624951783292
 10
200.8487777274152
 20
138.4149878613279
 10
202.2545217655684
 20
137.8482523138954
 10
205.2984986699622
 20
136.9452131068541
 10
208.6964378454051
 20
136.3296107154394
 10
212.5011118922158
 20
135.9776782978856
 10
216.7652934107131
 20
135.8656490124267
  0
MTEXT
  5
14D
330
E3
100
AcDbEntity
  8
Doc_ Floor
  6
Continuous
100
AcDbMText
 10
108.0339098253378
 20
181.72615262139
 30
0.0
 40
2.5
 41
0.0
 71
     6
 72
     1
  1
{ROOF FIXING}
  7
GENERATED_STYLE_1
 73
     1
 44
1.0
  0
LINE
  5
14E
330
E3
100
AcDbEntity
  8
Doc_ Floor
  6
Continuous
100
AcDbLine
 10
150.3596464607732
 20
163.3831448127651
 30
0.0
 11
146.6062918458342
 21
164.2999528807696
 31
0.0
  0
LINE
  5
14F
330
E3
100
AcDbEntity
  8
Doc_ Floor
  6
Continuous
100
AcDbLine
 10
150.3596464607732
 20
163.3831448127651
 30
0.0
 11
147.5675489999544
 21
166.0538006366913
 31
0.0
  0
LINE
  5
150
330
E3
100
AcDbEntity
  8
Doc_ Floor
  6
Continuous
100
AcDbLine
 10
146.6062918458342
 20
164.2999528807696
 30
0.0
 11
147.5675489999544
 21
166.0538006366913
 31
0.0
  0
LWPOLYLINE
  5
151
330
E3
100
AcDbEntity
  8
Doc_ Floor
  6
Continuous
100
AcDbPolyline
 90
        9
 70
   128
 43
0.0
 10
147.0869196211911
 20
165.1768763987975
 10
139.17479810923
 20
169.4429635719829
 10
132.3753205526409
 20
172.9881006854046
 10
126.5829500148065
 20
175.8591797229686
 10
121.6921495591089
 20
178.1030926685806
 10
117.5973822489309
 20
179.7667315061464
 10
114.1931111476547
 20
180.8969882195719
 10
111.3737993186628
 20
181.5407547927629
 10
109.0339098253378
 20
181.7449232096253
  0
MTEXT
  5
152
330
E3
100
AcDbEntity
  8
Doc_ Floor
  6
Continuous
100
AcDbMText
 10
184.2722525206281
 20
185.6231137471378
 30
0.0
 40
2.499999999999999
 41
0.0
 71
     4
 72
     1
  1
{PURLIN}
  7
GENERATED_STYLE_1
 73
     1
 44
1.0
  0
LINE
  5
153
330
E3
100
AcDbEntity
  8
Doc_ Floor
  6
Continuous
100
AcDbLine
 10
150.1026297386551
 20
148.0195527992406
 30
0.0
 11
150.8663732059221
 21
151.8070196701156
 31
0.0
  0
LINE
  5
154
330
E3
100
AcDbEntity
  8
Doc_ Floor
  6
Continuous
100
AcDbLine
 10
150.1026297386551
 20
148.0195527992406
 30
0.0
 11
152.6577824095549
 21
150.9177227568616
 31
0.0
  0
LINE
  5
155
330
E3
100
AcDbEntity
  8
Doc_ Floor
  6
Continuous
100
AcDbLine
 10
150.8663732059221
 20
151.8070196701156
 30
0.0
 11
152.6577824095549
 21
150.9177227568616
 31
0.0
  0
LWPOLYLINE
  5
156
330
E3
100
AcDbEntity
  8
Doc_ Floor
  6
Continuous
100
AcDbPolyline
 90
       16
 70
   128
 43
0.0
 10
151.7620787597316
 20
151.3623704483588
 10
156.3810990477304
 20
160.1997816402708
 10
158.5479890836734
 20
164.0519832488697
 10
160.6341039363841
 20
167.5427544156599
 10
162.6501722724664
 20
170.6842743029633
 10
164.6069227585243
 20
173.4887220731019
 10
166.5150840611617
 20
175.9682768883976
 10
168.3853848469825
 20
178.1351179111724
 10
170.2285537825908
 20
180.0014243037484
 10
172.0553195345904
 20
181.5793752284474
 10
173.8764107695854
 20
182.8811498475914
 10
175.7025561541796
 20
183.9189273235024
 10
177.544484354977
 20
184.7048868185023
 10
179.4129240385816
 20
185.2512074949132
 10
181.3186038715973
 20
185.5700685150569
 10
183.2722525206281
 20
185.6736490412555
  0
MTEXT
  5
157
330
E3
100
AcDbEntity
  8
Doc_ Floor
  6
Continuous
100
AcDbMText
 10
108.0339098253378
 20
109.9747713303125
 30
0.0
 40
2.5
 41
39.1484652691462
 71
     6
 72
     1
  1
{CLADDING ON CAVITY BATTENS WITH BUILDING WRAP }
  7
GENERATED_STYLE_1
 73
     1
 44
1.081394112015884
  0
LINE
  5
158
330
E3
100
AcDbEntity
  8
Doc_ Floor
  6
Continuous
100
AcDbLine
 10
132.5155339767833
 20
106.8748389664687
 30
0.0
 11
128.6545774726351
 21
106.7292458237197
 31
0.0
  0
LINE
  5
159
330
E3
100
AcDbEntity
  8
Doc_ Floor
  6
Continuous
100
AcDbLine
 10
132.5155339767833
 20
106.8748389664687
 30
0.0
 11
129.0990504252154
 21
108.6792318878428
 31
0.0
  0
LINE
  5
15A
330
E3
100
AcDbEntity
  8
Doc_ Floor
  6
Continuous
100
AcDbLine
 10
128.6545774726351
 20
106.7292458237197
 30
0.0
 11
129.0990504252154
 21
108.6792318878428
 31
0.0
  0
LWPOLYLINE
  5
15B
330
E3
100
AcDbEntity
  8
Doc_ Floor
  6
Continuous
100
AcDbPolyline
 90
        5
 70
   128
 43
0.0
 10
128.8768139823939
 20
107.7042399712023
 10
123.4362372838358
 20
108.778239716983
 10
118.5579467362369
 20
109.485596657588
 10
113.8783637724525
 20
109.8745992712483
 10
109.0339098253379
 20
109.9935360361949
  0
MTEXT
  5
15C
330
E3
100
AcDbEntity
  8
Doc_ Floor
  6
Continuous
100
AcDbMText
 10
108.0339098253378
 20
124.960361232442
 30
0.0
 40
2.5
 41
0.0
 71
     6
 72
     1
  1
{FASCIA}
  7
GENERATED_STYLE_1
 73
     1
 44
1.0
  0
LINE
  5
15D
330
E3
100
AcDbEntity
  8
Doc_ Floor
  6
Continuous
100
AcDbLine
 10
127.9988871906975
 20
135.8141238708189
 30
0.0
 11
126.353332595026
 21
132.3183626341516
 31
0.0
  0
LINE
  5
15E
330
E3
100
AcDbEntity
  8
Doc_ Floor
  6
Continuous
100
AcDbLine
 10
127.9988871906975
 20
135.8141238708189
 30
0.0
 11
124.8259137130815
 21
133.6094850166353
 31
0.0
  0
LINE
  5
15F
330
E3
100
AcDbEntity
  8
Doc_ Floor
  6
Continuous
100
AcDbLine
 10
126.353332595026
 20
132.3183626341516
 30
0.0
 11
124.8259137130815
 21
133.6094850166353
 31
0.0
  0
LWPOLYLINE
  5
160
330
E3
100
AcDbEntity
  8
Doc_ Floor
  6
Continuous
100
AcDbPolyline
 90
        9
 70
   128
 43
0.0
 10
125.5896244402762
 20
132.9639245708123
 10
123.6204634313926
 20
130.9203200424862
 10
121.6964454848545
 20
129.2175951226089
 10
119.780670024063
 20
127.8346679261786
 10
117.8362364724189
 20
126.7504565681938
 10
115.8262442533234
 20
125.9438791636529
 10
113.7137927901774
 20
125.3938538275543
 10
111.4619815063819
 20
125.0792986748963
 10
109.0339098253379
 20
124.9791318206773
  0
MTEXT
  5
161
330
E3
100
AcDbEntity
  8
Doc_ Floor
  6
Continuous
100
AcDbMText
 10
164.9235787333881
 20
105.17706211541
 30
0.0
 40
2.5
 41
0.0
 71
     4
 72
     1
  1
{ROOF FRAME}
  7
GENERATED_STYLE_1
 73
     1
 44
1.0
  0
LINE
  5
162
330
E3
100
AcDbEntity
  8
Doc_ Floor
  6
Continuous
100
AcDbLine
 10
152.6041533872818
 20
131.267619906501
 30
0.0
 11
153.88207714911
 21
127.6213729040683
 31
0.0
  0
LINE
  5
163
330
E3
100
AcDbEntity
  8
Doc_ Floor
  6
Continuous
100
AcDbLine
 10
152.6041533872818
 20
131.267619906501
 30
0.0
 11
151.8877422868978
 21
127.47091937374
 31
0.0
  0
LINE
  5
164
330
E3
100
AcDbEntity
  8
Doc_ Floor
  6
Continuous
100
AcDbLine
 10
153.88207714911
 20
127.6213729040683
 30
0.0
 11
151.8877422868978
 21
127.47091937374
 31
0.0
  0
LWPOLYLINE
  5
165
330
E3
100
AcDbEntity
  8
Doc_ Floor
  6
Continuous
100
AcDbPolyline
 90
       15
 70
   128
 43
0.0
 10
152.8849095788885
 20
127.5461462691856
 10
153.4915914543278
 20
121.8000985571859
 10
154.2651929717568
 20
117.0218862506804
 10
154.7230231061241
 20
114.9762913475718
 10
155.2327045628767
 20
113.1493428635373
 10
155.7976111459775
 20
111.5332699878105
 10
156.421116659389
 20
110.1203019096248
 10
157.1065949070739
 20
108.9026678182138
 10
157.8574196929949
 20
107.8725969028111
 10
158.6769648211147
 20
107.0223183526501
 10
159.5686040953959
 20
106.3440613569645
 10
160.5357113198011
 20
105.8300551049876
 10
161.5816602982931
 20
105.4725287859531
 10
162.7098248348345
 20
105.2637115890945
 10
163.9235787333881
 20
105.1958327036453
  0
MTEXT
  5
166
330
E3
100
AcDbEntity
  8
Doc_ Floor
  6
Continuous
100
AcDbMText
 10
108.0339098253378
 20
167.0421997300251
 30
0.0
 40
2.5
 41
0.0
 71
     6
 72
     1
  1
{METAL FLASHING}
  7
GENERATED_STYLE_1
 73
     1
 44
1.0
  0
LINE
  5
167
330
E3
100
AcDbEntity
  8
Doc_ Floor
  6
Continuous
100
AcDbLine
 10
126.6377315301461
 20
160.8400517770748
 30
0.0
 11
123.0718403090997
 21
162.3275416975352
 31
0.0
  0
LINE
  5
168
330
E3
100
AcDbEntity
  8
Doc_ Floor
  6
Continuous
100
AcDbLine
 10
126.6377315301461
 20
160.8400517770748
 30
0.0
 11
124.2933234021921
 21
163.911200672162
 31
0.0
  0
LINE
  5
169
330
E3
100
AcDbEntity
  8
Doc_ Floor
  6
Continuous
100
AcDbLine
 10
123.0718403090997
 20
162.3275416975352
 30
0.0
 11
124.2933234021921
 21
163.911200672162
 31
0.0
  0
LWPOLYLINE
  5
16A
330
E3
100
AcDbEntity
  8
Doc_ Floor
  6
Continuous
100
AcDbPolyline
 90
        9
 70
   128
 43
0.0
 10
123.6825828105559
 20
163.1193701917353
 10
122.0880847713312
 20
164.123773623539
 10
120.4818407728519
 20
164.962239531881
 10
118.8359257827555
 20
165.6446361904938
 10
117.1224147686798
 20
166.18083187311
 10
115.3133826982625
 20
166.5806948534622
 10
113.3809045391413
 20
166.8540934052829
 10
111.2970552589538
 20
167.0108958023048
 10
109.0339098253379
 20
167.0609703182604
  0
MTEXT
  5
16B
330
E3
100
AcDbEntity
  8
Doc_ Floor
  6
Continuous
100
AcDbMText
 10
108.0339098253378
 20
139.2806289391384
 30
0.0
 40
2.5
 41
39.1484652691462
 71
     6
 72
     1
  1
{BIRD'S BEAK AT BOTTOM EDGE}
  7
GENERATED_STYLE_1
 73
     1
 44
1.070162922071087
  0
LINE
  5
16C
330
E3
100
AcDbEntity
  8
Doc_ Floor
  6
Continuous
100
AcDbLine
 10
125.0436246921672
 20
145.0048803900416
 30
0.0
 11
122.8617476383273
 21
141.8162118362485
 31
0.0
  0
LINE
  5
16D
330
E3
100
AcDbEntity
  8
Doc_ Floor
  6
Continuous
100
AcDbLine
 10
125.0436246921672
 20
145.0048803900416
 30
0.0
 11
121.5597296780866
 21
143.3343504940087
 31
0.0
  0
LINE
  5
16E
330
E3
100
AcDbEntity
  8
Doc_ Floor
  6
Continuous
100
AcDbLine
 10
122.8617476383273
 20
141.8162118362485
 30
0.0
 11
121.5597296780866
 21
143.3343504940087
 31
0.0
  0
LWPOLYLINE
  5
16F
330
E3
100
AcDbEntity
  8
Doc_ Floor
  6
Continuous
100
AcDbPolyline
 90
        8
 70
   128
 43
0.0
 10
122.2107386989913
 20
142.5752796850201
 10
120.9177043003348
 20
141.742845784936
 10
119.5679416574175
 20
141.0470913315622
 10
118.139233576577
 20
140.4800987105053
 10
116.6093628641507
 20
140.0339503073715
 10
114.9561123264761
 20
139.7007285077674
 10
113.1572647698908
 20
139.4725156972993
 10
109.0339098253378
 20
139.2994465861972
  0
MTEXT
  5
170
330
E3
100
AcDbEntity
  8
Doc_ Floor
  6
Continuous
100
AcDbMText
 10
188.6636468236601
 20
176.5690328110576
 30
0.0
 40
2.5
 41
0.0
 71
     4
 72
     1
  1
{SOFT EDGE DRESSED OVER ROOFING}
  7
GENERATED_STYLE_1
 73
     1
 44
1.0
  0
LINE
  5
171
330
E3
100
AcDbEntity
  8
Doc_ Floor
  6
Continuous
100
AcDbLine
 10
159.3349448997954
 20
155.490312353265
 30
0.0
 11
161.1895892859724
 21
158.8797826085006
 31
0.0
  0
LINE
  5
172
330
E3
100
AcDbEntity
  8
Doc_ Floor
  6
Continuous
100
AcDbLine
 10
159.3349448997954
 20
155.490312353265
 30
0.0
 11
162.635850082317
 21
157.4983580214119
 31
0.0
  0
LINE
  5
173
330
E3
100
AcDbEntity
  8
Doc_ Floor
  6
Continuous
100
AcDbLine
 10
161.1895892859724
 20
158.8797826085006
 30
0.0
 11
162.635850082317
 21
157.4983580214119
 31
0.0
  0
LWPOLYLINE
  5
174
330
E3
100
AcDbEntity
  8
Doc_ Floor
  6
Continuous
100
AcDbPolyline
 90
       12
 70
   128
 43
0.0
 10
161.9127187963382
 20
158.1890695806833
 10
166.5788330704896
 20
162.9216507703858
 10
170.6932119084452
 20
166.8562138399892
 10
174.3249732753406
 20
170.044233640632
 10
177.5432351363114
 20
172.5371850234531
 10
180.4171154564932
 20
174.386542839591
 10
181.746511902893
 20
175.0859600511347
 10
183.0157322010215
 20
175.6437819401845
 10
184.2334160965204
 20
176.066442863133
 10
185.4082033350319
 20
176.3603771763723
 10
186.5487336621978
 20
176.5320192362948
 10
187.6636468236601
 20
176.5878033992929
  0
MTEXT
  5
175
330
E3
100
AcDbEntity
  8
Doc_ Floor
  6
Continuous
100
AcDbMText
 10
108.0339098253378
 20
174.9367703809074
 30
0.0
 40
2.500000000000001
 41
0.0
 71
     6
 72
     1
  1
{STOPEND}
  7
GENERATED_STYLE_1
 73
     1
 44
1.0
  0
LINE
  5
176
330
E3
100
AcDbEntity
  8
Doc_ Floor
  6
Continuous
100
AcDbLine
 10
133.6674744867958
 20
160.0543452319624
 30
0.0
 11
130.2064272342246
 21
161.7717132181753
 31
0.0
  0
LINE
  5
177
330
E3
100
AcDbEntity
  8
Doc_ Floor
  6
Continuous
100
AcDbLine
 10
133.6674744867958
 20
160.0543452319624
 30
0.0
 11
131.5288036638837
 21
163.2721546209398
 31
0.0
  0
LINE
  5
178
330
E3
100
AcDbEntity
  8
Doc_ Floor
  6
Continuous
100
AcDbLine
 10
130.2064272342246
 20
161.7717132181753
 30
0.0
 11
131.5288036638837
 21
163.2721546209398
 31
0.0
  0
LWPOLYLINE
  5
179
330
E3
100
AcDbEntity
  8
Doc_ Floor
  6
Continuous
100
AcDbPolyline
 90
        9
 70
   128
 43
0.0
 10
130.8676151700328
 20
162.5219346490566
 10
127.0919861873974
 20
165.715898837504
 10
123.7286247139161
 20
168.3728275144363
 10
120.7208849685188
 20
170.5269865215487
 10
118.0121211701354
 20
172.2126417005363
 10
115.5456875376957
 20
173.4640588930943
 10
113.2649382901296
 20
174.315503940918
 10
111.113227646367
 20
174.8012426857024
 10
109.0339098253378
 20
174.9555409691427
  0
HATCH
  5
17A
330
E3
100
AcDbEntity
  8
Doc_ Finishes
  6
Continuous
 62
   255
370
    18
100
AcDbHatch
 10
0.0
 20
0.0
 30
0.0
210
0.0
220
0.0
230
1.0
  2
SOLID
 70
     1
 71
     0
 91
        1
 92
        3
 72
     0
 73
     1
 93
        5
 10
160.5563082766261
 20
56.29457709202391
 10
160.5563082766261
 20
32.40279176343062
 10
268.2951197319069
 20
32.40279176343062
 10
268.2951197319069
 20
123.5642900369606
 10
220.3623675821381
 20
103.2850467728525
 97
        0
 75
     0
 76
     1
 98
        0
  0
LINE
  5
17B
330
E3
100
AcDbEntity
  8
Doc_ Finishes
  6
Continuous
 62
   255
370
    18
100
AcDbLine
 10
220.3623653339774
 20
103.2850505413478
 30
0.0
 11
160.556309796285
 21
56.29457628646654
 31
0.0
  0
LINE
  5
17C
330
E3
100
AcDbEntity
  8
Doc_ Finishes
  6
Continuous
 62
   255
370
    18
100
AcDbLine
 10
160.556309796285
 20
56.29457690591958
 30
0.0
 11
160.556309796285
 21
32.40279196665374
 31
0.0
  0
LINE
  5
17D
330
E3
100
AcDbEntity
  8
Doc_ Finishes
  6
Continuous
 62
   255
370
    18
100
AcDbLine
 10
268.2951203660438
 20
123.5642935969986
 30
0.0
 11
220.3623675193274
 21
103.2850486173552
 31
0.0
  0
LINE
  5
17E
330
E3
100
AcDbEntity
  8
0
  6
Continuous
100
AcDbLine
 10
94.7059307070651
 20
67.13021045718048
 30
0.0
 11
219.0690330331912
 21
67.13021045718048
 31
0.0
  0
LINE
  5
17F
330
E3
100
AcDbEntity
  8
0
  6
Continuous
100
AcDbLine
 10
195.0990162696757
 20
75.21657731790322
 30
0.0
 11
195.0990162696757
 21
34.84842949295378
 31
0.0
  0
LINE
  5
180
330
E3
100
AcDbEntity
  8
0
  6
Continuous
100
AcDbLine
 10
94.7059307070651
 20
34.84842949295378
 30
0.0
 11
94.7059307070651
 21
67.13021045718048
 31
0.0
  0
LINE
  5
181
330
E3
100
AcDbEntity
  8
0
  6
Continuous
100
AcDbLine
 10
171.1289995061602
 20
75.21657731790322
 30
0.0
 11
171.1289995061602
 21
34.84842949295378
 31
0.0
  0
LINE
  5
182
330
E3
100
AcDbEntity
  8
0
  6
Continuous
100
AcDbLine
 10
94.7059307070651
 20
56.36961680243825
 30
0.0
 11
219.0690330331912
 21
56.36961680243825
 31
0.0
  0
LINE
  5
183
330
E3
100
AcDbEntity
  8
0
  6
Continuous
100
AcDbLine
 10
94.7059307070651
 20
45.60902314769601
 30
0.0
 11
219.0690330331912
 21
45.60902314769601
 31
0.0
  0
LINE
  5
184
330
E3
100
AcDbEntity
  8
0
  6
Continuous
100
AcDbLine
 10
171.1289995061602
 20
75.21657731790322
 30
0.0
 11
195.0990162696757
 21
75.21657731790322
 31
0.0
  0
LINE
  5
185
330
E3
100
AcDbEntity
  8
0
  6
Continuous
100
AcDbLine
 10
94.7059307070651
 20
34.84842949295378
 30
0.0
 11
219.0690330331912
 21
34.84842949295378
 31
0.0
  0
LINE
  5
186
330
E3
100
AcDbEntity
  8
0
  6
Continuous
100
AcDbLine
 10
219.0690330331912
 20
75.21657731790322
 30
0.0
 11
219.0690330331912
 21
34.84842949295378
 31
0.0
  0
LINE
  5
187
330
E3
100
AcDbEntity
  8
0
  6
Continuous
100
AcDbLine
 10
195.0990162696757
 20
75.21657731790322
 30
0.0
 11
219.0690330331912
 21
75.21657731790322
 31
0.0
  0
MTEXT
  5
188
330
E3
100
AcDbEntity
  8
0
  6
Continuous
100
AcDbMText
 10
98.261856873839
 20
58.28656778696154
 30
0.0
 40
2.499999999999999
 41
69.01187578516154
 71
     7
 72
     1
  1
\A1;{\fCentury Gothic|b0|i0|c0|p34;LOW, MEDIUM OR HIGH WIND ZONE.\P ROOF PITCH \fArial|b0|i0|c0|p34;\H1.029412x;\U+2265\fCentury Gothic|b0|i0|c0|p34;\H0.971429x; 10\fArial|b0|i0|c0|p34;\H1.029412x;\U+00B0}
  7
GENERATED_STYLE_1
 73
     1
 44
1.056355725756043
  0
MTEXT
  5
189
330
E3
100
AcDbEntity
  8
0
  6
Continuous
100
AcDbMText
 10
98.261856873839
 20
47.86372317897222
 30
0.0
 40
2.5
 41
69.01187578516154
 71
     7
 72
     1
  1
\A1;{\fCentury Gothic|b0|i0|c0|p34;VERY HIGH WIND ZONE.\P ROOF PITCH \fArial|b0|i0|c0|p34;\H1.029412x;<\fCentury Gothic|b0|i0|c0|p34;\H0.971429x; 10\fArial|b0|i0|c0|p34;\H1.029412x;\U+00B0}
  7
GENERATED_STYLE_1
 73
     1
 44
1.056355725756043
  0
MTEXT
  5
18A
330
E3
100
AcDbEntity
  8
0
  6
Continuous
100
AcDbMText
 10
182.7611909304271
 20
60.32639526062167
 30
0.0
 40
2.499999999999999
 41
0.0
 71
     8
 72
     1
  1
{50MM}
  7
GENERATED_STYLE_1
 73
     1
 44
1.0
  0
MTEXT
  5
18B
330
E3
100
AcDbEntity
  8
0
  6
Continuous
100
AcDbMText
 10
182.7611909304271
 20
49.08761573916392
 30
0.0
 40
2.499999999999999
 41
0.0
 71
     8
 72
     1
  1
{75MM}
  7
GENERATED_STYLE_1
 73
     1
 44
1.0
  0
MTEXT
  5
18C
330
E3
100
AcDbEntity
  8
0
  6
Continuous
100
AcDbMText
 10
182.7611909304271
 20
70.20845958382333
 30
0.0
 40
2.499999999999999
 41
0.0
 71
     8
 72
     1
  1
{A}
  7
GENERATED_STYLE_1
 73
     1
 44
1.0
  0
MTEXT
  5
18D
330
E3
100
AcDbEntity
  8
0
  6
Continuous
100
AcDbMText
 10
98.261856873839
 20
39.3921518697125
 30
0.0
 40
2.5
 41
0.0
 71
     7
 72
     1
  1
{EXTRA WIND ZONE.}
  7
GENERATED_STYLE_1
 73
     1
 44
1.0
  0
MTEXT
  5
18E
330
E3
100
AcDbEntity
  8
0
  6
Continuous
100
AcDbMText
 10
182.7611909304271
 20
38.32702237368838
 30
0.0
 40
2.499999999999999
 41
0.0
 71
     8
 72
     1
  1
{90MM}
  7
GENERATED_STYLE_1
 73
     1
 44
1.0
  0
MTEXT
  5
18F
330
E3
100
AcDbEntity
  8
0
  6
Continuous
100
AcDbMText
 10
206.7312077672151
 20
60.32640241381011
 30
0.0
 40
2.499999999999999
 41
0.0
 71
     8
 72
     1
  1
{150MM}
  7
GENERATED_STYLE_1
 73
     1
 44
1.0
  0
MTEXT
  5
190
330
E3
100
AcDbEntity
  8
0
  6
Continuous
100
AcDbMText
 10
206.7312077672151
 20
49.08762289235236
 30
0.0
 40
2.499999999999999
 41
0.0
 71
     8
 72
     1
  1
{200MM}
  7
GENERATED_STYLE_1
 73
     1
 44
1.0
  0
MTEXT
  5
191
330
E3
100
AcDbEntity
  8
0
  6
Continuous
100
AcDbMText
 10
206.7312077672151
 20
70.20846009875902
 30
0.0
 40
2.499999999999999
 41
0.0
 71
     8
 72
     1
  1
{B}
  7
GENERATED_STYLE_1
 73
     1
 44
1.0
  0
MTEXT
  5
192
330
E3
100
AcDbEntity
  8
0
  6
Continuous
100
AcDbMText
 10
206.7312077672151
 20
38.32702038669159
 30
0.0
 40
2.499999999999999
 41
0.0
 71
     8
 72
     1
  1
{200MM}
  7
GENERATED_STYLE_1
 73
     1
 44
1.0
  0
HATCH
  5
193
330
E3
100
AcDbEntity
  8
0
  6
Continuous
 62
   255
370
     0
100
AcDbHatch
 10
0.0
 20
0.0
 30
0.0
210
0.0
220
0.0
230
1.0
  2
SOLID
 70
     1
 71
     0
 91
        1
 92
        3
 72
     0
 73
     1
 93
        4
 10
151.2170887184049
 20
163.220265564607
 10
149.7398770888866
 20
163.4807378311074
 10
149.6530530000531
 20
162.9883339546013
 10
151.1302646295715
 20
162.7278616881009
 97
        0
 75
     0
 76
     1
 98
        0
  0
HATCH
  5
194
330
E3
100
AcDbEntity
  8
0
  6
Continuous
 62
   255
370
     0
100
AcDbHatch
 10
0.0
 20
0.0
 30
0.0
210
0.0
220
0.0
230
1.0
  2
SOLID
 70
     1
 71
     0
 91
        1
 92
        3
 72
     1
 73
     1
 93
        4
 10
150.9564160986796
 20
163.1816102962728
 42
0.1666666666666667
 10
149.9716083456674
 20
163.3552584739397
 42
0.0
 10
149.9137256197785
 20
163.0269892229356
 42
0.1666666666666667
 10
150.8985333727907
 20
162.8533410452686
 42
0.0
 97
        0
 75
     0
 76
     1
 98
        0
  0
ARC
  5
195
330
E3
100
AcDbEntity
  8
0
  6
Continuous
100
AcDbCircle
 10
150.2107752964093
 20
161.8322564119634
 30
0.0
 40
1.541666666666623
100
AcDbArc
 50
61.07535558395009
 51
98.92464441605355
  0
LINE
  5
196
330
E3
100
AcDbEntity
  8
0
  6
Continuous
100
AcDbLine
 10
149.9716070134982
 20
163.3552575779144
 30
0.0
 11
149.9137264952364
 21
163.0269897945474
 31
0.0
  0
ARC
  5
197
330
E3
100
AcDbEntity
  8
0
  6
Continuous
100
AcDbCircle
 10
150.6593664220488
 20
164.376343107245
 30
0.0
 40
1.541666666666723
100
AcDbArc
 50
241.0753555839498
 51
278.9246444160511
  0
LINE
  5
198
330
E3
100
AcDbEntity
  8
0
  6
Continuous
100
AcDbLine
 10
150.8985334270528
 20
162.8533410763315
 30
0.0
 11
150.9564175270298
 21
163.1816088596986
 31
0.0
  0
HATCH
  5
199
330
E3
100
AcDbEntity
  8
0
  6
Continuous
 62
   255
370
     0
100
AcDbHatch
 10
0.0
 20
0.0
 30
0.0
210
0.0
220
0.0
230
1.0
  2
SOLID
 70
     1
 71
     0
 91
        1
 92
        3
 72
     1
 73
     1
 93
        4
 10
151.4488199751858
 20
163.0947862074393
 42
0.3333333333333333
 10
150.9564160986796
 20
163.1816102962728
 42
0.0
 10
150.8985333727907
 20
162.8533410452686
 42
0.3333333333333333
 10
151.3909372492967
 20
162.7665169564352
 42
0.0
 97
        0
 75
     0
 76
     1
 98
        0
  0
ARC
  5
19A
330
E3
100
AcDbEntity
  8
0
  6
Continuous
100
AcDbCircle
 10
151.1447353110437
 20
162.809929000852
 30
0.0
 40
0.4166666666666826
100
AcDbArc
 50
43.13010235415265
 51
116.8698976458419
  0
LINE
  5
19B
330
E3
100
AcDbEntity
  8
0
  6
Continuous
100
AcDbLine
 10
150.9564175270298
 20
163.1816088596986
 30
0.0
 11
150.8985334270528
 21
162.8533410763315
 31
0.0
  0
ARC
  5
19C
330
E3
100
AcDbEntity
  8
0
  6
Continuous
100
AcDbCircle
 10
151.2026180369327
 20
163.138198251856
 30
0.0
 40
0.4166666666666826
100
AcDbArc
 50
223.1301023541527
 51
296.8698976458385
  0
LINE
  5
19D
330
E3
100
AcDbEntity
  8
0
  6
Continuous
100
AcDbLine
 10
151.390936892961
 20
162.7665167172236
 30
0.0
 11
151.448820992938
 21
163.0947845005906
 31
0.0
  0
HATCH
  5
19E
330
E3
100
AcDbEntity
  8
0
  6
Continuous
 62
   255
370
     0
100
AcDbHatch
 10
0.0
 20
0.0
 30
0.0
210
0.0
220
0.0
230
1.0
  2
SOLID
 70
     1
 71
     0
 91
        1
 92
        3
 72
     1
 73
     1
 93
        4
 10
149.4792044691613
 20
163.4420825627732
 42
0.0
 10
149.4213217432724
 20
163.1138133117691
 42
0.3333333333333333
 10
149.9137256197785
 20
163.0269892229356
 42
0.0
 10
149.9716083456674
 20
163.3552584739397
 42
0.3333333333333333
 97
        0
 75
     0
 76
     1
 98
        0
  0
LINE
  5
19F
330
E3
100
AcDbEntity
  8
0
  6
Continuous
100
AcDbLine
 10
149.4213230293282
 20
163.1138141536553
 30
0.0
 11
149.47920354759
 21
163.4420819370224
 31
0.0
  0
ARC
  5
1A0
330
E3
100
AcDbEntity
  8
0
  6
Continuous
100
AcDbCircle
 10
149.7254064074144
 20
163.3986705183564
 30
0.0
 40
0.4166666666666826
100
AcDbArc
 50
223.1301023541527
 51
296.8698976458385
  0
LINE
  5
1A1
330
E3
100
AcDbEntity
  8
0
  6
Continuous
100
AcDbLine
 10
149.9716070134982
 20
163.3552575779144
 30
0.0
 11
149.9137264952364
 21
163.0269897945474
 31
0.0
  0
ARC
  5
1A2
330
E3
100
AcDbEntity
  8
0
  6
Continuous
100
AcDbCircle
 10
149.6675236815254
 20
163.0704012673524
 30
0.0
 40
0.4166666666666231
100
AcDbArc
 50
43.13010235415509
 51
116.8698976458471
  0
HATCH
  5
1A3
330
E3
100
AcDbEntity
  8
0
  6
Continuous
 62
   255
370
     0
100
AcDbHatch
 10
0.0
 20
0.0
 30
0.0
210
0.0
220
0.0
230
1.0
  2
SOLID
 70
     1
 71
     0
 91
        1
 92
        3
 72
     0
 73
     1
 93
        4
 10
150.0633898920775
 20
162.9159804893573
 10
149.7855528078104
 20
161.3402880845378
 10
150.44209065328
 20
161.2245227485253
 10
150.7199277375471
 20
162.8002151533449
 97
        0
 75
     0
 76
     1
 98
        0
  0
LINE
  5
1A4
330
E3
100
AcDbEntity
  8
0
  6
Continuous
100
AcDbLine
 10
150.0633884664969
 20
162.9159816941459
 30
0.0
 11
149.7855512336945
 21
161.3402884542106
 31
0.0
  0
LINE
  5
1A5
330
E3
100
AcDbEntity
  8
0
  6
Continuous
100
AcDbLine
 10
149.7855512336945
 20
161.3402884542106
 30
0.0
 11
150.4420903821438
 21
161.2245238359718
 31
0.0
  0
LINE
  5
1A6
330
E3
100
AcDbEntity
  8
0
  6
Continuous
100
AcDbLine
 10
150.4420903821438
 20
161.2245238359718
 30
0.0
 11
150.7199276149462
 21
162.8002134941919
 31
0.0
  0
LINE
  5
1A7
330
E3
100
AcDbEntity
  8
0
  6
Continuous
100
AcDbLine
 10
150.7199276149462
 20
162.8002134941919
 30
0.0
 11
150.0633884664969
 21
162.9159816941459
 31
0.0
  0
HATCH
  5
1A8
330
E3
100
AcDbEntity
  8
0
  6
Continuous
 62
   255
370
     0
100
AcDbHatch
 10
0.0
 20
0.0
 30
0.0
210
0.0
220
0.0
230
1.0
  2
SOLID
 70
     1
 71
     0
 91
        1
 92
        3
 72
     0
 73
     1
 93
        5
 10
149.8183794046415
 20
161.3344998698317
 10
148.0124383569054
 20
151.0924992385047
 10
148.203691776209
 20
150.4495201333973
 10
148.6033230087127
 20
150.9883103319045
 10
150.4092640564489
 20
161.2303109632315
 97
        0
 75
     0
 76
     1
 98
        0
  0
LINE
  5
1A9
330
E3
100
AcDbEntity
  8
0
  6
Continuous
100
AcDbLine
 10
149.8183776538598
 20
161.3345004023844
 30
0.0
 11
148.0124374315023
 21
151.0924997153778
 31
0.0
  0
LINE
  5
1AA
330
E3
100
AcDbEntity
  8
0
  6
Continuous
100
AcDbLine
 10
148.0124374315023
 20
151.0924997153778
 30
0.0
 11
148.2036902801177
 21
150.4495209408232
 31
0.0
  0
LINE
  5
1AB
330
E3
100
AcDbEntity
  8
0
  6
Continuous
100
AcDbLine
 10
148.2036902801177
 20
150.4495209408232
 30
0.0
 11
148.6033237396213
 21
150.9883112007913
 31
0.0
  0
LINE
  5
1AC
330
E3
100
AcDbEntity
  8
0
  6
Continuous
100
AcDbLine
 10
148.6033237396213
 20
150.9883112007913
 30
0.0
 11
150.4092639619787
 21
161.230311887798
 31
0.0
  0
LINE
  5
1AD
330
E3
100
AcDbEntity
  8
0
  6
Continuous
100
AcDbLine
 10
150.4092639619787
 20
161.230311887798
 30
0.0
 11
149.8183776538598
 21
161.3345004023844
 31
0.0
  0
LINE
  5
1AE
330
E3
100
AcDbEntity
  8
0
  6
Continuous
100
AcDbLine
 10
151.2170875986917
 20
163.2202663122728
 30
0.0
 11
149.7398772009672
 21
163.4807393895966
 31
0.0
  0
LINE
  5
1AF
330
E3
100
AcDbEntity
  8
0
  6
Continuous
100
AcDbLine
 10
149.6530528418592
 20
162.9883323419732
 30
0.0
 11
151.1302632395838
 21
162.7278628463646
 31
0.0
  0
LINE
  5
1B0
330
E3
100
AcDbEntity
  8
0
  6
Continuous
100
AcDbLine
 10
150.6062256070513
 20
161.1955813276981
 30
0.0
 11
150.603404376544
 21
161.1905382645675
 31
0.0
  0
LINE
  5
1B1
330
E3
100
AcDbEntity
  8
0
  6
Continuous
100
AcDbLine
 10
150.603404376544
 20
161.1905382645675
 30
0.0
 11
150.5968499155489
 21
161.186153470697
 31
0.0
  0
LINE
  5
1B2
330
E3
100
AcDbEntity
  8
0
  6
Continuous
100
AcDbLine
 10
150.5968499155489
 20
161.186153470697
 30
0.0
 11
150.5866054286059
 21
161.1824207733377
 31
0.0
  0
LINE
  5
1B3
330
E3
100
AcDbEntity
  8
0
  6
Continuous
100
AcDbLine
 10
150.5866054286059
 20
161.1824207733377
 30
0.0
 11
150.5727406089158
 21
161.179322589656
 31
0.0
  0
LINE
  5
1B4
330
E3
100
AcDbEntity
  8
0
  6
Continuous
100
AcDbLine
 10
150.5727406089158
 20
161.179322589656
 30
0.0
 11
150.5553549631459
 21
161.1768476244258
 31
0.0
  0
LINE
  5
1B5
330
E3
100
AcDbEntity
  8
0
  6
Continuous
100
AcDbLine
 10
150.5553549631459
 20
161.1768476244258
 30
0.0
 11
150.5345702696141
 21
161.1749743873559
 31
0.0
  0
LINE
  5
1B6
330
E3
100
AcDbEntity
  8
0
  6
Continuous
100
AcDbLine
 10
150.5345702696141
 20
161.1749743873559
 30
0.0
 11
150.5105441237911
 21
161.1736706430089
 31
0.0
  0
LINE
  5
1B7
330
E3
100
AcDbEntity
  8
0
  6
Continuous
100
AcDbLine
 10
150.5105441237911
 20
161.1736706430089
 30
0.0
 11
150.4834448662931
 21
161.172907737663
 31
0.0
  0
LINE
  5
1B8
330
E3
100
AcDbEntity
  8
0
  6
Continuous
100
AcDbLine
 10
150.4834448662931
 20
161.172907737663
 30
0.0
 11
150.4534766548886
 21
161.1726498541658
 31
0.0
  0
LINE
  5
1B9
330
E3
100
AcDbEntity
  8
0
  6
Continuous
100
AcDbLine
 10
150.4534766548886
 20
161.1726498541658
 30
0.0
 11
150.4208579742072
 21
161.1728611753649
 31
0.0
  0
LINE
  5
1BA
330
E3
100
AcDbEntity
  8
0
  6
Continuous
100
AcDbLine
 10
150.4208579742072
 20
161.1728611753649
 30
0.0
 11
150.3858323808853
 21
161.1734987206774
 31
0.0
  0
LINE
  5
1BB
330
E3
100
AcDbEntity
  8
0
  6
Continuous
100
AcDbLine
 10
150.3858323808853
 20
161.1734987206774
 30
0.0
 11
150.3486541767048
 21
161.17451234609
 31
0.0
  0
LINE
  5
1BC
330
E3
100
AcDbEntity
  8
0
  6
Continuous
100
AcDbLine
 10
150.3486541767048
 20
161.17451234609
 30
0.0
 11
150.3096027354543
 21
161.1758554893047
 31
0.0
  0
LINE
  5
1BD
330
E3
100
AcDbEntity
  8
0
  6
Continuous
100
AcDbLine
 10
150.3096027354543
 20
161.1758554893047
 30
0.0
 11
150.2689681760681
 21
161.1774815880231
 31
0.0
  0
LINE
  5
1BE
330
E3
100
AcDbEntity
  8
0
  6
Continuous
100
AcDbLine
 10
150.2689681760681
 20
161.1774815880231
 30
0.0
 11
150.2270513626265
 21
161.1793333348017
 31
0.0
  0
LINE
  5
1BF
330
E3
100
AcDbEntity
  8
0
  6
Continuous
100
AcDbLine
 10
150.2270513626265
 20
161.1793333348017
 30
0.0
 11
150.1841674860703
 21
161.1813534221965
 31
0.0
  0
LINE
  5
1C0
330
E3
100
AcDbEntity
  8
0
  6
Continuous
100
AcDbLine
 10
150.1841674860703
 20
161.1813534221965
 30
0.0
 11
150.1406317373406
 21
161.1834881244789
 31
0.0
  0
LINE
  5
1C1
330
E3
100
AcDbEntity
  8
0
  6
Continuous
100
AcDbLine
 10
150.1406317373406
 20
161.1834881244789
 30
0.0
 11
150.0967664708089
 21
161.1856837159204
 31
0.0
  0
LINE
  5
1C2
330
E3
100
AcDbEntity
  8
0
  6
Continuous
100
AcDbLine
 10
150.0967664708089
 20
161.1856837159204
 30
0.0
 11
150.0529047859924
 21
161.1878757256466
 31
0.0
  0
LINE
  5
1C3
330
E3
100
AcDbEntity
  8
0
  6
Continuous
100
AcDbLine
 10
150.0529047859924
 20
161.1878757256466
 30
0.0
 11
150.0093654555474
 21
161.1900140096443
 31
0.0
  0
LINE
  5
1C4
330
E3
100
AcDbEntity
  8
0
  6
Continuous
100
AcDbLine
 10
150.0093654555474
 20
161.1900140096443
 30
0.0
 11
149.9664815789912
 21
161.1920340970391
 31
0.0
  0
LINE
  5
1C5
330
E3
100
AcDbEntity
  8
0
  6
Continuous
100
AcDbLine
 10
149.9664815789912
 20
161.1920340970391
 30
0.0
 11
149.9245647655495
 21
161.1938858438176
 31
0.0
  0
LINE
  5
1C6
330
E3
100
AcDbEntity
  8
0
  6
Continuous
100
AcDbLine
 10
149.9245647655495
 20
161.1938858438176
 30
0.0
 11
149.8839302061634
 21
161.1955083608209
 31
0.0
  0
LINE
  5
1C7
330
E3
100
AcDbEntity
  8
0
  6
Continuous
100
AcDbLine
 10
149.8839302061634
 20
161.1955083608209
 30
0.0
 11
149.8448787649129
 21
161.1968550857507
 31
0.0
  0
LINE
  5
1C8
330
E3
100
AcDbEntity
  8
0
  6
Continuous
100
AcDbLine
 10
149.8448787649129
 20
161.1968550857507
 30
0.0
 11
149.8077041424476
 21
161.1978687111634
 31
0.0
  0
LINE
  5
1C9
330
E3
100
AcDbEntity
  8
0
  6
Continuous
100
AcDbLine
 10
149.8077041424476
 20
161.1978687111634
 30
0.0
 11
149.7726749674104
 21
161.1985062564759
 31
0.0
  0
LINE
  5
1CA
330
E3
100
AcDbEntity
  8
0
  6
Continuous
100
AcDbLine
 10
149.7726749674104
 20
161.1985062564759
 30
0.0
 11
149.7400562867291
 21
161.198717577675
 31
0.0
  0
LINE
  5
1CB
330
E3
100
AcDbEntity
  8
0
  6
Continuous
100
AcDbLine
 10
149.7400562867291
 20
161.198717577675
 30
0.0
 11
149.7100880753246
 21
161.1984596941778
 31
0.0
  0
LINE
  5
1CC
330
E3
100
AcDbEntity
  8
0
  6
Continuous
100
AcDbLine
 10
149.7100880753246
 20
161.1984596941778
 30
0.0
 11
149.6829923995418
 21
161.1976967888319
 31
0.0
  0
LINE
  5
1CD
330
E3
100
AcDbEntity
  8
0
  6
Continuous
100
AcDbLine
 10
149.6829923995418
 20
161.1976967888319
 30
0.0
 11
149.6589626720036
 21
161.1963930444849
 31
0.0
  0
LINE
  5
1CE
330
E3
100
AcDbEntity
  8
0
  6
Continuous
100
AcDbLine
 10
149.6589626720036
 20
161.1963930444849
 30
0.0
 11
149.638181560187
 21
161.1945162256997
 31
0.0
  0
LINE
  5
1CF
330
E3
100
AcDbEntity
  8
0
  6
Continuous
100
AcDbLine
 10
149.638181560187
 20
161.1945162256997
 30
0.0
 11
149.6207923327018
 21
161.1920412604696
 31
0.0
  0
LINE
  5
1D0
330
E3
100
AcDbEntity
  8
0
  6
Continuous
100
AcDbLine
 10
149.6207923327018
 20
161.1920412604696
 30
0.0
 11
149.6069275130118
 21
161.1889466585031
 31
0.0
  0
LINE
  5
1D1
330
E3
100
AcDbEntity
  8
0
  6
Continuous
100
AcDbLine
 10
149.6069275130118
 20
161.1889466585031
 30
0.0
 11
149.5966838074283
 21
161.1852145112241
 31
0.0
  0
LINE
  5
1D2
330
E3
100
AcDbEntity
  8
0
  6
Continuous
100
AcDbLine
 10
149.5966838074283
 20
161.1852145112241
 30
0.0
 11
149.5901296210761
 21
161.1808281884397
 31
0.0
  0
LINE
  5
1D3
330
E3
100
AcDbEntity
  8
0
  6
Continuous
100
AcDbLine
 10
149.5901296210761
 20
161.1808281884397
 30
0.0
 11
149.5873083905688
 21
161.1757851253091
 31
0.0
  0
LINE
  5
1D4
330
E3
100
AcDbEntity
  8
0
  6
Continuous
100
AcDbLine
 10
150.5380066801108
 20
160.8086925675862
 30
0.0
 11
150.5351854496035
 21
160.8036495044555
 31
0.0
  0
LINE
  5
1D5
330
E3
100
AcDbEntity
  8
0
  6
Continuous
100
AcDbLine
 10
150.5351854496035
 20
160.8036495044555
 30
0.0
 11
150.5286309886083
 21
160.7992647105851
 31
0.0
  0
LINE
  5
1D6
330
E3
100
AcDbEntity
  8
0
  6
Continuous
100
AcDbLine
 10
150.5286309886083
 20
160.7992647105851
 30
0.0
 11
150.5183844984492
 21
160.7955310566544
 31
0.0
  0
LINE
  5
1D7
330
E3
100
AcDbEntity
  8
0
  6
Continuous
100
AcDbLine
 10
150.5183844984492
 20
160.7955310566544
 30
0.0
 11
150.5045196787592
 21
160.7924364546879
 31
0.0
  0
LINE
  5
1D8
330
E3
100
AcDbEntity
  8
0
  6
Continuous
100
AcDbLine
 10
150.5045196787592
 20
160.7924364546879
 30
0.0
 11
150.4871340329892
 21
160.7899614894578
 31
0.0
  0
LINE
  5
1D9
330
E3
100
AcDbEntity
  8
0
  6
Continuous
100
AcDbLine
 10
150.4871340329892
 20
160.7899614894578
 30
0.0
 11
150.4663529211727
 21
160.7880846706726
 31
0.0
  0
LINE
  5
1DA
330
E3
100
AcDbEntity
  8
0
  6
Continuous
100
AcDbLine
 10
150.4663529211727
 20
160.7880846706726
 30
0.0
 11
150.4423231936344
 21
160.7867809263256
 31
0.0
  0
LINE
  5
1DB
330
E3
100
AcDbEntity
  8
0
  6
Continuous
100
AcDbLine
 10
150.4423231936344
 20
160.7867809263256
 30
0.0
 11
150.4152275178516
 21
160.7860180209797
 31
0.0
  0
LINE
  5
1DC
330
E3
100
AcDbEntity
  8
0
  6
Continuous
100
AcDbLine
 10
150.4152275178516
 20
160.7860180209797
 30
0.0
 11
150.3852593064471
 21
160.7857601374824
 31
0.0
  0
LINE
  5
1DD
330
E3
100
AcDbEntity
  8
0
  6
Continuous
100
AcDbLine
 10
150.3852593064471
 20
160.7857601374824
 30
0.0
 11
150.3526406257658
 21
160.7859714586816
 31
0.0
  0
LINE
  5
1DE
330
E3
100
AcDbEntity
  8
0
  6
Continuous
100
AcDbLine
 10
150.3526406257658
 20
160.7859714586816
 30
0.0
 11
150.3176114507286
 21
160.7866090039941
 31
0.0
  0
LINE
  5
1DF
330
E3
100
AcDbEntity
  8
0
  6
Continuous
100
AcDbLine
 10
150.3176114507286
 20
160.7866090039941
 30
0.0
 11
150.2804332465481
 21
160.7876226294067
 31
0.0
  0
LINE
  5
1E0
330
E3
100
AcDbEntity
  8
0
  6
Continuous
100
AcDbLine
 10
150.2804332465481
 20
160.7876226294067
 30
0.0
 11
150.2413853870129
 21
160.7889693543366
 31
0.0
  0
LINE
  5
1E1
330
E3
100
AcDbEntity
  8
0
  6
Continuous
100
AcDbLine
 10
150.2413853870129
 20
160.7889693543366
 30
0.0
 11
150.2007508276267
 21
160.7905918713398
 31
0.0
  0
LINE
  5
1E2
330
E3
100
AcDbEntity
  8
0
  6
Continuous
100
AcDbLine
 10
150.2007508276267
 20
160.7905918713398
 30
0.0
 11
150.158834014185
 21
160.7924436181184
 31
0.0
  0
LINE
  5
1E3
330
E3
100
AcDbEntity
  8
0
  6
Continuous
100
AcDbLine
 10
150.158834014185
 20
160.7924436181184
 30
0.0
 11
150.1159465559135
 21
160.7944637055132
 31
0.0
  0
LINE
  5
1E4
330
E3
100
AcDbEntity
  8
0
  6
Continuous
100
AcDbLine
 10
150.1159465559135
 20
160.7944637055132
 30
0.0
 11
150.0724108071838
 21
160.7966019895108
 31
0.0
  0
LINE
  5
1E5
330
E3
100
AcDbEntity
  8
0
  6
Continuous
100
AcDbLine
 10
150.0724108071838
 20
160.7966019895108
 30
0.0
 11
150.0285491223674
 21
160.7987939992371
 31
0.0
  0
LINE
  5
1E6
330
E3
100
AcDbEntity
  8
0
  6
Continuous
100
AcDbLine
 10
150.0285491223674
 20
160.7987939992371
 30
0.0
 11
149.9846838558357
 21
160.8009895906786
 31
0.0
  0
LINE
  5
1E7
330
E3
100
AcDbEntity
  8
0
  6
Continuous
100
AcDbLine
 10
149.9846838558357
 20
160.8009895906786
 30
0.0
 11
149.941148107106
 21
160.803124292961
 31
0.0
  0
LINE
  5
1E8
330
E3
100
AcDbEntity
  8
0
  6
Continuous
100
AcDbLine
 10
149.941148107106
 20
160.803124292961
 30
0.0
 11
149.8982606488345
 21
160.8051443803558
 31
0.0
  0
LINE
  5
1E9
330
E3
100
AcDbEntity
  8
0
  6
Continuous
100
AcDbLine
 10
149.8982606488345
 20
160.8051443803558
 30
0.0
 11
149.8563474171081
 21
160.8069961271343
 31
0.0
  0
LINE
  5
1EA
330
E3
100
AcDbEntity
  8
0
  6
Continuous
100
AcDbLine
 10
149.8563474171081
 20
160.8069961271343
 30
0.0
 11
149.8157128577219
 21
160.8086222258528
 31
0.0
  0
LINE
  5
1EB
330
E3
100
AcDbEntity
  8
0
  6
Continuous
100
AcDbLine
 10
149.8157128577219
 20
160.8086222258528
 30
0.0
 11
149.7766614164715
 21
160.8099653690674
 31
0.0
  0
LINE
  5
1EC
330
E3
100
AcDbEntity
  8
0
  6
Continuous
100
AcDbLine
 10
149.7766614164715
 20
160.8099653690674
 30
0.0
 11
149.7394832122909
 21
160.8109789944801
 31
0.0
  0
LINE
  5
1ED
330
E3
100
AcDbEntity
  8
0
  6
Continuous
100
AcDbLine
 10
149.7394832122909
 20
160.8109789944801
 30
0.0
 11
149.704457618969
 21
160.8116165397926
 31
0.0
  0
LINE
  5
1EE
330
E3
100
AcDbEntity
  8
0
  6
Continuous
100
AcDbLine
 10
149.704457618969
 20
160.8116165397926
 30
0.0
 11
149.6718389382877
 21
160.8118278609917
 31
0.0
  0
LINE
  5
1EF
330
E3
100
AcDbEntity
  8
0
  6
Continuous
100
AcDbLine
 10
149.6718389382877
 20
160.8118278609917
 30
0.0
 11
149.6418707268832
 21
160.8115699774945
 31
0.0
  0
LINE
  5
1F0
330
E3
100
AcDbEntity
  8
0
  6
Continuous
100
AcDbLine
 10
149.6418707268832
 20
160.8115699774945
 30
0.0
 11
149.6147714693851
 21
160.8108070721486
 31
0.0
  0
LINE
  5
1F1
330
E3
100
AcDbEntity
  8
0
  6
Continuous
100
AcDbLine
 10
149.6147714693851
 20
160.8108070721486
 30
0.0
 11
149.5907453235621
 21
160.8095033278016
 31
0.0
  0
LINE
  5
1F2
330
E3
100
AcDbEntity
  8
0
  6
Continuous
100
AcDbLine
 10
149.5907453235621
 20
160.8095033278016
 30
0.0
 11
149.5699606300304
 21
160.8076300907316
 31
0.0
  0
LINE
  5
1F3
330
E3
100
AcDbEntity
  8
0
  6
Continuous
100
AcDbLine
 10
149.5699606300304
 20
160.8076300907316
 30
0.0
 11
149.5525749842604
 21
160.8051551255015
 31
0.0
  0
LINE
  5
1F4
330
E3
100
AcDbEntity
  8
0
  6
Continuous
100
AcDbLine
 10
149.5525749842604
 20
160.8051551255015
 30
0.0
 11
149.5387101645703
 21
160.8020569418198
 31
0.0
  0
LINE
  5
1F5
330
E3
100
AcDbEntity
  8
0
  6
Continuous
100
AcDbLine
 10
149.5387101645703
 20
160.8020569418198
 30
0.0
 11
149.5284664589868
 21
160.7983247945408
 31
0.0
  0
LINE
  5
1F6
330
E3
100
AcDbEntity
  8
0
  6
Continuous
100
AcDbLine
 10
149.5284664589868
 20
160.7983247945408
 30
0.0
 11
149.5219106941355
 21
160.7939394283277
 31
0.0
  0
LINE
  5
1F7
330
E3
100
AcDbEntity
  8
0
  6
Continuous
100
AcDbLine
 10
149.5219106941355
 20
160.7939394283277
 30
0.0
 11
149.5190894636282
 21
160.7888963651971
 31
0.0
  0
LINE
  5
1F8
330
E3
100
AcDbEntity
  8
0
  6
Continuous
100
AcDbLine
 10
150.4697877531702
 20
160.4218038074742
 30
0.0
 11
150.4669665226629
 21
160.4167607443436
 31
0.0
  0
LINE
  5
1F9
330
E3
100
AcDbEntity
  8
0
  6
Continuous
100
AcDbLine
 10
150.4669665226629
 20
160.4167607443436
 30
0.0
 11
150.4604120616677
 21
160.4123759504732
 31
0.0
  0
LINE
  5
1FA
330
E3
100
AcDbEntity
  8
0
  6
Continuous
100
AcDbLine
 10
150.4604120616677
 20
160.4123759504732
 30
0.0
 11
150.4501671500078
 21
160.4086413399711
 31
0.0
  0
LINE
  5
1FB
330
E3
100
AcDbEntity
  8
0
  6
Continuous
100
AcDbLine
 10
150.4501671500078
 20
160.4086413399711
 30
0.0
 11
150.4363023303177
 21
160.4055467380046
 31
0.0
  0
LINE
  5
1FC
330
E3
100
AcDbEntity
  8
0
  6
Continuous
100
AcDbLine
 10
150.4363023303177
 20
160.4055467380046
 30
0.0
 11
150.4189166845477
 21
160.4030717727745
 31
0.0
  0
LINE
  5
1FD
330
E3
100
AcDbEntity
  8
0
  6
Continuous
100
AcDbLine
 10
150.4189166845477
 20
160.4030717727745
 30
0.0
 11
150.398131991016
 21
160.4011949539892
 31
0.0
  0
LINE
  5
1FE
330
E3
100
AcDbEntity
  8
0
  6
Continuous
100
AcDbLine
 10
150.398131991016
 20
160.4011949539892
 30
0.0
 11
150.374105845193
 21
160.3998912096423
 31
0.0
  0
LINE
  5
1FF
330
E3
100
AcDbEntity
  8
0
  6
Continuous
100
AcDbLine
 10
150.374105845193
 20
160.3998912096423
 30
0.0
 11
150.3470065876949
 21
160.3991283042964
 31
0.0
  0
LINE
  5
200
330
E3
100
AcDbEntity
  8
0
  6
Continuous
100
AcDbLine
 10
150.3470065876949
 20
160.3991283042964
 30
0.0
 11
150.3170383762904
 21
160.3988740025144
 31
0.0
  0
LINE
  5
201
330
E3
100
AcDbEntity
  8
0
  6
Continuous
100
AcDbLine
 10
150.3170383762904
 20
160.3988740025144
 30
0.0
 11
150.2844196956091
 21
160.3990853237135
 31
0.0
  0
LINE
  5
202
330
E3
100
AcDbEntity
  8
0
  6
Continuous
100
AcDbLine
 10
150.2844196956091
 20
160.3990853237135
 30
0.0
 11
150.2493941022872
 21
160.3997192873108
 31
0.0
  0
LINE
  5
203
330
E3
100
AcDbEntity
  8
0
  6
Continuous
100
AcDbLine
 10
150.2493941022872
 20
160.3997192873108
 30
0.0
 11
150.2122158981066
 21
160.4007329127234
 31
0.0
  0
LINE
  5
204
330
E3
100
AcDbEntity
  8
0
  6
Continuous
100
AcDbLine
 10
150.2122158981066
 20
160.4007329127234
 30
0.0
 11
150.1731644568561
 21
160.4020796376533
 31
0.0
  0
LINE
  5
205
330
E3
100
AcDbEntity
  8
0
  6
Continuous
100
AcDbLine
 10
150.1731644568561
 20
160.4020796376533
 30
0.0
 11
150.13252989747
 21
160.4037021546565
 31
0.0
  0
LINE
  5
206
330
E3
100
AcDbEntity
  8
0
  6
Continuous
100
AcDbLine
 10
150.13252989747
 20
160.4037021546565
 30
0.0
 11
150.0906166657435
 21
160.4055539014351
 31
0.0
  0
LINE
  5
207
330
E3
100
AcDbEntity
  8
0
  6
Continuous
100
AcDbLine
 10
150.0906166657435
 20
160.4055539014351
 30
0.0
 11
150.0477292074721
 21
160.4075739888299
 31
0.0
  0
LINE
  5
208
330
E3
100
AcDbEntity
  8
0
  6
Continuous
100
AcDbLine
 10
150.0477292074721
 20
160.4075739888299
 30
0.0
 11
150.0041934587423
 21
160.4097122728276
 31
0.0
  0
LINE
  5
209
330
E3
100
AcDbEntity
  8
0
  6
Continuous
100
AcDbLine
 10
150.0041934587423
 20
160.4097122728276
 30
0.0
 11
149.9603281922107
 21
160.4119042825538
 31
0.0
  0
LINE
  5
20A
330
E3
100
AcDbEntity
  8
0
  6
Continuous
100
AcDbLine
 10
149.9603281922107
 20
160.4119042825538
 30
0.0
 11
149.9164665073942
 21
160.4140998739953
 31
0.0
  0
LINE
  5
20B
330
E3
100
AcDbEntity
  8
0
  6
Continuous
100
AcDbLine
 10
149.9164665073942
 20
160.4140998739953
 30
0.0
 11
149.8729307586645
 21
160.4162345762777
 31
0.0
  0
LINE
  5
20C
330
E3
100
AcDbEntity
  8
0
  6
Continuous
100
AcDbLine
 10
149.8729307586645
 20
160.4162345762777
 30
0.0
 11
149.8300433003931
 21
160.4182582453877
 31
0.0
  0
LINE
  5
20D
330
E3
100
AcDbEntity
  8
0
  6
Continuous
100
AcDbLine
 10
149.8300433003931
 20
160.4182582453877
 30
0.0
 11
149.7881264869514
 21
160.420106410451
 31
0.0
  0
LINE
  5
20E
330
E3
100
AcDbEntity
  8
0
  6
Continuous
100
AcDbLine
 10
149.7881264869514
 20
160.420106410451
 30
0.0
 11
149.7474919275652
 21
160.4217325091695
 31
0.0
  0
LINE
  5
20F
330
E3
100
AcDbEntity
  8
0
  6
Continuous
100
AcDbLine
 10
149.7474919275652
 20
160.4217325091695
 30
0.0
 11
149.70844406803
 21
160.4230756523841
 31
0.0
  0
LINE
  5
210
330
E3
100
AcDbEntity
  8
0
  6
Continuous
100
AcDbLine
 10
149.70844406803
 20
160.4230756523841
 30
0.0
 11
149.6712658638494
 21
160.424092859512
 31
0.0
  0
LINE
  5
211
330
E3
100
AcDbEntity
  8
0
  6
Continuous
100
AcDbLine
 10
149.6712658638494
 20
160.424092859512
 30
0.0
 11
149.6362366888123
 21
160.4247268231093
 31
0.0
  0
LINE
  5
212
330
E3
100
AcDbEntity
  8
0
  6
Continuous
100
AcDbLine
 10
149.6362366888123
 20
160.4247268231093
 30
0.0
 11
149.603618008131
 21
160.4249381443084
 31
0.0
  0
LINE
  5
213
330
E3
100
AcDbEntity
  8
0
  6
Continuous
100
AcDbLine
 10
149.603618008131
 20
160.4249381443084
 30
0.0
 11
149.5736497967265
 21
160.4246838425264
 31
0.0
  0
LINE
  5
214
330
E3
100
AcDbEntity
  8
0
  6
Continuous
100
AcDbLine
 10
149.5736497967265
 20
160.4246838425264
 30
0.0
 11
149.5465541209437
 21
160.4239209371805
 31
0.0
  0
LINE
  5
215
330
E3
100
AcDbEntity
  8
0
  6
Continuous
100
AcDbLine
 10
149.5465541209437
 20
160.4239209371805
 30
0.0
 11
149.5225243934054
 21
160.4226171928335
 31
0.0
  0
LINE
  5
216
330
E3
100
AcDbEntity
  8
0
  6
Continuous
100
AcDbLine
 10
149.5225243934054
 20
160.4226171928335
 30
0.0
 11
149.5017432815889
 21
160.4207403740483
 31
0.0
  0
LINE
  5
217
330
E3
100
AcDbEntity
  8
0
  6
Continuous
100
AcDbLine
 10
149.5017432815889
 20
160.4207403740483
 30
0.0
 11
149.4843576358189
 21
160.4182654088182
 31
0.0
  0
LINE
  5
218
330
E3
100
AcDbEntity
  8
0
  6
Continuous
100
AcDbLine
 10
149.4843576358189
 20
160.4182654088182
 30
0.0
 11
149.4704928161289
 21
160.4151708068517
 31
0.0
  0
LINE
  5
219
330
E3
100
AcDbEntity
  8
0
  6
Continuous
100
AcDbLine
 10
149.4704928161289
 20
160.4151708068517
 30
0.0
 11
149.4602455288301
 21
160.4114350778575
 31
0.0
  0
LINE
  5
21A
330
E3
100
AcDbEntity
  8
0
  6
Continuous
100
AcDbLine
 10
149.4602455288301
 20
160.4114350778575
 30
0.0
 11
149.453691767195
 21
160.4070506682158
 31
0.0
  0
LINE
  5
21B
330
E3
100
AcDbEntity
  8
0
  6
Continuous
100
AcDbLine
 10
149.453691767195
 20
160.4070506682158
 30
0.0
 11
149.4508705366877
 21
160.4020076050852
 31
0.0
  0
LINE
  5
21C
330
E3
100
AcDbEntity
  8
0
  6
Continuous
100
AcDbLine
 10
150.4015688262296
 20
160.0349150473623
 30
0.0
 11
150.3987475957223
 21
160.0298719842317
 31
0.0
  0
LINE
  5
21D
330
E3
100
AcDbEntity
  8
0
  6
Continuous
100
AcDbLine
 10
150.3987475957223
 20
160.0298719842317
 30
0.0
 11
150.3921931347272
 21
160.0254871903612
 31
0.0
  0
LINE
  5
21E
330
E3
100
AcDbEntity
  8
0
  6
Continuous
100
AcDbLine
 10
150.3921931347272
 20
160.0254871903612
 30
0.0
 11
150.3819498015663
 21
160.0217516232878
 31
0.0
  0
LINE
  5
21F
330
E3
100
AcDbEntity
  8
0
  6
Continuous
100
AcDbLine
 10
150.3819498015663
 20
160.0217516232878
 30
0.0
 11
150.3680849818762
 21
160.0186570213213
 31
0.0
  0
LINE
  5
220
330
E3
100
AcDbEntity
  8
0
  6
Continuous
100
AcDbLine
 10
150.3680849818762
 20
160.0186570213213
 30
0.0
 11
150.350695754391
 21
160.0161820560912
 31
0.0
  0
LINE
  5
221
330
E3
100
AcDbEntity
  8
0
  6
Continuous
100
AcDbLine
 10
150.350695754391
 20
160.0161820560912
 30
0.0
 11
150.3299146425745
 21
160.014305237306
 31
0.0
  0
LINE
  5
222
330
E3
100
AcDbEntity
  8
0
  6
Continuous
100
AcDbLine
 10
150.3299146425745
 20
160.014305237306
 30
0.0
 11
150.3058849150362
 21
160.013001492959
 31
0.0
  0
LINE
  5
223
330
E3
100
AcDbEntity
  8
0
  6
Continuous
100
AcDbLine
 10
150.3058849150362
 20
160.013001492959
 30
0.0
 11
150.2787892392534
 21
160.0122421693283
 31
0.0
  0
LINE
  5
224
330
E3
100
AcDbEntity
  8
0
  6
Continuous
100
AcDbLine
 10
150.2787892392534
 20
160.0122421693283
 30
0.0
 11
150.2488210278489
 21
160.0119842858311
 31
0.0
  0
LINE
  5
225
330
E3
100
AcDbEntity
  8
0
  6
Continuous
100
AcDbLine
 10
150.2488210278489
 20
160.0119842858311
 30
0.0
 11
150.2162023471676
 21
160.0121956070302
 31
0.0
  0
LINE
  5
226
330
E3
100
AcDbEntity
  8
0
  6
Continuous
100
AcDbLine
 10
150.2162023471676
 20
160.0121956070302
 30
0.0
 11
150.1811731721305
 21
160.0128295706275
 31
0.0
  0
LINE
  5
227
330
E3
100
AcDbEntity
  8
0
  6
Continuous
100
AcDbLine
 10
150.1811731721305
 20
160.0128295706275
 30
0.0
 11
150.1439985496652
 21
160.0138467777554
 31
0.0
  0
LINE
  5
228
330
E3
100
AcDbEntity
  8
0
  6
Continuous
100
AcDbLine
 10
150.1439985496652
 20
160.0138467777554
 30
0.0
 11
150.1049471084146
 21
160.01518992097
 31
0.0
  0
LINE
  5
229
330
E3
100
AcDbEntity
  8
0
  6
Continuous
100
AcDbLine
 10
150.1049471084146
 20
160.01518992097
 30
0.0
 11
150.0643125490285
 21
160.0168160196885
 31
0.0
  0
LINE
  5
22A
330
E3
100
AcDbEntity
  8
0
  6
Continuous
100
AcDbLine
 10
150.0643125490285
 20
160.0168160196885
 30
0.0
 11
150.0223957355869
 21
160.0186641847518
 31
0.0
  0
LINE
  5
22B
330
E3
100
AcDbEntity
  8
0
  6
Continuous
100
AcDbLine
 10
150.0223957355869
 20
160.0186641847518
 30
0.0
 11
149.9795118590306
 21
160.0206878538618
 31
0.0
  0
LINE
  5
22C
330
E3
100
AcDbEntity
  8
0
  6
Continuous
100
AcDbLine
 10
149.9795118590306
 20
160.0206878538618
 30
0.0
 11
149.9359725285856
 21
160.0228225561442
 31
0.0
  0
LINE
  5
22D
330
E3
100
AcDbEntity
  8
0
  6
Continuous
100
AcDbLine
 10
149.9359725285856
 20
160.0228225561442
 30
0.0
 11
149.8921108437692
 21
160.0250181475857
 31
0.0
  0
LINE
  5
22E
330
E3
100
AcDbEntity
  8
0
  6
Continuous
100
AcDbLine
 10
149.8921108437692
 20
160.0250181475857
 30
0.0
 11
149.8482455772375
 21
160.027210157312
 31
0.0
  0
LINE
  5
22F
330
E3
100
AcDbEntity
  8
0
  6
Continuous
100
AcDbLine
 10
149.8482455772375
 20
160.027210157312
 30
0.0
 11
149.8047098285078
 21
160.0293484413097
 31
0.0
  0
LINE
  5
230
330
E3
100
AcDbEntity
  8
0
  6
Continuous
100
AcDbLine
 10
149.8047098285078
 20
160.0293484413097
 30
0.0
 11
149.7618259519516
 21
160.0313685287044
 31
0.0
  0
LINE
  5
231
330
E3
100
AcDbEntity
  8
0
  6
Continuous
100
AcDbLine
 10
149.7618259519516
 20
160.0313685287044
 30
0.0
 11
149.7199091385099
 21
160.033220275483
 31
0.0
  0
LINE
  5
232
330
E3
100
AcDbEntity
  8
0
  6
Continuous
100
AcDbLine
 10
149.7199091385099
 20
160.033220275483
 30
0.0
 11
149.6792745791238
 21
160.0348427924862
 31
0.0
  0
LINE
  5
233
330
E3
100
AcDbEntity
  8
0
  6
Continuous
100
AcDbLine
 10
149.6792745791238
 20
160.0348427924862
 30
0.0
 11
149.6402231378732
 21
160.0361895174161
 31
0.0
  0
LINE
  5
234
330
E3
100
AcDbEntity
  8
0
  6
Continuous
100
AcDbLine
 10
149.6402231378732
 20
160.0361895174161
 30
0.0
 11
149.6030449336927
 21
160.0372031428287
 31
0.0
  0
LINE
  5
235
330
E3
100
AcDbEntity
  8
0
  6
Continuous
100
AcDbLine
 10
149.6030449336927
 20
160.0372031428287
 30
0.0
 11
149.5680193403709
 21
160.037837106426
 31
0.0
  0
LINE
  5
236
330
E3
100
AcDbEntity
  8
0
  6
Continuous
100
AcDbLine
 10
149.5680193403709
 20
160.037837106426
 30
0.0
 11
149.5354006596895
 21
160.0380484276251
 31
0.0
  0
LINE
  5
237
330
E3
100
AcDbEntity
  8
0
  6
Continuous
100
AcDbLine
 10
149.5354006596895
 20
160.0380484276251
 30
0.0
 11
149.505432448285
 21
160.0377941258432
 31
0.0
  0
LINE
  5
238
330
E3
100
AcDbEntity
  8
0
  6
Continuous
100
AcDbLine
 10
149.505432448285
 20
160.0377941258432
 30
0.0
 11
149.478333190787
 21
160.0370312204973
 31
0.0
  0
LINE
  5
239
330
E3
100
AcDbEntity
  8
0
  6
Continuous
100
AcDbLine
 10
149.478333190787
 20
160.0370312204973
 30
0.0
 11
149.4543070449639
 21
160.0357274761502
 31
0.0
  0
LINE
  5
23A
330
E3
100
AcDbEntity
  8
0
  6
Continuous
100
AcDbLine
 10
149.4543070449639
 20
160.0357274761502
 30
0.0
 11
149.4335223514322
 21
160.033850657365
 31
0.0
  0
LINE
  5
23B
330
E3
100
AcDbEntity
  8
0
  6
Continuous
100
AcDbLine
 10
149.4335223514322
 20
160.033850657365
 30
0.0
 11
149.4161367056622
 21
160.0313756921349
 31
0.0
  0
LINE
  5
23C
330
E3
100
AcDbEntity
  8
0
  6
Continuous
100
AcDbLine
 10
149.4161367056622
 20
160.0313756921349
 30
0.0
 11
149.4022718859722
 21
160.0282810901685
 31
0.0
  0
LINE
  5
23D
330
E3
100
AcDbEntity
  8
0
  6
Continuous
100
AcDbLine
 10
149.4022718859722
 20
160.0282810901685
 30
0.0
 11
149.3920281803887
 21
160.0245453611742
 31
0.0
  0
LINE
  5
23E
330
E3
100
AcDbEntity
  8
0
  6
Continuous
100
AcDbLine
 10
149.3920281803887
 20
160.0245453611742
 30
0.0
 11
149.3854728402544
 21
160.0201619081039
 31
0.0
  0
LINE
  5
23F
330
E3
100
AcDbEntity
  8
0
  6
Continuous
100
AcDbLine
 10
149.3854728402544
 20
160.0201619081039
 30
0.0
 11
149.3826516097471
 21
160.0151188449733
 31
0.0
  0
LINE
  5
240
330
E3
100
AcDbEntity
  8
0
  6
Continuous
100
AcDbLine
 10
150.333349899289
 20
159.6480262872504
 30
0.0
 11
150.3305286687817
 21
159.6429832241197
 31
0.0
  0
LINE
  5
241
330
E3
100
AcDbEntity
  8
0
  6
Continuous
100
AcDbLine
 10
150.3305286687817
 20
159.6429832241197
 30
0.0
 11
150.3239742077866
 21
159.6385984302493
 31
0.0
  0
LINE
  5
242
330
E3
100
AcDbEntity
  8
0
  6
Continuous
100
AcDbLine
 10
150.3239742077866
 20
159.6385984302493
 30
0.0
 11
150.3137288714096
 21
159.6348654883197
 31
0.0
  0
LINE
  5
243
330
E3
100
AcDbEntity
  8
0
  6
Continuous
100
AcDbLine
 10
150.3137288714096
 20
159.6348654883197
 30
0.0
 11
150.2998640517195
 21
159.631767304638
 31
0.0
  0
LINE
  5
244
330
E3
100
AcDbEntity
  8
0
  6
Continuous
100
AcDbLine
 10
150.2998640517195
 20
159.631767304638
 30
0.0
 11
150.2824784059495
 21
159.6292923394079
 31
0.0
  0
LINE
  5
245
330
E3
100
AcDbEntity
  8
0
  6
Continuous
100
AcDbLine
 10
150.2824784059495
 20
159.6292923394079
 30
0.0
 11
150.2616937124178
 21
159.6274191023379
 31
0.0
  0
LINE
  5
246
330
E3
100
AcDbEntity
  8
0
  6
Continuous
100
AcDbLine
 10
150.2616937124178
 20
159.6274191023379
 30
0.0
 11
150.2376675665948
 21
159.6261153579909
 31
0.0
  0
LINE
  5
247
330
E3
100
AcDbEntity
  8
0
  6
Continuous
100
AcDbLine
 10
150.2376675665948
 20
159.6261153579909
 30
0.0
 11
150.2105683090967
 21
159.625352452645
 31
0.0
  0
LINE
  5
248
330
E3
100
AcDbEntity
  8
0
  6
Continuous
100
AcDbLine
 10
150.2105683090967
 20
159.625352452645
 30
0.0
 11
150.1806000976922
 21
159.6250945691478
 31
0.0
  0
LINE
  5
249
330
E3
100
AcDbEntity
  8
0
  6
Continuous
100
AcDbLine
 10
150.1806000976922
 20
159.6250945691478
 30
0.0
 11
150.1479814170109
 21
159.6253058903469
 31
0.0
  0
LINE
  5
24A
330
E3
100
AcDbEntity
  8
0
  6
Continuous
100
AcDbLine
 10
150.1479814170109
 20
159.6253058903469
 30
0.0
 11
150.112955823689
 21
159.6259434356595
 31
0.0
  0
LINE
  5
24B
330
E3
100
AcDbEntity
  8
0
  6
Continuous
100
AcDbLine
 10
150.112955823689
 20
159.6259434356595
 30
0.0
 11
150.0757776195085
 21
159.6269570610721
 31
0.0
  0
LINE
  5
24C
330
E3
100
AcDbEntity
  8
0
  6
Continuous
100
AcDbLine
 10
150.0757776195085
 20
159.6269570610721
 30
0.0
 11
150.036726178258
 21
159.6283037860019
 31
0.0
  0
LINE
  5
24D
330
E3
100
AcDbEntity
  8
0
  6
Continuous
100
AcDbLine
 10
150.036726178258
 20
159.6283037860019
 30
0.0
 11
149.9960916188718
 21
159.6299263030052
 31
0.0
  0
LINE
  5
24E
330
E3
100
AcDbEntity
  8
0
  6
Continuous
100
AcDbLine
 10
149.9960916188718
 20
159.6299263030052
 30
0.0
 11
149.9541783871454
 21
159.6317780497837
 31
0.0
  0
LINE
  5
24F
330
E3
100
AcDbEntity
  8
0
  6
Continuous
100
AcDbLine
 10
149.9541783871454
 20
159.6317780497837
 30
0.0
 11
149.9112909288739
 21
159.6337981371785
 31
0.0
  0
LINE
  5
250
330
E3
100
AcDbEntity
  8
0
  6
Continuous
100
AcDbLine
 10
149.9112909288739
 20
159.6337981371785
 30
0.0
 11
149.8677551801442
 21
159.6359328394609
 31
0.0
  0
LINE
  5
251
330
E3
100
AcDbEntity
  8
0
  6
Continuous
100
AcDbLine
 10
149.8677551801442
 20
159.6359328394609
 30
0.0
 11
149.8238899136125
 21
159.6381284309024
 31
0.0
  0
LINE
  5
252
330
E3
100
AcDbEntity
  8
0
  6
Continuous
100
AcDbLine
 10
149.8238899136125
 20
159.6381284309024
 30
0.0
 11
149.7800282287961
 21
159.6403204406287
 31
0.0
  0
LINE
  5
253
330
E3
100
AcDbEntity
  8
0
  6
Continuous
100
AcDbLine
 10
149.7800282287961
 20
159.6403204406287
 30
0.0
 11
149.7364924800663
 21
159.6424587246264
 31
0.0
  0
LINE
  5
254
330
E3
100
AcDbEntity
  8
0
  6
Continuous
100
AcDbLine
 10
149.7364924800663
 20
159.6424587246264
 30
0.0
 11
149.6936050217949
 21
159.6444788120212
 31
0.0
  0
LINE
  5
255
330
E3
100
AcDbEntity
  8
0
  6
Continuous
100
AcDbLine
 10
149.6936050217949
 20
159.6444788120212
 30
0.0
 11
149.6516882083532
 21
159.6463305587997
 31
0.0
  0
LINE
  5
256
330
E3
100
AcDbEntity
  8
0
  6
Continuous
100
AcDbLine
 10
149.6516882083532
 20
159.6463305587997
 30
0.0
 11
149.6110536489671
 21
159.6479530758029
 31
0.0
  0
LINE
  5
257
330
E3
100
AcDbEntity
  8
0
  6
Continuous
100
AcDbLine
 10
149.6110536489671
 20
159.6479530758029
 30
0.0
 11
149.5720057894318
 21
159.6492998007328
 31
0.0
  0
LINE
  5
258
330
E3
100
AcDbEntity
  8
0
  6
Continuous
100
AcDbLine
 10
149.5720057894318
 20
159.6492998007328
 30
0.0
 11
149.5348275852512
 21
159.6503134261454
 31
0.0
  0
LINE
  5
259
330
E3
100
AcDbEntity
  8
0
  6
Continuous
100
AcDbLine
 10
149.5348275852512
 20
159.6503134261454
 30
0.0
 11
149.4998019919294
 21
159.6509509714579
 31
0.0
  0
LINE
  5
25A
330
E3
100
AcDbEntity
  8
0
  6
Continuous
100
AcDbLine
 10
149.4998019919294
 20
159.6509509714579
 30
0.0
 11
149.467183311248
 21
159.6511622926571
 31
0.0
  0
LINE
  5
25B
330
E3
100
AcDbEntity
  8
0
  6
Continuous
100
AcDbLine
 10
149.467183311248
 20
159.6511622926571
 30
0.0
 11
149.4372115181283
 21
159.6509044091599
 31
0.0
  0
LINE
  5
25C
330
E3
100
AcDbEntity
  8
0
  6
Continuous
100
AcDbLine
 10
149.4372115181283
 20
159.6509044091599
 30
0.0
 11
149.4101158423455
 21
159.650141503814
 31
0.0
  0
LINE
  5
25D
330
E3
100
AcDbEntity
  8
0
  6
Continuous
100
AcDbLine
 10
149.4101158423455
 20
159.650141503814
 30
0.0
 11
149.3860861148072
 21
159.648837759467
 31
0.0
  0
LINE
  5
25E
330
E3
100
AcDbEntity
  8
0
  6
Continuous
100
AcDbLine
 10
149.3860861148072
 20
159.648837759467
 30
0.0
 11
149.3653050029907
 21
159.6469609406818
 31
0.0
  0
LINE
  5
25F
330
E3
100
AcDbEntity
  8
0
  6
Continuous
100
AcDbLine
 10
149.3653050029907
 20
159.6469609406818
 30
0.0
 11
149.3479193572207
 21
159.6444895571669
 31
0.0
  0
LINE
  5
260
330
E3
100
AcDbEntity
  8
0
  6
Continuous
100
AcDbLine
 10
149.3479193572207
 20
159.6444895571669
 30
0.0
 11
149.3340545375307
 21
159.6413913734851
 31
0.0
  0
LINE
  5
261
330
E3
100
AcDbEntity
  8
0
  6
Continuous
100
AcDbLine
 10
149.3340545375307
 20
159.6413913734851
 30
0.0
 11
149.323807250232
 21
159.6376592262061
 31
0.0
  0
LINE
  5
262
330
E3
100
AcDbEntity
  8
0
  6
Continuous
100
AcDbLine
 10
149.323807250232
 20
159.6376592262061
 30
0.0
 11
149.3172539133138
 21
159.633273147992
 31
0.0
  0
LINE
  5
263
330
E3
100
AcDbEntity
  8
0
  6
Continuous
100
AcDbLine
 10
149.3172539133138
 20
159.633273147992
 30
0.0
 11
149.3144326828065
 21
159.6282300848613
 31
0.0
  0
LINE
  5
264
330
E3
100
AcDbEntity
  8
0
  6
Continuous
100
AcDbLine
 10
150.2651309723484
 20
159.2611375271384
 30
0.0
 11
150.2623097418411
 21
159.2560944640078
 31
0.0
  0
LINE
  5
265
330
E3
100
AcDbEntity
  8
0
  6
Continuous
100
AcDbLine
 10
150.2623097418411
 20
159.2560944640078
 30
0.0
 11
150.255755280846
 21
159.2517096701374
 31
0.0
  0
LINE
  5
266
330
E3
100
AcDbEntity
  8
0
  6
Continuous
100
AcDbLine
 10
150.255755280846
 20
159.2517096701374
 30
0.0
 11
150.2455115229681
 21
159.2479757716364
 31
0.0
  0
LINE
  5
267
330
E3
100
AcDbEntity
  8
0
  6
Continuous
100
AcDbLine
 10
150.2455115229681
 20
159.2479757716364
 30
0.0
 11
150.231646703278
 21
159.24488116967
 31
0.0
  0
LINE
  5
268
330
E3
100
AcDbEntity
  8
0
  6
Continuous
100
AcDbLine
 10
150.231646703278
 20
159.24488116967
 30
0.0
 11
150.2142574757929
 21
159.2424062044398
 31
0.0
  0
LINE
  5
269
330
E3
100
AcDbEntity
  8
0
  6
Continuous
100
AcDbLine
 10
150.2142574757929
 20
159.2424062044398
 30
0.0
 11
150.1934763639763
 21
159.2405293856546
 31
0.0
  0
LINE
  5
26A
330
E3
100
AcDbEntity
  8
0
  6
Continuous
100
AcDbLine
 10
150.1934763639763
 20
159.2405293856546
 30
0.0
 11
150.1694466364381
 21
159.2392256413076
 31
0.0
  0
LINE
  5
26B
330
E3
100
AcDbEntity
  8
0
  6
Continuous
100
AcDbLine
 10
150.1694466364381
 20
159.2392256413076
 30
0.0
 11
150.1423509606552
 21
159.2384627359617
 31
0.0
  0
LINE
  5
26C
330
E3
100
AcDbEntity
  8
0
  6
Continuous
100
AcDbLine
 10
150.1423509606552
 20
159.2384627359617
 30
0.0
 11
150.1123827492508
 21
159.2382048524645
 31
0.0
  0
LINE
  5
26D
330
E3
100
AcDbEntity
  8
0
  6
Continuous
100
AcDbLine
 10
150.1123827492508
 20
159.2382048524645
 30
0.0
 11
150.0797640685694
 21
159.2384161736636
 31
0.0
  0
LINE
  5
26E
330
E3
100
AcDbEntity
  8
0
  6
Continuous
100
AcDbLine
 10
150.0797640685694
 20
159.2384161736636
 30
0.0
 11
150.0447348935323
 21
159.2390537189762
 31
0.0
  0
LINE
  5
26F
330
E3
100
AcDbEntity
  8
0
  6
Continuous
100
AcDbLine
 10
150.0447348935323
 20
159.2390537189762
 30
0.0
 11
150.007560271067
 21
159.2400673443888
 31
0.0
  0
LINE
  5
270
330
E3
100
AcDbEntity
  8
0
  6
Continuous
100
AcDbLine
 10
150.007560271067
 20
159.2400673443888
 30
0.0
 11
149.9685088298165
 21
159.2414140693186
 31
0.0
  0
LINE
  5
271
330
E3
100
AcDbEntity
  8
0
  6
Continuous
100
AcDbLine
 10
149.9685088298165
 20
159.2414140693186
 30
0.0
 11
149.9278742704304
 21
159.2430365863219
 31
0.0
  0
LINE
  5
272
330
E3
100
AcDbEntity
  8
0
  6
Continuous
100
AcDbLine
 10
149.9278742704304
 20
159.2430365863219
 30
0.0
 11
149.8859574569886
 21
159.2448883331004
 31
0.0
  0
LINE
  5
273
330
E3
100
AcDbEntity
  8
0
  6
Continuous
100
AcDbLine
 10
149.8859574569886
 20
159.2448883331004
 30
0.0
 11
149.8430735804324
 21
159.2469084204952
 31
0.0
  0
LINE
  5
274
330
E3
100
AcDbEntity
  8
0
  6
Continuous
100
AcDbLine
 10
149.8430735804324
 20
159.2469084204952
 30
0.0
 11
149.7995342499875
 21
159.2490467044929
 31
0.0
  0
LINE
  5
275
330
E3
100
AcDbEntity
  8
0
  6
Continuous
100
AcDbLine
 10
149.7995342499875
 20
159.2490467044929
 30
0.0
 11
149.755672565171
 21
159.2512387142191
 31
0.0
  0
LINE
  5
276
330
E3
100
AcDbEntity
  8
0
  6
Continuous
100
AcDbLine
 10
149.755672565171
 20
159.2512387142191
 30
0.0
 11
149.7118072986393
 21
159.2534343056606
 31
0.0
  0
LINE
  5
277
330
E3
100
AcDbEntity
  8
0
  6
Continuous
100
AcDbLine
 10
149.7118072986393
 20
159.2534343056606
 30
0.0
 11
149.6682715499096
 21
159.2555690079431
 31
0.0
  0
LINE
  5
278
330
E3
100
AcDbEntity
  8
0
  6
Continuous
100
AcDbLine
 10
149.6682715499096
 20
159.2555690079431
 30
0.0
 11
149.6253876733534
 21
159.2575890953378
 31
0.0
  0
LINE
  5
279
330
E3
100
AcDbEntity
  8
0
  6
Continuous
100
AcDbLine
 10
149.6253876733534
 20
159.2575890953378
 30
0.0
 11
149.5834708599118
 21
159.2594408421164
 31
0.0
  0
LINE
  5
27A
330
E3
100
AcDbEntity
  8
0
  6
Continuous
100
AcDbLine
 10
149.5834708599118
 20
159.2594408421164
 30
0.0
 11
149.5428363005256
 21
159.2610669408349
 31
0.0
  0
LINE
  5
27B
330
E3
100
AcDbEntity
  8
0
  6
Continuous
100
AcDbLine
 10
149.5428363005256
 20
159.2610669408349
 30
0.0
 11
149.5037848592751
 21
159.2624100840495
 31
0.0
  0
LINE
  5
27C
330
E3
100
AcDbEntity
  8
0
  6
Continuous
100
AcDbLine
 10
149.5037848592751
 20
159.2624100840495
 30
0.0
 11
149.4666102368098
 21
159.2634237094621
 31
0.0
  0
LINE
  5
27D
330
E3
100
AcDbEntity
  8
0
  6
Continuous
100
AcDbLine
 10
149.4666102368098
 20
159.2634237094621
 30
0.0
 11
149.4315810617726
 21
159.2640612547746
 31
0.0
  0
LINE
  5
27E
330
E3
100
AcDbEntity
  8
0
  6
Continuous
100
AcDbLine
 10
149.4315810617726
 20
159.2640612547746
 30
0.0
 11
149.3989623810913
 21
159.2642725759738
 31
0.0
  0
LINE
  5
27F
330
E3
100
AcDbEntity
  8
0
  6
Continuous
100
AcDbLine
 10
149.3989623810913
 20
159.2642725759738
 30
0.0
 11
149.3689941696869
 21
159.2640146924766
 31
0.0
  0
LINE
  5
280
330
E3
100
AcDbEntity
  8
0
  6
Continuous
100
AcDbLine
 10
149.3689941696869
 20
159.2640146924766
 30
0.0
 11
149.3418949121888
 21
159.2632517871307
 31
0.0
  0
LINE
  5
281
330
E3
100
AcDbEntity
  8
0
  6
Continuous
100
AcDbLine
 10
149.3418949121888
 20
159.2632517871307
 30
0.0
 11
149.3178687663658
 21
159.2619480427837
 31
0.0
  0
LINE
  5
282
330
E3
100
AcDbEntity
  8
0
  6
Continuous
100
AcDbLine
 10
149.3178687663658
 20
159.2619480427837
 30
0.0
 11
149.297084072834
 21
159.2600748057137
 31
0.0
  0
LINE
  5
283
330
E3
100
AcDbEntity
  8
0
  6
Continuous
100
AcDbLine
 10
149.297084072834
 20
159.2600748057137
 30
0.0
 11
149.279698427064
 21
159.2575998404836
 31
0.0
  0
LINE
  5
284
330
E3
100
AcDbEntity
  8
0
  6
Continuous
100
AcDbLine
 10
149.279698427064
 20
159.2575998404836
 30
0.0
 11
149.2658336073739
 21
159.2545016568018
 31
0.0
  0
LINE
  5
285
330
E3
100
AcDbEntity
  8
0
  6
Continuous
100
AcDbLine
 10
149.2658336073739
 20
159.2545016568018
 30
0.0
 11
149.2555899017905
 21
159.2507695095228
 31
0.0
  0
LINE
  5
286
330
E3
100
AcDbEntity
  8
0
  6
Continuous
100
AcDbLine
 10
149.2555899017905
 20
159.2507695095228
 30
0.0
 11
149.2490349863732
 21
159.24638438788
 31
0.0
  0
LINE
  5
287
330
E3
100
AcDbEntity
  8
0
  6
Continuous
100
AcDbLine
 10
149.2490349863732
 20
159.24638438788
 30
0.0
 11
149.2462137558659
 21
159.2413413247494
 31
0.0
  0
LINE
  5
288
330
E3
100
AcDbEntity
  8
0
  6
Continuous
100
AcDbLine
 10
150.1969120454078
 20
158.8742487670265
 30
0.0
 11
150.1940908149005
 21
158.8692057038958
 31
0.0
  0
LINE
  5
289
330
E3
100
AcDbEntity
  8
0
  6
Continuous
100
AcDbLine
 10
150.1940908149005
 20
158.8692057038958
 30
0.0
 11
150.1875363539054
 21
158.8648209100254
 31
0.0
  0
LINE
  5
28A
330
E3
100
AcDbEntity
  8
0
  6
Continuous
100
AcDbLine
 10
150.1875363539054
 20
158.8648209100254
 30
0.0
 11
150.1772905928114
 21
158.8610860549531
 31
0.0
  0
LINE
  5
28B
330
E3
100
AcDbEntity
  8
0
  6
Continuous
100
AcDbLine
 10
150.1772905928114
 20
158.8610860549531
 30
0.0
 11
150.1634257731214
 21
158.8579914529867
 31
0.0
  0
LINE
  5
28C
330
E3
100
AcDbEntity
  8
0
  6
Continuous
100
AcDbLine
 10
150.1634257731214
 20
158.8579914529867
 30
0.0
 11
150.1460401273514
 21
158.8555164877565
 31
0.0
  0
LINE
  5
28D
330
E3
100
AcDbEntity
  8
0
  6
Continuous
100
AcDbLine
 10
150.1460401273514
 20
158.8555164877565
 30
0.0
 11
150.1252590155349
 21
158.8536396689713
 31
0.0
  0
LINE
  5
28E
330
E3
100
AcDbEntity
  8
0
  6
Continuous
100
AcDbLine
 10
150.1252590155349
 20
158.8536396689713
 30
0.0
 11
150.1012292879966
 21
158.8523359246243
 31
0.0
  0
LINE
  5
28F
330
E3
100
AcDbEntity
  8
0
  6
Continuous
100
AcDbLine
 10
150.1012292879966
 20
158.8523359246243
 30
0.0
 11
150.0741300304985
 21
158.8515730192784
 31
0.0
  0
LINE
  5
290
330
E3
100
AcDbEntity
  8
0
  6
Continuous
100
AcDbLine
 10
150.0741300304985
 20
158.8515730192784
 30
0.0
 11
150.0441618190941
 21
158.8513187174965
 31
0.0
  0
LINE
  5
291
330
E3
100
AcDbEntity
  8
0
  6
Continuous
100
AcDbLine
 10
150.0441618190941
 20
158.8513187174965
 30
0.0
 11
150.0115431384127
 21
158.8515300386956
 31
0.0
  0
LINE
  5
292
330
E3
100
AcDbEntity
  8
0
  6
Continuous
100
AcDbLine
 10
150.0115431384127
 20
158.8515300386956
 30
0.0
 11
149.9765175450908
 21
158.8521640022929
 31
0.0
  0
LINE
  5
293
330
E3
100
AcDbEntity
  8
0
  6
Continuous
100
AcDbLine
 10
149.9765175450908
 20
158.8521640022929
 30
0.0
 11
149.9393393409103
 21
158.8531776277055
 31
0.0
  0
LINE
  5
294
330
E3
100
AcDbEntity
  8
0
  6
Continuous
100
AcDbLine
 10
149.9393393409103
 20
158.8531776277055
 30
0.0
 11
149.900291481375
 21
158.8545243526353
 31
0.0
  0
LINE
  5
295
330
E3
100
AcDbEntity
  8
0
  6
Continuous
100
AcDbLine
 10
149.900291481375
 20
158.8545243526353
 30
0.0
 11
149.8596569219889
 21
158.8561504513538
 31
0.0
  0
LINE
  5
296
330
E3
100
AcDbEntity
  8
0
  6
Continuous
100
AcDbLine
 10
149.8596569219889
 20
158.8561504513538
 30
0.0
 11
149.8177401085472
 21
158.8579986164171
 31
0.0
  0
LINE
  5
297
330
E3
100
AcDbEntity
  8
0
  6
Continuous
100
AcDbLine
 10
149.8177401085472
 20
158.8579986164171
 30
0.0
 11
149.7748526502757
 21
158.8600222855272
 31
0.0
  0
LINE
  5
298
330
E3
100
AcDbEntity
  8
0
  6
Continuous
100
AcDbLine
 10
149.7748526502757
 20
158.8600222855272
 30
0.0
 11
149.731316901546
 21
158.8621569878096
 31
0.0
  0
LINE
  5
299
330
E3
100
AcDbEntity
  8
0
  6
Continuous
100
AcDbLine
 10
149.731316901546
 20
158.8621569878096
 30
0.0
 11
149.6874552167296
 21
158.8643489975358
 31
0.0
  0
LINE
  5
29A
330
E3
100
AcDbEntity
  8
0
  6
Continuous
100
AcDbLine
 10
149.6874552167296
 20
158.8643489975358
 30
0.0
 11
149.6435899501979
 21
158.8665445889773
 31
0.0
  0
LINE
  5
29B
330
E3
100
AcDbEntity
  8
0
  6
Continuous
100
AcDbLine
 10
149.6435899501979
 20
158.8665445889773
 30
0.0
 11
149.6000542014682
 21
158.8686792912598
 31
0.0
  0
LINE
  5
29C
330
E3
100
AcDbEntity
  8
0
  6
Continuous
100
AcDbLine
 10
149.6000542014682
 20
158.8686792912598
 30
0.0
 11
149.5571667431967
 21
158.8707029603698
 31
0.0
  0
LINE
  5
29D
330
E3
100
AcDbEntity
  8
0
  6
Continuous
100
AcDbLine
 10
149.5571667431967
 20
158.8707029603698
 30
0.0
 11
149.515249929755
 21
158.8725511254331
 31
0.0
  0
LINE
  5
29E
330
E3
100
AcDbEntity
  8
0
  6
Continuous
100
AcDbLine
 10
149.515249929755
 20
158.8725511254331
 30
0.0
 11
149.4746153703689
 21
158.8741772241516
 31
0.0
  0
LINE
  5
29F
330
E3
100
AcDbEntity
  8
0
  6
Continuous
100
AcDbLine
 10
149.4746153703689
 20
158.8741772241516
 30
0.0
 11
149.4355675108336
 21
158.8755203673662
 31
0.0
  0
LINE
  5
2A0
330
E3
100
AcDbEntity
  8
0
  6
Continuous
100
AcDbLine
 10
149.4355675108336
 20
158.8755203673662
 30
0.0
 11
149.3983893066531
 21
158.8765375744941
 31
0.0
  0
LINE
  5
2A1
330
E3
100
AcDbEntity
  8
0
  6
Continuous
100
AcDbLine
 10
149.3983893066531
 20
158.8765375744941
 30
0.0
 11
149.3633637133312
 21
158.8771715380913
 31
0.0
  0
LINE
  5
2A2
330
E3
100
AcDbEntity
  8
0
  6
Continuous
100
AcDbLine
 10
149.3633637133312
 20
158.8771715380913
 30
0.0
 11
149.3307450326499
 21
158.8773828592905
 31
0.0
  0
LINE
  5
2A3
330
E3
100
AcDbEntity
  8
0
  6
Continuous
100
AcDbLine
 10
149.3307450326499
 20
158.8773828592905
 30
0.0
 11
149.3007768212454
 21
158.8771285575085
 31
0.0
  0
LINE
  5
2A4
330
E3
100
AcDbEntity
  8
0
  6
Continuous
100
AcDbLine
 10
149.3007768212454
 20
158.8771285575085
 30
0.0
 11
149.2736775637473
 21
158.8763656521626
 31
0.0
  0
LINE
  5
2A5
330
E3
100
AcDbEntity
  8
0
  6
Continuous
100
AcDbLine
 10
149.2736775637473
 20
158.8763656521626
 30
0.0
 11
149.249647836209
 21
158.8750619078156
 31
0.0
  0
LINE
  5
2A6
330
E3
100
AcDbEntity
  8
0
  6
Continuous
100
AcDbLine
 10
149.249647836209
 20
158.8750619078156
 30
0.0
 11
149.2288667243925
 21
158.8731850890304
 31
0.0
  0
LINE
  5
2A7
330
E3
100
AcDbEntity
  8
0
  6
Continuous
100
AcDbLine
 10
149.2288667243925
 20
158.8731850890304
 30
0.0
 11
149.2114810786226
 21
158.8707101238003
 31
0.0
  0
LINE
  5
2A8
330
E3
100
AcDbEntity
  8
0
  6
Continuous
100
AcDbLine
 10
149.2114810786226
 20
158.8707101238003
 30
0.0
 11
149.1976162589325
 21
158.8676155218338
 31
0.0
  0
LINE
  5
2A9
330
E3
100
AcDbEntity
  8
0
  6
Continuous
100
AcDbLine
 10
149.1976162589325
 20
158.8676155218338
 30
0.0
 11
149.1873689716338
 21
158.8638797928395
 31
0.0
  0
LINE
  5
2AA
330
E3
100
AcDbEntity
  8
0
  6
Continuous
100
AcDbLine
 10
149.1873689716338
 20
158.8638797928395
 30
0.0
 11
149.1808160594326
 21
158.8594956277681
 31
0.0
  0
LINE
  5
2AB
330
E3
100
AcDbEntity
  8
0
  6
Continuous
100
AcDbLine
 10
149.1808160594326
 20
158.8594956277681
 30
0.0
 11
149.1779948289254
 21
158.8544525646374
 31
0.0
  0
LINE
  5
2AC
330
E3
100
AcDbEntity
  8
0
  6
Continuous
100
AcDbLine
 10
150.1286931184673
 20
158.4873600069145
 30
0.0
 11
150.12587188796
 21
158.4823169437839
 31
0.0
  0
LINE
  5
2AD
330
E3
100
AcDbEntity
  8
0
  6
Continuous
100
AcDbLine
 10
150.12587188796
 20
158.4823169437839
 30
0.0
 11
150.1193174269648
 21
158.4779321499135
 31
0.0
  0
LINE
  5
2AE
330
E3
100
AcDbEntity
  8
0
  6
Continuous
100
AcDbLine
 10
150.1193174269648
 20
158.4779321499135
 30
0.0
 11
150.1090732443699
 21
158.4741963382698
 31
0.0
  0
LINE
  5
2AF
330
E3
100
AcDbEntity
  8
0
  6
Continuous
100
AcDbLine
 10
150.1090732443699
 20
158.4741963382698
 30
0.0
 11
150.0952084246799
 21
158.4711017363034
 31
0.0
  0
LINE
  5
2B0
330
E3
100
AcDbEntity
  8
0
  6
Continuous
100
AcDbLine
 10
150.0952084246799
 20
158.4711017363034
 30
0.0
 11
150.0778227789099
 21
158.4686267710733
 31
0.0
  0
LINE
  5
2B1
330
E3
100
AcDbEntity
  8
0
  6
Continuous
100
AcDbLine
 10
150.0778227789099
 20
158.4686267710733
 30
0.0
 11
150.0570380853781
 21
158.466749952288
 31
0.0
  0
LINE
  5
2B2
330
E3
100
AcDbEntity
  8
0
  6
Continuous
100
AcDbLine
 10
150.0570380853781
 20
158.466749952288
 30
0.0
 11
150.0330119395551
 21
158.465446207941
 31
0.0
  0
LINE
  5
2B3
330
E3
100
AcDbEntity
  8
0
  6
Continuous
100
AcDbLine
 10
150.0330119395551
 20
158.465446207941
 30
0.0
 11
150.0059126820571
 21
158.4646868843104
 31
0.0
  0
LINE
  5
2B4
330
E3
100
AcDbEntity
  8
0
  6
Continuous
100
AcDbLine
 10
150.0059126820571
 20
158.4646868843104
 30
0.0
 11
149.9759444706526
 21
158.4644290008131
 31
0.0
  0
LINE
  5
2B5
330
E3
100
AcDbEntity
  8
0
  6
Continuous
100
AcDbLine
 10
149.9759444706526
 20
158.4644290008131
 30
0.0
 11
149.9433257899713
 21
158.4646403220122
 31
0.0
  0
LINE
  5
2B6
330
E3
100
AcDbEntity
  8
0
  6
Continuous
100
AcDbLine
 10
149.9433257899713
 20
158.4646403220122
 30
0.0
 11
149.9082966149341
 21
158.4652742856096
 31
0.0
  0
LINE
  5
2B7
330
E3
100
AcDbEntity
  8
0
  6
Continuous
100
AcDbLine
 10
149.9082966149341
 20
158.4652742856096
 30
0.0
 11
149.8711219924688
 21
158.4662914927374
 31
0.0
  0
LINE
  5
2B8
330
E3
100
AcDbEntity
  8
0
  6
Continuous
100
AcDbLine
 10
149.8711219924688
 20
158.4662914927374
 30
0.0
 11
149.8320705512183
 21
158.467634635952
 31
0.0
  0
LINE
  5
2B9
330
E3
100
AcDbEntity
  8
0
  6
Continuous
100
AcDbLine
 10
149.8320705512183
 20
158.467634635952
 30
0.0
 11
149.7914359918322
 21
158.4692607346705
 31
0.0
  0
LINE
  5
2BA
330
E3
100
AcDbEntity
  8
0
  6
Continuous
100
AcDbLine
 10
149.7914359918322
 20
158.4692607346705
 30
0.0
 11
149.7495191783905
 21
158.4711088997338
 31
0.0
  0
LINE
  5
2BB
330
E3
100
AcDbEntity
  8
0
  6
Continuous
100
AcDbLine
 10
149.7495191783905
 20
158.4711088997338
 30
0.0
 11
149.7066353018343
 21
158.4731325688439
 31
0.0
  0
LINE
  5
2BC
330
E3
100
AcDbEntity
  8
0
  6
Continuous
100
AcDbLine
 10
149.7066353018343
 20
158.4731325688439
 30
0.0
 11
149.6630995531046
 21
158.4752672711263
 31
0.0
  0
LINE
  5
2BD
330
E3
100
AcDbEntity
  8
0
  6
Continuous
100
AcDbLine
 10
149.6630995531046
 20
158.4752672711263
 30
0.0
 11
149.6192342865729
 21
158.4774628625678
 31
0.0
  0
LINE
  5
2BE
330
E3
100
AcDbEntity
  8
0
  6
Continuous
100
AcDbLine
 10
149.6192342865729
 20
158.4774628625678
 30
0.0
 11
149.5753726017564
 21
158.479654872294
 31
0.0
  0
LINE
  5
2BF
330
E3
100
AcDbEntity
  8
0
  6
Continuous
100
AcDbLine
 10
149.5753726017564
 20
158.479654872294
 30
0.0
 11
149.5318332713115
 21
158.4817931562917
 31
0.0
  0
LINE
  5
2C0
330
E3
100
AcDbEntity
  8
0
  6
Continuous
100
AcDbLine
 10
149.5318332713115
 20
158.4817931562917
 30
0.0
 11
149.4889493947553
 21
158.4838132436865
 31
0.0
  0
LINE
  5
2C1
330
E3
100
AcDbEntity
  8
0
  6
Continuous
100
AcDbLine
 10
149.4889493947553
 20
158.4838132436865
 30
0.0
 11
149.4470325813136
 21
158.485664990465
 31
0.0
  0
LINE
  5
2C2
330
E3
100
AcDbEntity
  8
0
  6
Continuous
100
AcDbLine
 10
149.4470325813136
 20
158.485664990465
 30
0.0
 11
149.4063980219274
 21
158.4872875074683
 31
0.0
  0
LINE
  5
2C3
330
E3
100
AcDbEntity
  8
0
  6
Continuous
100
AcDbLine
 10
149.4063980219274
 20
158.4872875074683
 30
0.0
 11
149.3673465806769
 21
158.4886342323981
 31
0.0
  0
LINE
  5
2C4
330
E3
100
AcDbEntity
  8
0
  6
Continuous
100
AcDbLine
 10
149.3673465806769
 20
158.4886342323981
 30
0.0
 11
149.3301719582116
 21
158.4896478578108
 31
0.0
  0
LINE
  5
2C5
330
E3
100
AcDbEntity
  8
0
  6
Continuous
100
AcDbLine
 10
149.3301719582116
 20
158.4896478578108
 30
0.0
 11
149.2951427831745
 21
158.4902854031233
 31
0.0
  0
LINE
  5
2C6
330
E3
100
AcDbEntity
  8
0
  6
Continuous
100
AcDbLine
 10
149.2951427831745
 20
158.4902854031233
 30
0.0
 11
149.2625241024932
 21
158.4904931426072
 31
0.0
  0
LINE
  5
2C7
330
E3
100
AcDbEntity
  8
0
  6
Continuous
100
AcDbLine
 10
149.2625241024932
 20
158.4904931426072
 30
0.0
 11
149.2325558910887
 21
158.4902388408252
 31
0.0
  0
LINE
  5
2C8
330
E3
100
AcDbEntity
  8
0
  6
Continuous
100
AcDbLine
 10
149.2325558910887
 20
158.4902388408252
 30
0.0
 11
149.2054602153058
 21
158.4894759354793
 31
0.0
  0
LINE
  5
2C9
330
E3
100
AcDbEntity
  8
0
  6
Continuous
100
AcDbLine
 10
149.2054602153058
 20
158.4894759354793
 30
0.0
 11
149.1814304877676
 21
158.4881721911323
 31
0.0
  0
LINE
  5
2CA
330
E3
100
AcDbEntity
  8
0
  6
Continuous
100
AcDbLine
 10
149.1814304877676
 20
158.4881721911323
 30
0.0
 11
149.1606493759511
 21
158.4862953723471
 31
0.0
  0
LINE
  5
2CB
330
E3
100
AcDbEntity
  8
0
  6
Continuous
100
AcDbLine
 10
149.1606493759511
 20
158.4862953723471
 30
0.0
 11
149.1432601484659
 21
158.483820407117
 31
0.0
  0
LINE
  5
2CC
330
E3
100
AcDbEntity
  8
0
  6
Continuous
100
AcDbLine
 10
149.1432601484659
 20
158.483820407117
 30
0.0
 11
149.1293953287758
 21
158.4807258051505
 31
0.0
  0
LINE
  5
2CD
330
E3
100
AcDbEntity
  8
0
  6
Continuous
100
AcDbLine
 10
149.1293953287758
 20
158.4807258051505
 30
0.0
 11
149.1191516231923
 21
158.4769900761562
 31
0.0
  0
LINE
  5
2CE
330
E3
100
AcDbEntity
  8
0
  6
Continuous
100
AcDbLine
 10
149.1191516231923
 20
158.4769900761562
 30
0.0
 11
149.1125971324921
 21
158.4726068676561
 31
0.0
  0
LINE
  5
2CF
330
E3
100
AcDbEntity
  8
0
  6
Continuous
100
AcDbLine
 10
149.1125971324921
 20
158.4726068676561
 30
0.0
 11
149.1097759019848
 21
158.4675638045255
 31
0.0
  0
LINE
  5
2D0
330
E3
100
AcDbEntity
  8
0
  6
Continuous
100
AcDbLine
 10
150.0604741915267
 20
158.1004712468026
 30
0.0
 11
150.0576529610194
 21
158.0954281836719
 31
0.0
  0
LINE
  5
2D1
330
E3
100
AcDbEntity
  8
0
  6
Continuous
100
AcDbLine
 10
150.0576529610194
 20
158.0954281836719
 30
0.0
 11
150.0510985000242
 21
158.0910433898016
 31
0.0
  0
LINE
  5
2D2
330
E3
100
AcDbEntity
  8
0
  6
Continuous
100
AcDbLine
 10
150.0510985000242
 20
158.0910433898016
 30
0.0
 11
150.0408523142133
 21
158.0873102033018
 31
0.0
  0
LINE
  5
2D3
330
E3
100
AcDbEntity
  8
0
  6
Continuous
100
AcDbLine
 10
150.0408523142133
 20
158.0873102033018
 30
0.0
 11
150.0269874945232
 21
158.0842120196201
 31
0.0
  0
LINE
  5
2D4
330
E3
100
AcDbEntity
  8
0
  6
Continuous
100
AcDbLine
 10
150.0269874945232
 20
158.0842120196201
 30
0.0
 11
150.0096018487532
 21
158.0817370543899
 31
0.0
  0
LINE
  5
2D5
330
E3
100
AcDbEntity
  8
0
  6
Continuous
100
AcDbLine
 10
150.0096018487532
 20
158.0817370543899
 30
0.0
 11
149.9888207369367
 21
158.07986381732
 31
0.0
  0
LINE
  5
2D6
330
E3
100
AcDbEntity
  8
0
  6
Continuous
100
AcDbLine
 10
149.9888207369367
 20
158.07986381732
 30
0.0
 11
149.9647910093985
 21
158.078560072973
 31
0.0
  0
LINE
  5
2D7
330
E3
100
AcDbEntity
  8
0
  6
Continuous
100
AcDbLine
 10
149.9647910093985
 20
158.078560072973
 30
0.0
 11
149.9376953336156
 21
158.0777971676271
 31
0.0
  0
LINE
  5
2D8
330
E3
100
AcDbEntity
  8
0
  6
Continuous
100
AcDbLine
 10
149.9376953336156
 20
158.0777971676271
 30
0.0
 11
149.9077235404959
 21
158.0775392841298
 31
0.0
  0
LINE
  5
2D9
330
E3
100
AcDbEntity
  8
0
  6
Continuous
100
AcDbLine
 10
149.9077235404959
 20
158.0775392841298
 30
0.0
 11
149.8751048598146
 21
158.077750605329
 31
0.0
  0
LINE
  5
2DA
330
E3
100
AcDbEntity
  8
0
  6
Continuous
100
AcDbLine
 10
149.8751048598146
 20
158.077750605329
 30
0.0
 11
149.8400792664927
 21
158.0783881506415
 31
0.0
  0
LINE
  5
2DB
330
E3
100
AcDbEntity
  8
0
  6
Continuous
100
AcDbLine
 10
149.8400792664927
 20
158.0783881506415
 30
0.0
 11
149.8029010623121
 21
158.0794017760541
 31
0.0
  0
LINE
  5
2DC
330
E3
100
AcDbEntity
  8
0
  6
Continuous
100
AcDbLine
 10
149.8029010623121
 20
158.0794017760541
 30
0.0
 11
149.7638532027769
 21
158.080748500984
 31
0.0
  0
LINE
  5
2DD
330
E3
100
AcDbEntity
  8
0
  6
Continuous
100
AcDbLine
 10
149.7638532027769
 20
158.080748500984
 30
0.0
 11
149.7232186433907
 21
158.0823710179872
 31
0.0
  0
LINE
  5
2DE
330
E3
100
AcDbEntity
  8
0
  6
Continuous
100
AcDbLine
 10
149.7232186433907
 20
158.0823710179872
 30
0.0
 11
149.681301829949
 21
158.0842227647658
 31
0.0
  0
LINE
  5
2DF
330
E3
100
AcDbEntity
  8
0
  6
Continuous
100
AcDbLine
 10
149.681301829949
 20
158.0842227647658
 30
0.0
 11
149.6384143716776
 21
158.0862428521606
 31
0.0
  0
LINE
  5
2E0
330
E3
100
AcDbEntity
  8
0
  6
Continuous
100
AcDbLine
 10
149.6384143716776
 20
158.0862428521606
 30
0.0
 11
149.5948786229479
 21
158.0883811361583
 31
0.0
  0
LINE
  5
2E1
330
E3
100
AcDbEntity
  8
0
  6
Continuous
100
AcDbLine
 10
149.5948786229479
 20
158.0883811361583
 30
0.0
 11
149.5510169381314
 21
158.0905731458845
 31
0.0
  0
LINE
  5
2E2
330
E3
100
AcDbEntity
  8
0
  6
Continuous
100
AcDbLine
 10
149.5510169381314
 20
158.0905731458845
 30
0.0
 11
149.5071516715997
 21
158.0927651556107
 31
0.0
  0
LINE
  5
2E3
330
E3
100
AcDbEntity
  8
0
  6
Continuous
100
AcDbLine
 10
149.5071516715997
 20
158.0927651556107
 30
0.0
 11
149.46361592287
 21
158.0949034396084
 31
0.0
  0
LINE
  5
2E4
330
E3
100
AcDbEntity
  8
0
  6
Continuous
100
AcDbLine
 10
149.46361592287
 20
158.0949034396084
 30
0.0
 11
149.4207284645986
 21
158.0969235270032
 31
0.0
  0
LINE
  5
2E5
330
E3
100
AcDbEntity
  8
0
  6
Continuous
100
AcDbLine
 10
149.4207284645986
 20
158.0969235270032
 30
0.0
 11
149.3788152328721
 21
158.0987752737817
 31
0.0
  0
LINE
  5
2E6
330
E3
100
AcDbEntity
  8
0
  6
Continuous
100
AcDbLine
 10
149.3788152328721
 20
158.0987752737817
 30
0.0
 11
149.338180673486
 21
158.100397790785
 31
0.0
  0
LINE
  5
2E7
330
E3
100
AcDbEntity
  8
0
  6
Continuous
100
AcDbLine
 10
149.338180673486
 20
158.100397790785
 30
0.0
 11
149.2991292322354
 21
158.1017445157148
 31
0.0
  0
LINE
  5
2E8
330
E3
100
AcDbEntity
  8
0
  6
Continuous
100
AcDbLine
 10
149.2991292322354
 20
158.1017445157148
 30
0.0
 11
149.2619510280549
 21
158.1027581411275
 31
0.0
  0
LINE
  5
2E9
330
E3
100
AcDbEntity
  8
0
  6
Continuous
100
AcDbLine
 10
149.2619510280549
 20
158.1027581411275
 30
0.0
 11
149.226925434733
 21
158.10339568644
 31
0.0
  0
LINE
  5
2EA
330
E3
100
AcDbEntity
  8
0
  6
Continuous
100
AcDbLine
 10
149.226925434733
 20
158.10339568644
 30
0.0
 11
149.1943067540517
 21
158.1036070076391
 31
0.0
  0
LINE
  5
2EB
330
E3
100
AcDbEntity
  8
0
  6
Continuous
100
AcDbLine
 10
149.1943067540517
 20
158.1036070076391
 30
0.0
 11
149.1643385426472
 21
158.1033491241419
 31
0.0
  0
LINE
  5
2EC
330
E3
100
AcDbEntity
  8
0
  6
Continuous
100
AcDbLine
 10
149.1643385426472
 20
158.1033491241419
 30
0.0
 11
149.1372392851491
 21
158.102586218796
 31
0.0
  0
LINE
  5
2ED
330
E3
100
AcDbEntity
  8
0
  6
Continuous
100
AcDbLine
 10
149.1372392851491
 20
158.102586218796
 30
0.0
 11
149.1132131393261
 21
158.101282474449
 31
0.0
  0
LINE
  5
2EE
330
E3
100
AcDbEntity
  8
0
  6
Continuous
100
AcDbLine
 10
149.1132131393261
 20
158.101282474449
 30
0.0
 11
149.0924284457944
 21
158.099409237379
 31
0.0
  0
LINE
  5
2EF
330
E3
100
AcDbEntity
  8
0
  6
Continuous
100
AcDbLine
 10
149.0924284457944
 20
158.099409237379
 30
0.0
 11
149.0750428000244
 21
158.0969342721489
 31
0.0
  0
LINE
  5
2F0
330
E3
100
AcDbEntity
  8
0
  6
Continuous
100
AcDbLine
 10
149.0750428000244
 20
158.0969342721489
 30
0.0
 11
149.0611779803343
 21
158.0938360884672
 31
0.0
  0
LINE
  5
2F1
330
E3
100
AcDbEntity
  8
0
  6
Continuous
100
AcDbLine
 10
149.0611779803343
 20
158.0938360884672
 30
0.0
 11
149.0509342747509
 21
158.0901039411882
 31
0.0
  0
LINE
  5
2F2
330
E3
100
AcDbEntity
  8
0
  6
Continuous
100
AcDbLine
 10
149.0509342747509
 20
158.0901039411882
 30
0.0
 11
149.0443782055515
 21
158.0857181075442
 31
0.0
  0
LINE
  5
2F3
330
E3
100
AcDbEntity
  8
0
  6
Continuous
100
AcDbLine
 10
149.0443782055515
 20
158.0857181075442
 30
0.0
 11
149.0415569750442
 21
158.0806750444136
 31
0.0
  0
LINE
  5
2F4
330
E3
100
AcDbEntity
  8
0
  6
Continuous
100
AcDbLine
 10
149.9922552645861
 20
157.7135824866907
 30
0.0
 11
149.9894340340788
 21
157.70853942356
 31
0.0
  0
LINE
  5
2F5
330
E3
100
AcDbEntity
  8
0
  6
Continuous
100
AcDbLine
 10
149.9894340340788
 20
157.70853942356
 30
0.0
 11
149.9828795730837
 21
157.7041546296896
 31
0.0
  0
LINE
  5
2F6
330
E3
100
AcDbEntity
  8
0
  6
Continuous
100
AcDbLine
 10
149.9828795730837
 20
157.7041546296896
 30
0.0
 11
149.9726349657718
 21
157.7004204866185
 31
0.0
  0
LINE
  5
2F7
330
E3
100
AcDbEntity
  8
0
  6
Continuous
100
AcDbLine
 10
149.9726349657718
 20
157.7004204866185
 30
0.0
 11
149.9587701460817
 21
157.697325884652
 31
0.0
  0
LINE
  5
2F8
330
E3
100
AcDbEntity
  8
0
  6
Continuous
100
AcDbLine
 10
149.9587701460817
 20
157.697325884652
 30
0.0
 11
149.9413845003118
 21
157.6948509194219
 31
0.0
  0
LINE
  5
2F9
330
E3
100
AcDbEntity
  8
0
  6
Continuous
100
AcDbLine
 10
149.9413845003118
 20
157.6948509194219
 30
0.0
 11
149.92059980678
 21
157.6929741006367
 31
0.0
  0
LINE
  5
2FA
330
E3
100
AcDbEntity
  8
0
  6
Continuous
100
AcDbLine
 10
149.92059980678
 20
157.6929741006367
 30
0.0
 11
149.896573660957
 21
157.6916703562897
 31
0.0
  0
LINE
  5
2FB
330
E3
100
AcDbEntity
  8
0
  6
Continuous
100
AcDbLine
 10
149.896573660957
 20
157.6916703562897
 30
0.0
 11
149.8694744034589
 21
157.6909074509438
 31
0.0
  0
LINE
  5
2FC
330
E3
100
AcDbEntity
  8
0
  6
Continuous
100
AcDbLine
 10
149.8694744034589
 20
157.6909074509438
 30
0.0
 11
149.8395061920544
 21
157.6906531491618
 31
0.0
  0
LINE
  5
2FD
330
E3
100
AcDbEntity
  8
0
  6
Continuous
100
AcDbLine
 10
149.8395061920544
 20
157.6906531491618
 30
0.0
 11
149.8068875113731
 21
157.6908608886457
 31
0.0
  0
LINE
  5
2FE
330
E3
100
AcDbEntity
  8
0
  6
Continuous
100
AcDbLine
 10
149.8068875113731
 20
157.6908608886457
 30
0.0
 11
149.7718619180512
 21
157.6914984339582
 31
0.0
  0
LINE
  5
2FF
330
E3
100
AcDbEntity
  8
0
  6
Continuous
100
AcDbLine
 10
149.7718619180512
 20
157.6914984339582
 30
0.0
 11
149.7346837138707
 21
157.6925120593708
 31
0.0
  0
LINE
  5
300
330
E3
100
AcDbEntity
  8
0
  6
Continuous
100
AcDbLine
 10
149.7346837138707
 20
157.6925120593708
 30
0.0
 11
149.6956322726202
 21
157.6938587843007
 31
0.0
  0
LINE
  5
301
330
E3
100
AcDbEntity
  8
0
  6
Continuous
100
AcDbLine
 10
149.6956322726202
 20
157.6938587843007
 30
0.0
 11
149.6549977132341
 21
157.6954813013039
 31
0.0
  0
LINE
  5
302
330
E3
100
AcDbEntity
  8
0
  6
Continuous
100
AcDbLine
 10
149.6549977132341
 20
157.6954813013039
 30
0.0
 11
149.6130808997923
 21
157.6973330480825
 31
0.0
  0
LINE
  5
303
330
E3
100
AcDbEntity
  8
0
  6
Continuous
100
AcDbLine
 10
149.6130808997923
 20
157.6973330480825
 30
0.0
 11
149.5701970232361
 21
157.6993531354773
 31
0.0
  0
LINE
  5
304
330
E3
100
AcDbEntity
  8
0
  6
Continuous
100
AcDbLine
 10
149.5701970232361
 20
157.6993531354773
 30
0.0
 11
149.5266612745064
 21
157.7014914194749
 31
0.0
  0
LINE
  5
305
330
E3
100
AcDbEntity
  8
0
  6
Continuous
100
AcDbLine
 10
149.5266612745064
 20
157.7014914194749
 30
0.0
 11
149.4827960079747
 21
157.7036834292012
 31
0.0
  0
LINE
  5
306
330
E3
100
AcDbEntity
  8
0
  6
Continuous
100
AcDbLine
 10
149.4827960079747
 20
157.7036834292012
 30
0.0
 11
149.4389343231582
 21
157.7058790206427
 31
0.0
  0
LINE
  5
307
330
E3
100
AcDbEntity
  8
0
  6
Continuous
100
AcDbLine
 10
149.4389343231582
 20
157.7058790206427
 30
0.0
 11
149.3953949927133
 21
157.7080137229251
 31
0.0
  0
LINE
  5
308
330
E3
100
AcDbEntity
  8
0
  6
Continuous
100
AcDbLine
 10
149.3953949927133
 20
157.7080137229251
 30
0.0
 11
149.3525111161571
 21
157.7100373920351
 31
0.0
  0
LINE
  5
309
330
E3
100
AcDbEntity
  8
0
  6
Continuous
100
AcDbLine
 10
149.3525111161571
 20
157.7100373920351
 30
0.0
 11
149.3105943027154
 21
157.7118855570984
 31
0.0
  0
LINE
  5
30A
330
E3
100
AcDbEntity
  8
0
  6
Continuous
100
AcDbLine
 10
149.3105943027154
 20
157.7118855570984
 30
0.0
 11
149.2699597433293
 21
157.7135116558169
 31
0.0
  0
LINE
  5
30B
330
E3
100
AcDbEntity
  8
0
  6
Continuous
100
AcDbLine
 10
149.2699597433293
 20
157.7135116558169
 30
0.0
 11
149.2309083020787
 21
157.7148547990315
 31
0.0
  0
LINE
  5
30C
330
E3
100
AcDbEntity
  8
0
  6
Continuous
100
AcDbLine
 10
149.2309083020787
 20
157.7148547990315
 30
0.0
 11
149.1937336796135
 21
157.7158720061594
 31
0.0
  0
LINE
  5
30D
330
E3
100
AcDbEntity
  8
0
  6
Continuous
100
AcDbLine
 10
149.1937336796135
 20
157.7158720061594
 30
0.0
 11
149.1587045045763
 21
157.7165059697567
 31
0.0
  0
LINE
  5
30E
330
E3
100
AcDbEntity
  8
0
  6
Continuous
100
AcDbLine
 10
149.1587045045763
 20
157.7165059697567
 30
0.0
 11
149.126085823895
 21
157.7167172909558
 31
0.0
  0
LINE
  5
30F
330
E3
100
AcDbEntity
  8
0
  6
Continuous
100
AcDbLine
 10
149.126085823895
 20
157.7167172909558
 30
0.0
 11
149.0961176124905
 21
157.7164594074586
 31
0.0
  0
LINE
  5
310
330
E3
100
AcDbEntity
  8
0
  6
Continuous
100
AcDbLine
 10
149.0961176124905
 20
157.7164594074586
 30
0.0
 11
149.0690219367077
 21
157.7157000838279
 31
0.0
  0
LINE
  5
311
330
E3
100
AcDbEntity
  8
0
  6
Continuous
100
AcDbLine
 10
149.0690219367077
 20
157.7157000838279
 30
0.0
 11
149.0449922091694
 21
157.7143963394809
 31
0.0
  0
LINE
  5
312
330
E3
100
AcDbEntity
  8
0
  6
Continuous
100
AcDbLine
 10
149.0449922091694
 20
157.7143963394809
 30
0.0
 11
149.0242110973529
 21
157.7125195206957
 31
0.0
  0
LINE
  5
313
330
E3
100
AcDbEntity
  8
0
  6
Continuous
100
AcDbLine
 10
149.0242110973529
 20
157.7125195206957
 30
0.0
 11
149.0068218698677
 21
157.7100445554656
 31
0.0
  0
LINE
  5
314
330
E3
100
AcDbEntity
  8
0
  6
Continuous
100
AcDbLine
 10
149.0068218698677
 20
157.7100445554656
 30
0.0
 11
148.9929570501776
 21
157.7069499534991
 31
0.0
  0
LINE
  5
315
330
E3
100
AcDbEntity
  8
0
  6
Continuous
100
AcDbLine
 10
148.9929570501776
 20
157.7069499534991
 30
0.0
 11
148.9827133445942
 21
157.7032142245049
 31
0.0
  0
LINE
  5
316
330
E3
100
AcDbEntity
  8
0
  6
Continuous
100
AcDbLine
 10
148.9827133445942
 20
157.7032142245049
 30
0.0
 11
148.9761592786109
 21
157.6988293474323
 31
0.0
  0
LINE
  5
317
330
E3
100
AcDbEntity
  8
0
  6
Continuous
100
AcDbLine
 10
148.9761592786109
 20
157.6988293474323
 30
0.0
 11
148.9733380481036
 21
157.6937862843016
 31
0.0
  0
LINE
  5
318
330
E3
100
AcDbEntity
  8
0
  6
Continuous
100
AcDbLine
 10
149.9240363376455
 20
157.3266937265787
 30
0.0
 11
149.9212151071382
 21
157.3216506634481
 31
0.0
  0
LINE
  5
319
330
E3
100
AcDbEntity
  8
0
  6
Continuous
100
AcDbLine
 10
149.9212151071382
 20
157.3216506634481
 30
0.0
 11
149.9146606461431
 21
157.3172658695777
 31
0.0
  0
LINE
  5
31A
330
E3
100
AcDbEntity
  8
0
  6
Continuous
100
AcDbLine
 10
149.9146606461431
 20
157.3172658695777
 30
0.0
 11
149.9044140356151
 21
157.3135307699352
 31
0.0
  0
LINE
  5
31B
330
E3
100
AcDbEntity
  8
0
  6
Continuous
100
AcDbLine
 10
149.9044140356151
 20
157.3135307699352
 30
0.0
 11
149.890549215925
 21
157.3104361679687
 31
0.0
  0
LINE
  5
31C
330
E3
100
AcDbEntity
  8
0
  6
Continuous
100
AcDbLine
 10
149.890549215925
 20
157.3104361679687
 30
0.0
 11
149.8731635701551
 21
157.3079612027386
 31
0.0
  0
LINE
  5
31D
330
E3
100
AcDbEntity
  8
0
  6
Continuous
100
AcDbLine
 10
149.8731635701551
 20
157.3079612027386
 30
0.0
 11
149.8523824583386
 21
157.3060843839534
 31
0.0
  0
LINE
  5
31E
330
E3
100
AcDbEntity
  8
0
  6
Continuous
100
AcDbLine
 10
149.8523824583386
 20
157.3060843839534
 30
0.0
 11
149.8283527308002
 21
157.3047806396064
 31
0.0
  0
LINE
  5
31F
330
E3
100
AcDbEntity
  8
0
  6
Continuous
100
AcDbLine
 10
149.8283527308002
 20
157.3047806396064
 30
0.0
 11
149.8012570550175
 21
157.3040177342605
 31
0.0
  0
LINE
  5
320
330
E3
100
AcDbEntity
  8
0
  6
Continuous
100
AcDbLine
 10
149.8012570550175
 20
157.3040177342605
 30
0.0
 11
149.771288843613
 21
157.3037634324785
 31
0.0
  0
LINE
  5
321
330
E3
100
AcDbEntity
  8
0
  6
Continuous
100
AcDbLine
 10
149.771288843613
 20
157.3037634324785
 30
0.0
 11
149.7386701629316
 21
157.3039747536776
 31
0.0
  0
LINE
  5
322
330
E3
100
AcDbEntity
  8
0
  6
Continuous
100
AcDbLine
 10
149.7386701629316
 20
157.3039747536776
 30
0.0
 11
149.7036409878945
 21
157.3046087172749
 31
0.0
  0
LINE
  5
323
330
E3
100
AcDbEntity
  8
0
  6
Continuous
100
AcDbLine
 10
149.7036409878945
 20
157.3046087172749
 30
0.0
 11
149.6664663654292
 21
157.3056259244028
 31
0.0
  0
LINE
  5
324
330
E3
100
AcDbEntity
  8
0
  6
Continuous
100
AcDbLine
 10
149.6664663654292
 20
157.3056259244028
 30
0.0
 11
149.6274149241787
 21
157.3069690676174
 31
0.0
  0
LINE
  5
325
330
E3
100
AcDbEntity
  8
0
  6
Continuous
100
AcDbLine
 10
149.6274149241787
 20
157.3069690676174
 30
0.0
 11
149.5867803647926
 21
157.3085951663359
 31
0.0
  0
LINE
  5
326
330
E3
100
AcDbEntity
  8
0
  6
Continuous
100
AcDbLine
 10
149.5867803647926
 20
157.3085951663359
 30
0.0
 11
149.5448635513509
 21
157.3104433313992
 31
0.0
  0
LINE
  5
327
330
E3
100
AcDbEntity
  8
0
  6
Continuous
100
AcDbLine
 10
149.5448635513509
 20
157.3104433313992
 30
0.0
 11
149.5019760930794
 21
157.3124670005092
 31
0.0
  0
LINE
  5
328
330
E3
100
AcDbEntity
  8
0
  6
Continuous
100
AcDbLine
 10
149.5019760930794
 20
157.3124670005092
 30
0.0
 11
149.4584403443497
 21
157.3146017027916
 31
0.0
  0
LINE
  5
329
330
E3
100
AcDbEntity
  8
0
  6
Continuous
100
AcDbLine
 10
149.4584403443497
 20
157.3146017027916
 30
0.0
 11
149.4145786595332
 21
157.3167972942331
 31
0.0
  0
LINE
  5
32A
330
E3
100
AcDbEntity
  8
0
  6
Continuous
100
AcDbLine
 10
149.4145786595332
 20
157.3167972942331
 30
0.0
 11
149.3707133930016
 21
157.3189893039594
 31
0.0
  0
LINE
  5
32B
330
E3
100
AcDbEntity
  8
0
  6
Continuous
100
AcDbLine
 10
149.3707133930016
 20
157.3189893039594
 30
0.0
 11
149.3271776442718
 21
157.3211240062418
 31
0.0
  0
LINE
  5
32C
330
E3
100
AcDbEntity
  8
0
  6
Continuous
100
AcDbLine
 10
149.3271776442718
 20
157.3211240062418
 30
0.0
 11
149.2842901860004
 21
157.3231476753518
 31
0.0
  0
LINE
  5
32D
330
E3
100
AcDbEntity
  8
0
  6
Continuous
100
AcDbLine
 10
149.2842901860004
 20
157.3231476753518
 30
0.0
 11
149.2423769542739
 21
157.3249958404151
 31
0.0
  0
LINE
  5
32E
330
E3
100
AcDbEntity
  8
0
  6
Continuous
100
AcDbLine
 10
149.2423769542739
 20
157.3249958404151
 30
0.0
 11
149.2017423948878
 21
157.3266219391336
 31
0.0
  0
LINE
  5
32F
330
E3
100
AcDbEntity
  8
0
  6
Continuous
100
AcDbLine
 10
149.2017423948878
 20
157.3266219391336
 30
0.0
 11
149.1626909536373
 21
157.3279686640635
 31
0.0
  0
LINE
  5
330
330
E3
100
AcDbEntity
  8
0
  6
Continuous
100
AcDbLine
 10
149.1626909536373
 20
157.3279686640635
 30
0.0
 11
149.1255127494568
 21
157.3289822894761
 31
0.0
  0
LINE
  5
331
330
E3
100
AcDbEntity
  8
0
  6
Continuous
100
AcDbLine
 10
149.1255127494568
 20
157.3289822894761
 30
0.0
 11
149.0904871561348
 21
157.3296162530734
 31
0.0
  0
LINE
  5
332
330
E3
100
AcDbEntity
  8
0
  6
Continuous
100
AcDbLine
 10
149.0904871561348
 20
157.3296162530734
 30
0.0
 11
149.0578684754535
 21
157.3298275742725
 31
0.0
  0
LINE
  5
333
330
E3
100
AcDbEntity
  8
0
  6
Continuous
100
AcDbLine
 10
149.0578684754535
 20
157.3298275742725
 30
0.0
 11
149.027900264049
 21
157.3295732724906
 31
0.0
  0
LINE
  5
334
330
E3
100
AcDbEntity
  8
0
  6
Continuous
100
AcDbLine
 10
149.027900264049
 20
157.3295732724906
 30
0.0
 11
149.000801006551
 21
157.3288103671447
 31
0.0
  0
LINE
  5
335
330
E3
100
AcDbEntity
  8
0
  6
Continuous
100
AcDbLine
 10
149.000801006551
 20
157.3288103671447
 30
0.0
 11
148.976774860728
 21
157.3275066227977
 31
0.0
  0
LINE
  5
336
330
E3
100
AcDbEntity
  8
0
  6
Continuous
100
AcDbLine
 10
148.976774860728
 20
157.3275066227977
 30
0.0
 11
148.9559901671962
 21
157.3256298040125
 31
0.0
  0
LINE
  5
337
330
E3
100
AcDbEntity
  8
0
  6
Continuous
100
AcDbLine
 10
148.9559901671962
 20
157.3256298040125
 30
0.0
 11
148.9386045214262
 21
157.3231548387823
 31
0.0
  0
LINE
  5
338
330
E3
100
AcDbEntity
  8
0
  6
Continuous
100
AcDbLine
 10
148.9386045214262
 20
157.3231548387823
 30
0.0
 11
148.9247397017362
 21
157.3200602368158
 31
0.0
  0
LINE
  5
339
330
E3
100
AcDbEntity
  8
0
  6
Continuous
100
AcDbLine
 10
148.9247397017362
 20
157.3200602368158
 30
0.0
 11
148.9144959961527
 21
157.3163245078216
 31
0.0
  0
LINE
  5
33A
330
E3
100
AcDbEntity
  8
0
  6
Continuous
100
AcDbLine
 10
148.9144959961527
 20
157.3163245078216
 30
0.0
 11
148.9079403516703
 21
157.3119405873204
 31
0.0
  0
LINE
  5
33B
330
E3
100
AcDbEntity
  8
0
  6
Continuous
100
AcDbLine
 10
148.9079403516703
 20
157.3119405873204
 30
0.0
 11
148.905119121163
 21
157.3068975241897
 31
0.0
  0
LINE
  5
33C
330
E3
100
AcDbEntity
  8
0
  6
Continuous
100
AcDbLine
 10
149.8558174107049
 20
156.9398049664668
 30
0.0
 11
149.8529961801976
 21
156.9347619033362
 31
0.0
  0
LINE
  5
33D
330
E3
100
AcDbEntity
  8
0
  6
Continuous
100
AcDbLine
 10
149.8529961801976
 20
156.9347619033362
 30
0.0
 11
149.8464417192025
 21
156.9303771094657
 31
0.0
  0
LINE
  5
33E
330
E3
100
AcDbEntity
  8
0
  6
Continuous
100
AcDbLine
 10
149.8464417192025
 20
156.9303771094657
 30
0.0
 11
149.8361966871736
 21
156.9266446349671
 31
0.0
  0
LINE
  5
33F
330
E3
100
AcDbEntity
  8
0
  6
Continuous
100
AcDbLine
 10
149.8361966871736
 20
156.9266446349671
 30
0.0
 11
149.8223318674836
 21
156.9235464512854
 31
0.0
  0
LINE
  5
340
330
E3
100
AcDbEntity
  8
0
  6
Continuous
100
AcDbLine
 10
149.8223318674836
 20
156.9235464512854
 30
0.0
 11
149.8049462217136
 21
156.9210714860553
 31
0.0
  0
LINE
  5
341
330
E3
100
AcDbEntity
  8
0
  6
Continuous
100
AcDbLine
 10
149.8049462217136
 20
156.9210714860553
 30
0.0
 11
149.7841615281818
 21
156.9191982489853
 31
0.0
  0
LINE
  5
342
330
E3
100
AcDbEntity
  8
0
  6
Continuous
100
AcDbLine
 10
149.7841615281818
 20
156.9191982489853
 30
0.0
 11
149.7601353823588
 21
156.9178945046383
 31
0.0
  0
LINE
  5
343
330
E3
100
AcDbEntity
  8
0
  6
Continuous
100
AcDbLine
 10
149.7601353823588
 20
156.9178945046383
 30
0.0
 11
149.7330361248607
 21
156.9171315992924
 31
0.0
  0
LINE
  5
344
330
E3
100
AcDbEntity
  8
0
  6
Continuous
100
AcDbLine
 10
149.7330361248607
 20
156.9171315992924
 30
0.0
 11
149.7030679134562
 21
156.9168737157952
 31
0.0
  0
LINE
  5
345
330
E3
100
AcDbEntity
  8
0
  6
Continuous
100
AcDbLine
 10
149.7030679134562
 20
156.9168737157952
 30
0.0
 11
149.670449232775
 21
156.9170850369943
 31
0.0
  0
LINE
  5
346
330
E3
100
AcDbEntity
  8
0
  6
Continuous
100
AcDbLine
 10
149.670449232775
 20
156.9170850369943
 30
0.0
 11
149.635423639453
 21
156.9177225823069
 31
0.0
  0
LINE
  5
347
330
E3
100
AcDbEntity
  8
0
  6
Continuous
100
AcDbLine
 10
149.635423639453
 20
156.9177225823069
 30
0.0
 11
149.5982454352725
 21
156.9187362077195
 31
0.0
  0
LINE
  5
348
330
E3
100
AcDbEntity
  8
0
  6
Continuous
100
AcDbLine
 10
149.5982454352725
 20
156.9187362077195
 30
0.0
 11
149.559193994022
 21
156.9200793509341
 31
0.0
  0
LINE
  5
349
330
E3
100
AcDbEntity
  8
0
  6
Continuous
100
AcDbLine
 10
149.559193994022
 20
156.9200793509341
 30
0.0
 11
149.5185594346358
 21
156.9217054496526
 31
0.0
  0
LINE
  5
34A
330
E3
100
AcDbEntity
  8
0
  6
Continuous
100
AcDbLine
 10
149.5185594346358
 20
156.9217054496526
 30
0.0
 11
149.4766462029094
 21
156.9235571964311
 31
0.0
  0
LINE
  5
34B
330
E3
100
AcDbEntity
  8
0
  6
Continuous
100
AcDbLine
 10
149.4766462029094
 20
156.9235571964311
 30
0.0
 11
149.4337587446379
 21
156.9255772838259
 31
0.0
  0
LINE
  5
34C
330
E3
100
AcDbEntity
  8
0
  6
Continuous
100
AcDbLine
 10
149.4337587446379
 20
156.9255772838259
 30
0.0
 11
149.3902229959083
 21
156.9277119861084
 31
0.0
  0
LINE
  5
34D
330
E3
100
AcDbEntity
  8
0
  6
Continuous
100
AcDbLine
 10
149.3902229959083
 20
156.9277119861084
 30
0.0
 11
149.3463577293765
 21
156.9299075775498
 31
0.0
  0
LINE
  5
34E
330
E3
100
AcDbEntity
  8
0
  6
Continuous
100
AcDbLine
 10
149.3463577293765
 20
156.9299075775498
 30
0.0
 11
149.3024960445601
 21
156.9320995872761
 31
0.0
  0
LINE
  5
34F
330
E3
100
AcDbEntity
  8
0
  6
Continuous
100
AcDbLine
 10
149.3024960445601
 20
156.9320995872761
 30
0.0
 11
149.2589602958304
 21
156.9342378712738
 31
0.0
  0
LINE
  5
350
330
E3
100
AcDbEntity
  8
0
  6
Continuous
100
AcDbLine
 10
149.2589602958304
 20
156.9342378712738
 30
0.0
 11
149.216072837559
 21
156.9362579586685
 31
0.0
  0
LINE
  5
351
330
E3
100
AcDbEntity
  8
0
  6
Continuous
100
AcDbLine
 10
149.216072837559
 20
156.9362579586685
 30
0.0
 11
149.1741560241173
 21
156.9381097054471
 31
0.0
  0
LINE
  5
352
330
E3
100
AcDbEntity
  8
0
  6
Continuous
100
AcDbLine
 10
149.1741560241173
 20
156.9381097054471
 30
0.0
 11
149.1335214647311
 21
156.9397322224503
 31
0.0
  0
LINE
  5
353
330
E3
100
AcDbEntity
  8
0
  6
Continuous
100
AcDbLine
 10
149.1335214647311
 20
156.9397322224503
 30
0.0
 11
149.0944736051958
 21
156.9410789473802
 31
0.0
  0
LINE
  5
354
330
E3
100
AcDbEntity
  8
0
  6
Continuous
100
AcDbLine
 10
149.0944736051958
 20
156.9410789473802
 30
0.0
 11
149.0572954010153
 21
156.9420925727928
 31
0.0
  0
LINE
  5
355
330
E3
100
AcDbEntity
  8
0
  6
Continuous
100
AcDbLine
 10
149.0572954010153
 20
156.9420925727928
 30
0.0
 11
149.0222662259781
 21
156.9427301181054
 31
0.0
  0
LINE
  5
356
330
E3
100
AcDbEntity
  8
0
  6
Continuous
100
AcDbLine
 10
149.0222662259781
 20
156.9427301181054
 30
0.0
 11
148.9896475452968
 21
156.9429414393045
 31
0.0
  0
LINE
  5
357
330
E3
100
AcDbEntity
  8
0
  6
Continuous
100
AcDbLine
 10
148.9896475452968
 20
156.9429414393045
 30
0.0
 11
148.9596793338924
 21
156.9426835558073
 31
0.0
  0
LINE
  5
358
330
E3
100
AcDbEntity
  8
0
  6
Continuous
100
AcDbLine
 10
148.9596793338924
 20
156.9426835558073
 30
0.0
 11
148.9325836581095
 21
156.9419206504613
 31
0.0
  0
LINE
  5
359
330
E3
100
AcDbEntity
  8
0
  6
Continuous
100
AcDbLine
 10
148.9325836581095
 20
156.9419206504613
 30
0.0
 11
148.9085539305713
 21
156.9406169061143
 31
0.0
  0
LINE
  5
35A
330
E3
100
AcDbEntity
  8
0
  6
Continuous
100
AcDbLine
 10
148.9085539305713
 20
156.9406169061143
 30
0.0
 11
148.8877728187547
 21
156.9387400873291
 31
0.0
  0
LINE
  5
35B
330
E3
100
AcDbEntity
  8
0
  6
Continuous
100
AcDbLine
 10
148.8877728187547
 20
156.9387400873291
 30
0.0
 11
148.8703871729848
 21
156.936265122099
 31
0.0
  0
LINE
  5
35C
330
E3
100
AcDbEntity
  8
0
  6
Continuous
100
AcDbLine
 10
148.8703871729848
 20
156.936265122099
 30
0.0
 11
148.8565223532947
 21
156.9331705201325
 31
0.0
  0
LINE
  5
35D
330
E3
100
AcDbEntity
  8
0
  6
Continuous
100
AcDbLine
 10
148.8565223532947
 20
156.9331705201325
 30
0.0
 11
148.846275065996
 21
156.9294383728535
 31
0.0
  0
LINE
  5
35E
330
E3
100
AcDbEntity
  8
0
  6
Continuous
100
AcDbLine
 10
148.846275065996
 20
156.9294383728535
 30
0.0
 11
148.8397214247297
 21
156.9250518272084
 31
0.0
  0
LINE
  5
35F
330
E3
100
AcDbEntity
  8
0
  6
Continuous
100
AcDbLine
 10
148.8397214247297
 20
156.9250518272084
 30
0.0
 11
148.8369001942224
 21
156.9200087640777
 31
0.0
  0
LINE
  5
360
330
E3
100
AcDbEntity
  8
0
  6
Continuous
100
AcDbLine
 10
149.7875984837644
 20
156.5529162063549
 30
0.0
 11
149.7847772532571
 21
156.5478731432242
 31
0.0
  0
LINE
  5
361
330
E3
100
AcDbEntity
  8
0
  6
Continuous
100
AcDbLine
 10
149.7847772532571
 20
156.5478731432242
 30
0.0
 11
149.7782227922619
 21
156.5434883493538
 31
0.0
  0
LINE
  5
362
330
E3
100
AcDbEntity
  8
0
  6
Continuous
100
AcDbLine
 10
149.7782227922619
 20
156.5434883493538
 30
0.0
 11
149.7679793387321
 21
156.5397549182838
 31
0.0
  0
LINE
  5
363
330
E3
100
AcDbEntity
  8
0
  6
Continuous
100
AcDbLine
 10
149.7679793387321
 20
156.5397549182838
 30
0.0
 11
149.7541145190421
 21
156.5366567346021
 31
0.0
  0
LINE
  5
364
330
E3
100
AcDbEntity
  8
0
  6
Continuous
100
AcDbLine
 10
149.7541145190421
 20
156.5366567346021
 30
0.0
 11
149.7367252915569
 21
156.5341853510872
 31
0.0
  0
LINE
  5
365
330
E3
100
AcDbEntity
  8
0
  6
Continuous
100
AcDbLine
 10
149.7367252915569
 20
156.5341853510872
 30
0.0
 11
149.7159441797404
 21
156.532308532302
 31
0.0
  0
LINE
  5
366
330
E3
100
AcDbEntity
  8
0
  6
Continuous
100
AcDbLine
 10
149.7159441797404
 20
156.532308532302
 30
0.0
 11
149.6919144522021
 21
156.531004787955
 31
0.0
  0
LINE
  5
367
330
E3
100
AcDbEntity
  8
0
  6
Continuous
100
AcDbLine
 10
149.6919144522021
 20
156.531004787955
 30
0.0
 11
149.6648187764193
 21
156.5302418826091
 31
0.0
  0
LINE
  5
368
330
E3
100
AcDbEntity
  8
0
  6
Continuous
100
AcDbLine
 10
149.6648187764193
 20
156.5302418826091
 30
0.0
 11
149.6348505650148
 21
156.5299839991119
 31
0.0
  0
LINE
  5
369
330
E3
100
AcDbEntity
  8
0
  6
Continuous
100
AcDbLine
 10
149.6348505650148
 20
156.5299839991119
 30
0.0
 11
149.6022318843335
 21
156.530195320311
 31
0.0
  0
LINE
  5
36A
330
E3
100
AcDbEntity
  8
0
  6
Continuous
100
AcDbLine
 10
149.6022318843335
 20
156.530195320311
 30
0.0
 11
149.5672027092964
 21
156.5308328656236
 31
0.0
  0
LINE
  5
36B
330
E3
100
AcDbEntity
  8
0
  6
Continuous
100
AcDbLine
 10
149.5672027092964
 20
156.5308328656236
 30
0.0
 11
149.530028086831
 21
156.5318464910362
 31
0.0
  0
LINE
  5
36C
330
E3
100
AcDbEntity
  8
0
  6
Continuous
100
AcDbLine
 10
149.530028086831
 20
156.5318464910362
 30
0.0
 11
149.4909766455805
 21
156.533193215966
 31
0.0
  0
LINE
  5
36D
330
E3
100
AcDbEntity
  8
0
  6
Continuous
100
AcDbLine
 10
149.4909766455805
 20
156.533193215966
 30
0.0
 11
149.4503420861944
 21
156.5348157329693
 31
0.0
  0
LINE
  5
36E
330
E3
100
AcDbEntity
  8
0
  6
Continuous
100
AcDbLine
 10
149.4503420861944
 20
156.5348157329693
 30
0.0
 11
149.4084252727527
 21
156.5366674797478
 31
0.0
  0
LINE
  5
36F
330
E3
100
AcDbEntity
  8
0
  6
Continuous
100
AcDbLine
 10
149.4084252727527
 20
156.5366674797478
 30
0.0
 11
149.3655413961965
 21
156.5386875671426
 31
0.0
  0
LINE
  5
370
330
E3
100
AcDbEntity
  8
0
  6
Continuous
100
AcDbLine
 10
149.3655413961965
 20
156.5386875671426
 30
0.0
 11
149.3220020657515
 21
156.5408258511403
 31
0.0
  0
LINE
  5
371
330
E3
100
AcDbEntity
  8
0
  6
Continuous
100
AcDbLine
 10
149.3220020657515
 20
156.5408258511403
 30
0.0
 11
149.2781403809351
 21
156.5430178608665
 31
0.0
  0
LINE
  5
372
330
E3
100
AcDbEntity
  8
0
  6
Continuous
100
AcDbLine
 10
149.2781403809351
 20
156.5430178608665
 30
0.0
 11
149.2342751144034
 21
156.545213452308
 31
0.0
  0
LINE
  5
373
330
E3
100
AcDbEntity
  8
0
  6
Continuous
100
AcDbLine
 10
149.2342751144034
 20
156.545213452308
 30
0.0
 11
149.1907393656737
 21
156.5473481545905
 31
0.0
  0
LINE
  5
374
330
E3
100
AcDbEntity
  8
0
  6
Continuous
100
AcDbLine
 10
149.1907393656737
 20
156.5473481545905
 30
0.0
 11
149.1478554891175
 21
156.5493682419852
 31
0.0
  0
LINE
  5
375
330
E3
100
AcDbEntity
  8
0
  6
Continuous
100
AcDbLine
 10
149.1478554891175
 20
156.5493682419852
 30
0.0
 11
149.1059386756758
 21
156.5512199887638
 31
0.0
  0
LINE
  5
376
330
E3
100
AcDbEntity
  8
0
  6
Continuous
100
AcDbLine
 10
149.1059386756758
 20
156.5512199887638
 30
0.0
 11
149.0653041162896
 21
156.552842505767
 31
0.0
  0
LINE
  5
377
330
E3
100
AcDbEntity
  8
0
  6
Continuous
100
AcDbLine
 10
149.0653041162896
 20
156.552842505767
 30
0.0
 11
149.0262526750391
 21
156.5541892306969
 31
0.0
  0
LINE
  5
378
330
E3
100
AcDbEntity
  8
0
  6
Continuous
100
AcDbLine
 10
149.0262526750391
 20
156.5541892306969
 30
0.0
 11
148.9890744708586
 21
156.5552028561095
 31
0.0
  0
LINE
  5
379
330
E3
100
AcDbEntity
  8
0
  6
Continuous
100
AcDbLine
 10
148.9890744708586
 20
156.5552028561095
 30
0.0
 11
148.9540488775367
 21
156.5558404014221
 31
0.0
  0
LINE
  5
37A
330
E3
100
AcDbEntity
  8
0
  6
Continuous
100
AcDbLine
 10
148.9540488775367
 20
156.5558404014221
 30
0.0
 11
148.9214301968554
 21
156.5560517226212
 31
0.0
  0
LINE
  5
37B
330
E3
100
AcDbEntity
  8
0
  6
Continuous
100
AcDbLine
 10
148.9214301968554
 20
156.5560517226212
 30
0.0
 11
148.8914619854509
 21
156.5557938391239
 31
0.0
  0
LINE
  5
37C
330
E3
100
AcDbEntity
  8
0
  6
Continuous
100
AcDbLine
 10
148.8914619854509
 20
156.5557938391239
 30
0.0
 11
148.8643627279528
 21
156.555030933778
 31
0.0
  0
LINE
  5
37D
330
E3
100
AcDbEntity
  8
0
  6
Continuous
100
AcDbLine
 10
148.8643627279528
 20
156.555030933778
 30
0.0
 11
148.8403365821298
 21
156.5537271894311
 31
0.0
  0
LINE
  5
37E
330
E3
100
AcDbEntity
  8
0
  6
Continuous
100
AcDbLine
 10
148.8403365821298
 20
156.5537271894311
 30
0.0
 11
148.819551888598
 21
156.5518539523611
 31
0.0
  0
LINE
  5
37F
330
E3
100
AcDbEntity
  8
0
  6
Continuous
100
AcDbLine
 10
148.819551888598
 20
156.5518539523611
 30
0.0
 11
148.802166242828
 21
156.549378987131
 31
0.0
  0
LINE
  5
380
330
E3
100
AcDbEntity
  8
0
  6
Continuous
100
AcDbLine
 10
148.802166242828
 20
156.549378987131
 30
0.0
 11
148.788301423138
 21
156.5462808034492
 31
0.0
  0
LINE
  5
381
330
E3
100
AcDbEntity
  8
0
  6
Continuous
100
AcDbLine
 10
148.788301423138
 20
156.5462808034492
 30
0.0
 11
148.7780577175545
 21
156.5425486561702
 31
0.0
  0
LINE
  5
382
330
E3
100
AcDbEntity
  8
0
  6
Continuous
100
AcDbLine
 10
148.7780577175545
 20
156.5425486561702
 30
0.0
 11
148.7715024977891
 21
156.5381630670964
 31
0.0
  0
LINE
  5
383
330
E3
100
AcDbEntity
  8
0
  6
Continuous
100
AcDbLine
 10
148.7715024977891
 20
156.5381630670964
 30
0.0
 11
148.7686812672819
 21
156.5331200039658
 31
0.0
  0
LINE
  5
384
330
E3
100
AcDbEntity
  8
0
  6
Continuous
100
AcDbLine
 10
149.7193795568238
 20
156.1660274462429
 30
0.0
 11
149.7165583263165
 21
156.1609843831123
 31
0.0
  0
LINE
  5
385
330
E3
100
AcDbEntity
  8
0
  6
Continuous
100
AcDbLine
 10
149.7165583263165
 20
156.1609843831123
 30
0.0
 11
149.7100038653213
 21
156.1565995892419
 31
0.0
  0
LINE
  5
386
330
E3
100
AcDbEntity
  8
0
  6
Continuous
100
AcDbLine
 10
149.7100038653213
 20
156.1565995892419
 30
0.0
 11
149.6997584085755
 21
156.1528652016005
 31
0.0
  0
LINE
  5
387
330
E3
100
AcDbEntity
  8
0
  6
Continuous
100
AcDbLine
 10
149.6997584085755
 20
156.1528652016005
 30
0.0
 11
149.6858935888854
 21
156.1497705996341
 31
0.0
  0
LINE
  5
388
330
E3
100
AcDbEntity
  8
0
  6
Continuous
100
AcDbLine
 10
149.6858935888854
 20
156.1497705996341
 30
0.0
 11
149.6685079431154
 21
156.1472956344039
 31
0.0
  0
LINE
  5
389
330
E3
100
AcDbEntity
  8
0
  6
Continuous
100
AcDbLine
 10
149.6685079431154
 20
156.1472956344039
 30
0.0
 11
149.6477232495836
 21
156.1454188156187
 31
0.0
  0
LINE
  5
38A
330
E3
100
AcDbEntity
  8
0
  6
Continuous
100
AcDbLine
 10
149.6477232495836
 20
156.1454188156187
 30
0.0
 11
149.6236971037606
 21
156.1441150712717
 31
0.0
  0
LINE
  5
38B
330
E3
100
AcDbEntity
  8
0
  6
Continuous
100
AcDbLine
 10
149.6236971037606
 20
156.1441150712717
 30
0.0
 11
149.5965978462626
 21
156.1433521659258
 31
0.0
  0
LINE
  5
38C
330
E3
100
AcDbEntity
  8
0
  6
Continuous
100
AcDbLine
 10
149.5965978462626
 20
156.1433521659258
 30
0.0
 11
149.5666296348581
 21
156.1430978641438
 31
0.0
  0
LINE
  5
38D
330
E3
100
AcDbEntity
  8
0
  6
Continuous
100
AcDbLine
 10
149.5666296348581
 20
156.1430978641438
 30
0.0
 11
149.5340109541768
 21
156.143309185343
 31
0.0
  0
LINE
  5
38E
330
E3
100
AcDbEntity
  8
0
  6
Continuous
100
AcDbLine
 10
149.5340109541768
 20
156.143309185343
 30
0.0
 11
149.4989853608549
 21
156.1439431489403
 31
0.0
  0
LINE
  5
38F
330
E3
100
AcDbEntity
  8
0
  6
Continuous
100
AcDbLine
 10
149.4989853608549
 20
156.1439431489403
 30
0.0
 11
149.4618071566744
 21
156.1449567743529
 31
0.0
  0
LINE
  5
390
330
E3
100
AcDbEntity
  8
0
  6
Continuous
100
AcDbLine
 10
149.4618071566744
 20
156.1449567743529
 30
0.0
 11
149.4227557154238
 21
156.1463034992827
 31
0.0
  0
LINE
  5
391
330
E3
100
AcDbEntity
  8
0
  6
Continuous
100
AcDbLine
 10
149.4227557154238
 20
156.1463034992827
 30
0.0
 11
149.3821211560377
 21
156.147926016286
 31
0.0
  0
LINE
  5
392
330
E3
100
AcDbEntity
  8
0
  6
Continuous
100
AcDbLine
 10
149.3821211560377
 20
156.147926016286
 30
0.0
 11
149.3402079243112
 21
156.1497777630645
 31
0.0
  0
LINE
  5
393
330
E3
100
AcDbEntity
  8
0
  6
Continuous
100
AcDbLine
 10
149.3402079243112
 20
156.1497777630645
 30
0.0
 11
149.2973204660398
 21
156.1517978504593
 31
0.0
  0
LINE
  5
394
330
E3
100
AcDbEntity
  8
0
  6
Continuous
100
AcDbLine
 10
149.2973204660398
 20
156.1517978504593
 30
0.0
 11
149.2537847173101
 21
156.153936134457
 31
0.0
  0
LINE
  5
395
330
E3
100
AcDbEntity
  8
0
  6
Continuous
100
AcDbLine
 10
149.2537847173101
 20
156.153936134457
 30
0.0
 11
149.2099194507784
 21
156.1561281441832
 31
0.0
  0
LINE
  5
396
330
E3
100
AcDbEntity
  8
0
  6
Continuous
100
AcDbLine
 10
149.2099194507784
 20
156.1561281441832
 30
0.0
 11
149.1660577659619
 21
156.1583237356247
 31
0.0
  0
LINE
  5
397
330
E3
100
AcDbEntity
  8
0
  6
Continuous
100
AcDbLine
 10
149.1660577659619
 20
156.1583237356247
 30
0.0
 11
149.1225220172322
 21
156.1604584379072
 31
0.0
  0
LINE
  5
398
330
E3
100
AcDbEntity
  8
0
  6
Continuous
100
AcDbLine
 10
149.1225220172322
 20
156.1604584379072
 30
0.0
 11
149.0796345589608
 21
156.1624821070172
 31
0.0
  0
LINE
  5
399
330
E3
100
AcDbEntity
  8
0
  6
Continuous
100
AcDbLine
 10
149.0796345589608
 20
156.1624821070172
 30
0.0
 11
149.0377177455191
 21
156.1643302720805
 31
0.0
  0
LINE
  5
39A
330
E3
100
AcDbEntity
  8
0
  6
Continuous
100
AcDbLine
 10
149.0377177455191
 20
156.1643302720805
 30
0.0
 11
148.9970831861329
 21
156.165956370799
 31
0.0
  0
LINE
  5
39B
330
E3
100
AcDbEntity
  8
0
  6
Continuous
100
AcDbLine
 10
148.9970831861329
 20
156.165956370799
 30
0.0
 11
148.9580353265977
 21
156.1672995140136
 31
0.0
  0
LINE
  5
39C
330
E3
100
AcDbEntity
  8
0
  6
Continuous
100
AcDbLine
 10
148.9580353265977
 20
156.1672995140136
 30
0.0
 11
148.9208571224171
 21
156.1683167211415
 31
0.0
  0
LINE
  5
39D
330
E3
100
AcDbEntity
  8
0
  6
Continuous
100
AcDbLine
 10
148.9208571224171
 20
156.1683167211415
 30
0.0
 11
148.8858315290952
 21
156.1689506847388
 31
0.0
  0
LINE
  5
39E
330
E3
100
AcDbEntity
  8
0
  6
Continuous
100
AcDbLine
 10
148.8858315290952
 20
156.1689506847388
 30
0.0
 11
148.8532128484139
 21
156.1691620059379
 31
0.0
  0
LINE
  5
39F
330
E3
100
AcDbEntity
  8
0
  6
Continuous
100
AcDbLine
 10
148.8532128484139
 20
156.1691620059379
 30
0.0
 11
148.8232410552941
 21
156.1689041224407
 31
0.0
  0
LINE
  5
3A0
330
E3
100
AcDbEntity
  8
0
  6
Continuous
100
AcDbLine
 10
148.8232410552941
 20
156.1689041224407
 30
0.0
 11
148.7961453795114
 21
156.16814479881
 31
0.0
  0
LINE
  5
3A1
330
E3
100
AcDbEntity
  8
0
  6
Continuous
100
AcDbLine
 10
148.7961453795114
 20
156.16814479881
 30
0.0
 11
148.7721156519731
 21
156.166841054463
 31
0.0
  0
LINE
  5
3A2
330
E3
100
AcDbEntity
  8
0
  6
Continuous
100
AcDbLine
 10
148.7721156519731
 20
156.166841054463
 30
0.0
 11
148.7513345401566
 21
156.1649642356778
 31
0.0
  0
LINE
  5
3A3
330
E3
100
AcDbEntity
  8
0
  6
Continuous
100
AcDbLine
 10
148.7513345401566
 20
156.1649642356778
 30
0.0
 11
148.7339488943866
 21
156.1624892704477
 31
0.0
  0
LINE
  5
3A4
330
E3
100
AcDbEntity
  8
0
  6
Continuous
100
AcDbLine
 10
148.7339488943866
 20
156.1624892704477
 30
0.0
 11
148.7200840746966
 21
156.1593946684812
 31
0.0
  0
LINE
  5
3A5
330
E3
100
AcDbEntity
  8
0
  6
Continuous
100
AcDbLine
 10
148.7200840746966
 20
156.1593946684812
 30
0.0
 11
148.7098367873978
 21
156.1556589394869
 31
0.0
  0
LINE
  5
3A6
330
E3
100
AcDbEntity
  8
0
  6
Continuous
100
AcDbLine
 10
148.7098367873978
 20
156.1556589394869
 30
0.0
 11
148.7032835708486
 21
156.1512743069845
 31
0.0
  0
LINE
  5
3A7
330
E3
100
AcDbEntity
  8
0
  6
Continuous
100
AcDbLine
 10
148.7032835708486
 20
156.1512743069845
 30
0.0
 11
148.7004623403413
 21
156.1462312438539
 31
0.0
  0
LINE
  5
3A8
330
E3
100
AcDbEntity
  8
0
  6
Continuous
100
AcDbLine
 10
149.6511606298832
 20
155.779138686131
 30
0.0
 11
149.6483393993759
 21
155.7740956230003
 31
0.0
  0
LINE
  5
3A9
330
E3
100
AcDbEntity
  8
0
  6
Continuous
100
AcDbLine
 10
149.6483393993759
 20
155.7740956230003
 30
0.0
 11
149.6417849383808
 21
155.7697108291299
 31
0.0
  0
LINE
  5
3AA
330
E3
100
AcDbEntity
  8
0
  6
Continuous
100
AcDbLine
 10
149.6417849383808
 20
155.7697108291299
 30
0.0
 11
149.631541060134
 21
155.7659754849172
 31
0.0
  0
LINE
  5
3AB
330
E3
100
AcDbEntity
  8
0
  6
Continuous
100
AcDbLine
 10
149.631541060134
 20
155.7659754849172
 30
0.0
 11
149.6176762404439
 21
155.7628808829508
 31
0.0
  0
LINE
  5
3AC
330
E3
100
AcDbEntity
  8
0
  6
Continuous
100
AcDbLine
 10
149.6176762404439
 20
155.7628808829508
 30
0.0
 11
149.6002870129587
 21
155.7604059177206
 31
0.0
  0
LINE
  5
3AD
330
E3
100
AcDbEntity
  8
0
  6
Continuous
100
AcDbLine
 10
149.6002870129587
 20
155.7604059177206
 30
0.0
 11
149.5795059011422
 21
155.7585290989354
 31
0.0
  0
LINE
  5
3AE
330
E3
100
AcDbEntity
  8
0
  6
Continuous
100
AcDbLine
 10
149.5795059011422
 20
155.7585290989354
 30
0.0
 11
149.5554797553192
 21
155.7572253545884
 31
0.0
  0
LINE
  5
3AF
330
E3
100
AcDbEntity
  8
0
  6
Continuous
100
AcDbLine
 10
149.5554797553192
 20
155.7572253545884
 30
0.0
 11
149.5283804978211
 21
155.7564624492425
 31
0.0
  0
LINE
  5
3B0
330
E3
100
AcDbEntity
  8
0
  6
Continuous
100
AcDbLine
 10
149.5283804978211
 20
155.7564624492425
 30
0.0
 11
149.4984122864166
 21
155.7562081474605
 31
0.0
  0
LINE
  5
3B1
330
E3
100
AcDbEntity
  8
0
  6
Continuous
100
AcDbLine
 10
149.4984122864166
 20
155.7562081474605
 30
0.0
 11
149.4657936057353
 21
155.7564194686597
 31
0.0
  0
LINE
  5
3B2
330
E3
100
AcDbEntity
  8
0
  6
Continuous
100
AcDbLine
 10
149.4657936057353
 20
155.7564194686597
 30
0.0
 11
149.4307644306982
 21
155.757053432257
 31
0.0
  0
LINE
  5
3B3
330
E3
100
AcDbEntity
  8
0
  6
Continuous
100
AcDbLine
 10
149.4307644306982
 20
155.757053432257
 30
0.0
 11
149.3935898082329
 21
155.7580706393848
 31
0.0
  0
LINE
  5
3B4
330
E3
100
AcDbEntity
  8
0
  6
Continuous
100
AcDbLine
 10
149.3935898082329
 20
155.7580706393848
 30
0.0
 11
149.3545383669824
 21
155.7594137825994
 31
0.0
  0
LINE
  5
3B5
330
E3
100
AcDbEntity
  8
0
  6
Continuous
100
AcDbLine
 10
149.3545383669824
 20
155.7594137825994
 30
0.0
 11
149.3139038075962
 21
155.7610398813179
 31
0.0
  0
LINE
  5
3B6
330
E3
100
AcDbEntity
  8
0
  6
Continuous
100
AcDbLine
 10
149.3139038075962
 20
155.7610398813179
 30
0.0
 11
149.2719869941545
 21
155.7628880463812
 31
0.0
  0
LINE
  5
3B7
330
E3
100
AcDbEntity
  8
0
  6
Continuous
100
AcDbLine
 10
149.2719869941545
 20
155.7628880463812
 30
0.0
 11
149.2291031175983
 21
155.7649117154913
 31
0.0
  0
LINE
  5
3B8
330
E3
100
AcDbEntity
  8
0
  6
Continuous
100
AcDbLine
 10
149.2291031175983
 20
155.7649117154913
 30
0.0
 11
149.1855637871534
 21
155.7670464177737
 31
0.0
  0
LINE
  5
3B9
330
E3
100
AcDbEntity
  8
0
  6
Continuous
100
AcDbLine
 10
149.1855637871534
 20
155.7670464177737
 30
0.0
 11
149.1417021023369
 21
155.7692420092152
 31
0.0
  0
LINE
  5
3BA
330
E3
100
AcDbEntity
  8
0
  6
Continuous
100
AcDbLine
 10
149.1417021023369
 20
155.7692420092152
 30
0.0
 11
149.0978404175205
 21
155.7714340189414
 31
0.0
  0
LINE
  5
3BB
330
E3
100
AcDbEntity
  8
0
  6
Continuous
100
AcDbLine
 10
149.0978404175205
 20
155.7714340189414
 30
0.0
 11
149.0543010870755
 21
155.7735723029391
 31
0.0
  0
LINE
  5
3BC
330
E3
100
AcDbEntity
  8
0
  6
Continuous
100
AcDbLine
 10
149.0543010870755
 20
155.7735723029391
 30
0.0
 11
149.0114172105193
 21
155.7755923903339
 31
0.0
  0
LINE
  5
3BD
330
E3
100
AcDbEntity
  8
0
  6
Continuous
100
AcDbLine
 10
149.0114172105193
 20
155.7755923903339
 30
0.0
 11
148.9695003970776
 21
155.7774441371124
 31
0.0
  0
LINE
  5
3BE
330
E3
100
AcDbEntity
  8
0
  6
Continuous
100
AcDbLine
 10
148.9695003970776
 20
155.7774441371124
 30
0.0
 11
148.9288658376915
 21
155.7790666541157
 31
0.0
  0
LINE
  5
3BF
330
E3
100
AcDbEntity
  8
0
  6
Continuous
100
AcDbLine
 10
148.9288658376915
 20
155.7790666541157
 30
0.0
 11
148.889814396441
 21
155.7804133790455
 31
0.0
  0
LINE
  5
3C0
330
E3
100
AcDbEntity
  8
0
  6
Continuous
100
AcDbLine
 10
148.889814396441
 20
155.7804133790455
 30
0.0
 11
148.8526397739757
 21
155.7814270044582
 31
0.0
  0
LINE
  5
3C1
330
E3
100
AcDbEntity
  8
0
  6
Continuous
100
AcDbLine
 10
148.8526397739757
 20
155.7814270044582
 30
0.0
 11
148.8176105989385
 21
155.7820609680555
 31
0.0
  0
LINE
  5
3C2
330
E3
100
AcDbEntity
  8
0
  6
Continuous
100
AcDbLine
 10
148.8176105989385
 20
155.7820609680555
 30
0.0
 11
148.7849919182572
 21
155.7822722892546
 31
0.0
  0
LINE
  5
3C3
330
E3
100
AcDbEntity
  8
0
  6
Continuous
100
AcDbLine
 10
148.7849919182572
 20
155.7822722892546
 30
0.0
 11
148.7550237068527
 21
155.7820179874726
 31
0.0
  0
LINE
  5
3C4
330
E3
100
AcDbEntity
  8
0
  6
Continuous
100
AcDbLine
 10
148.7550237068527
 20
155.7820179874726
 30
0.0
 11
148.7279244493546
 21
155.7812550821267
 31
0.0
  0
LINE
  5
3C5
330
E3
100
AcDbEntity
  8
0
  6
Continuous
100
AcDbLine
 10
148.7279244493546
 20
155.7812550821267
 30
0.0
 11
148.7038983035316
 21
155.7799513377797
 31
0.0
  0
LINE
  5
3C6
330
E3
100
AcDbEntity
  8
0
  6
Continuous
100
AcDbLine
 10
148.7038983035316
 20
155.7799513377797
 30
0.0
 11
148.6831136099999
 21
155.7780745189945
 31
0.0
  0
LINE
  5
3C7
330
E3
100
AcDbEntity
  8
0
  6
Continuous
100
AcDbLine
 10
148.6831136099999
 20
155.7780745189945
 30
0.0
 11
148.6657279642299
 21
155.7755995537644
 31
0.0
  0
LINE
  5
3C8
330
E3
100
AcDbEntity
  8
0
  6
Continuous
100
AcDbLine
 10
148.6657279642299
 20
155.7755995537644
 30
0.0
 11
148.6518631445398
 21
155.7725049517979
 31
0.0
  0
LINE
  5
3C9
330
E3
100
AcDbEntity
  8
0
  6
Continuous
100
AcDbLine
 10
148.6518631445398
 20
155.7725049517979
 30
0.0
 11
148.6416194389564
 21
155.7687692228037
 31
0.0
  0
LINE
  5
3CA
330
E3
100
AcDbEntity
  8
0
  6
Continuous
100
AcDbLine
 10
148.6416194389564
 20
155.7687692228037
 30
0.0
 11
148.635064643908
 21
155.7643855468725
 31
0.0
  0
LINE
  5
3CB
330
E3
100
AcDbEntity
  8
0
  6
Continuous
100
AcDbLine
 10
148.635064643908
 20
155.7643855468725
 30
0.0
 11
148.6322434134007
 21
155.759342483742
 31
0.0
  0
LINE
  5
3CC
330
E3
100
AcDbEntity
  8
0
  6
Continuous
100
AcDbLine
 10
149.5829417029426
 20
155.392249926019
 30
0.0
 11
149.5801204724353
 21
155.3872068628884
 31
0.0
  0
LINE
  5
3CD
330
E3
100
AcDbEntity
  8
0
  6
Continuous
100
AcDbLine
 10
149.5801204724353
 20
155.3872068628884
 30
0.0
 11
149.5735660114402
 21
155.382822069018
 31
0.0
  0
LINE
  5
3CE
330
E3
100
AcDbEntity
  8
0
  6
Continuous
100
AcDbLine
 10
149.5735660114402
 20
155.382822069018
 30
0.0
 11
149.5633201299773
 21
155.3790893499492
 31
0.0
  0
LINE
  5
3CF
330
E3
100
AcDbEntity
  8
0
  6
Continuous
100
AcDbLine
 10
149.5633201299773
 20
155.3790893499492
 30
0.0
 11
149.5494553102872
 21
155.3759911662675
 31
0.0
  0
LINE
  5
3D0
330
E3
100
AcDbEntity
  8
0
  6
Continuous
100
AcDbLine
 10
149.5494553102872
 20
155.3759911662675
 30
0.0
 11
149.5320696645172
 21
155.3735162010373
 31
0.0
  0
LINE
  5
3D1
330
E3
100
AcDbEntity
  8
0
  6
Continuous
100
AcDbLine
 10
149.5320696645172
 20
155.3735162010373
 30
0.0
 11
149.5112885527007
 21
155.3716429639674
 31
0.0
  0
LINE
  5
3D2
330
E3
100
AcDbEntity
  8
0
  6
Continuous
100
AcDbLine
 10
149.5112885527007
 20
155.3716429639674
 30
0.0
 11
149.4872588251625
 21
155.3703392196204
 31
0.0
  0
LINE
  5
3D3
330
E3
100
AcDbEntity
  8
0
  6
Continuous
100
AcDbLine
 10
149.4872588251625
 20
155.3703392196204
 30
0.0
 11
149.4601595676644
 21
155.3695763142745
 31
0.0
  0
LINE
  5
3D4
330
E3
100
AcDbEntity
  8
0
  6
Continuous
100
AcDbLine
 10
149.4601595676644
 20
155.3695763142745
 30
0.0
 11
149.4301913562599
 21
155.3693184307773
 31
0.0
  0
LINE
  5
3D5
330
E3
100
AcDbEntity
  8
0
  6
Continuous
100
AcDbLine
 10
149.4301913562599
 20
155.3693184307773
 30
0.0
 11
149.3975726755786
 21
155.3695297519764
 31
0.0
  0
LINE
  5
3D6
330
E3
100
AcDbEntity
  8
0
  6
Continuous
100
AcDbLine
 10
149.3975726755786
 20
155.3695297519764
 30
0.0
 11
149.3625470822567
 21
155.3701672972889
 31
0.0
  0
LINE
  5
3D7
330
E3
100
AcDbEntity
  8
0
  6
Continuous
100
AcDbLine
 10
149.3625470822567
 20
155.3701672972889
 30
0.0
 11
149.3253688780761
 21
155.3711809227015
 31
0.0
  0
LINE
  5
3D8
330
E3
100
AcDbEntity
  8
0
  6
Continuous
100
AcDbLine
 10
149.3253688780761
 20
155.3711809227015
 30
0.0
 11
149.2863210185409
 21
155.3725240659161
 31
0.0
  0
LINE
  5
3D9
330
E3
100
AcDbEntity
  8
0
  6
Continuous
100
AcDbLine
 10
149.2863210185409
 20
155.3725240659161
 30
0.0
 11
149.2456864591548
 21
155.3741501646346
 31
0.0
  0
LINE
  5
3DA
330
E3
100
AcDbEntity
  8
0
  6
Continuous
100
AcDbLine
 10
149.2456864591548
 20
155.3741501646346
 30
0.0
 11
149.2037696457131
 21
155.3760019114132
 31
0.0
  0
LINE
  5
3DB
330
E3
100
AcDbEntity
  8
0
  6
Continuous
100
AcDbLine
 10
149.2037696457131
 20
155.3760019114132
 30
0.0
 11
149.1608821874416
 21
155.378021998808
 31
0.0
  0
LINE
  5
3DC
330
E3
100
AcDbEntity
  8
0
  6
Continuous
100
AcDbLine
 10
149.1608821874416
 20
155.378021998808
 30
0.0
 11
149.1173464387119
 21
155.3801567010904
 31
0.0
  0
LINE
  5
3DD
330
E3
100
AcDbEntity
  8
0
  6
Continuous
100
AcDbLine
 10
149.1173464387119
 20
155.3801567010904
 30
0.0
 11
149.0734847538955
 21
155.3823522925319
 31
0.0
  0
LINE
  5
3DE
330
E3
100
AcDbEntity
  8
0
  6
Continuous
100
AcDbLine
 10
149.0734847538955
 20
155.3823522925319
 30
0.0
 11
149.0296194873638
 21
155.3845443022581
 31
0.0
  0
LINE
  5
3DF
330
E3
100
AcDbEntity
  8
0
  6
Continuous
100
AcDbLine
 10
149.0296194873638
 20
155.3845443022581
 30
0.0
 11
148.9860837386341
 21
155.3866825862558
 31
0.0
  0
LINE
  5
3E0
330
E3
100
AcDbEntity
  8
0
  6
Continuous
100
AcDbLine
 10
148.9860837386341
 20
155.3866825862558
 30
0.0
 11
148.9431962803626
 21
155.3887026736506
 31
0.0
  0
LINE
  5
3E1
330
E3
100
AcDbEntity
  8
0
  6
Continuous
100
AcDbLine
 10
148.9431962803626
 20
155.3887026736506
 30
0.0
 11
148.9012794669209
 21
155.3905544204291
 31
0.0
  0
LINE
  5
3E2
330
E3
100
AcDbEntity
  8
0
  6
Continuous
100
AcDbLine
 10
148.9012794669209
 20
155.3905544204291
 30
0.0
 11
148.86064848925
 21
155.3921769374324
 31
0.0
  0
LINE
  5
3E3
330
E3
100
AcDbEntity
  8
0
  6
Continuous
100
AcDbLine
 10
148.86064848925
 20
155.3921769374324
 30
0.0
 11
148.8215970479995
 21
155.3935236623622
 31
0.0
  0
LINE
  5
3E4
330
E3
100
AcDbEntity
  8
0
  6
Continuous
100
AcDbLine
 10
148.8215970479995
 20
155.3935236623622
 30
0.0
 11
148.784418843819
 21
155.3945372877749
 31
0.0
  0
LINE
  5
3E5
330
E3
100
AcDbEntity
  8
0
  6
Continuous
100
AcDbLine
 10
148.784418843819
 20
155.3945372877749
 30
0.0
 11
148.7493932504971
 21
155.3951748330874
 31
0.0
  0
LINE
  5
3E6
330
E3
100
AcDbEntity
  8
0
  6
Continuous
100
AcDbLine
 10
148.7493932504971
 20
155.3951748330874
 30
0.0
 11
148.7167745698158
 21
155.3953861542865
 31
0.0
  0
LINE
  5
3E7
330
E3
100
AcDbEntity
  8
0
  6
Continuous
100
AcDbLine
 10
148.7167745698158
 20
155.3953861542865
 30
0.0
 11
148.6868063584112
 21
155.3951282707893
 31
0.0
  0
LINE
  5
3E8
330
E3
100
AcDbEntity
  8
0
  6
Continuous
100
AcDbLine
 10
148.6868063584112
 20
155.3951282707893
 30
0.0
 11
148.6597071009132
 21
155.3943653654434
 31
0.0
  0
LINE
  5
3E9
330
E3
100
AcDbEntity
  8
0
  6
Continuous
100
AcDbLine
 10
148.6597071009132
 20
155.3943653654434
 30
0.0
 11
148.6356773733749
 21
155.3930616210964
 31
0.0
  0
LINE
  5
3EA
330
E3
100
AcDbEntity
  8
0
  6
Continuous
100
AcDbLine
 10
148.6356773733749
 20
155.3930616210964
 30
0.0
 11
148.6148962615584
 21
155.3911848023112
 31
0.0
  0
LINE
  5
3EB
330
E3
100
AcDbEntity
  8
0
  6
Continuous
100
AcDbLine
 10
148.6148962615584
 20
155.3911848023112
 30
0.0
 11
148.5975106157885
 21
155.3887098370811
 31
0.0
  0
LINE
  5
3EC
330
E3
100
AcDbEntity
  8
0
  6
Continuous
100
AcDbLine
 10
148.5975106157885
 20
155.3887098370811
 30
0.0
 11
148.5836457960984
 21
155.3856152351146
 31
0.0
  0
LINE
  5
3ED
330
E3
100
AcDbEntity
  8
0
  6
Continuous
100
AcDbLine
 10
148.5836457960984
 20
155.3856152351146
 30
0.0
 11
148.5733985087997
 21
155.3818830878356
 31
0.0
  0
LINE
  5
3EE
330
E3
100
AcDbEntity
  8
0
  6
Continuous
100
AcDbLine
 10
148.5733985087997
 20
155.3818830878356
 30
0.0
 11
148.5668457169674
 21
155.3774967867606
 31
0.0
  0
LINE
  5
3EF
330
E3
100
AcDbEntity
  8
0
  6
Continuous
100
AcDbLine
 10
148.5668457169674
 20
155.3774967867606
 30
0.0
 11
148.5640244864601
 21
155.37245372363
 31
0.0
  0
LINE
  5
3F0
330
E3
100
AcDbEntity
  8
0
  6
Continuous
100
AcDbLine
 10
149.514722776002
 20
155.0053611659071
 30
0.0
 11
149.5119015454947
 21
155.0003181027765
 31
0.0
  0
LINE
  5
3F1
330
E3
100
AcDbEntity
  8
0
  6
Continuous
100
AcDbLine
 10
149.5119015454947
 20
155.0003181027765
 30
0.0
 11
149.5053470844996
 21
154.995933308906
 31
0.0
  0
LINE
  5
3F2
330
E3
100
AcDbEntity
  8
0
  6
Continuous
100
AcDbLine
 10
149.5053470844996
 20
154.995933308906
 30
0.0
 11
149.4951027815358
 21
154.9921996332659
 31
0.0
  0
LINE
  5
3F3
330
E3
100
AcDbEntity
  8
0
  6
Continuous
100
AcDbLine
 10
149.4951027815358
 20
154.9921996332659
 30
0.0
 11
149.4812379618457
 21
154.9891050312994
 31
0.0
  0
LINE
  5
3F4
330
E3
100
AcDbEntity
  8
0
  6
Continuous
100
AcDbLine
 10
149.4812379618457
 20
154.9891050312994
 30
0.0
 11
149.4638523160758
 21
154.9866300660693
 31
0.0
  0
LINE
  5
3F5
330
E3
100
AcDbEntity
  8
0
  6
Continuous
100
AcDbLine
 10
149.4638523160758
 20
154.9866300660693
 30
0.0
 11
149.443067622544
 21
154.9847532472841
 31
0.0
  0
LINE
  5
3F6
330
E3
100
AcDbEntity
  8
0
  6
Continuous
100
AcDbLine
 10
149.443067622544
 20
154.9847532472841
 30
0.0
 11
149.419041476721
 21
154.9834495029371
 31
0.0
  0
LINE
  5
3F7
330
E3
100
AcDbEntity
  8
0
  6
Continuous
100
AcDbLine
 10
149.419041476721
 20
154.9834495029371
 30
0.0
 11
149.391942219223
 21
154.9826865975912
 31
0.0
  0
LINE
  5
3F8
330
E3
100
AcDbEntity
  8
0
  6
Continuous
100
AcDbLine
 10
149.391942219223
 20
154.9826865975912
 30
0.0
 11
149.3619740078185
 21
154.982428714094
 31
0.0
  0
LINE
  5
3F9
330
E3
100
AcDbEntity
  8
0
  6
Continuous
100
AcDbLine
 10
149.3619740078185
 20
154.982428714094
 30
0.0
 11
149.3293553271371
 21
154.9826400352931
 31
0.0
  0
LINE
  5
3FA
330
E3
100
AcDbEntity
  8
0
  6
Continuous
100
AcDbLine
 10
149.3293553271371
 20
154.9826400352931
 30
0.0
 11
149.2943261521
 21
154.9832775806056
 31
0.0
  0
LINE
  5
3FB
330
E3
100
AcDbEntity
  8
0
  6
Continuous
100
AcDbLine
 10
149.2943261521
 20
154.9832775806056
 30
0.0
 11
149.2571515296347
 21
154.9842912060182
 31
0.0
  0
LINE
  5
3FC
330
E3
100
AcDbEntity
  8
0
  6
Continuous
100
AcDbLine
 10
149.2571515296347
 20
154.9842912060182
 30
0.0
 11
149.2181000883842
 21
154.9856379309481
 31
0.0
  0
LINE
  5
3FD
330
E3
100
AcDbEntity
  8
0
  6
Continuous
100
AcDbLine
 10
149.2181000883842
 20
154.9856379309481
 30
0.0
 11
149.1774655289981
 21
154.9872604479514
 31
0.0
  0
LINE
  5
3FE
330
E3
100
AcDbEntity
  8
0
  6
Continuous
100
AcDbLine
 10
149.1774655289981
 20
154.9872604479514
 30
0.0
 11
149.1355487155564
 21
154.9891121947299
 31
0.0
  0
LINE
  5
3FF
330
E3
100
AcDbEntity
  8
0
  6
Continuous
100
AcDbLine
 10
149.1355487155564
 20
154.9891121947299
 30
0.0
 11
149.0926648390001
 21
154.9911322821247
 31
0.0
  0
LINE
  5
400
330
E3
100
AcDbEntity
  8
0
  6
Continuous
100
AcDbLine
 10
149.0926648390001
 20
154.9911322821247
 30
0.0
 11
149.0491290902705
 21
154.9932705661223
 31
0.0
  0
LINE
  5
401
330
E3
100
AcDbEntity
  8
0
  6
Continuous
100
AcDbLine
 10
149.0491290902705
 20
154.9932705661223
 30
0.0
 11
149.0052638237387
 21
154.9954625758486
 31
0.0
  0
LINE
  5
402
330
E3
100
AcDbEntity
  8
0
  6
Continuous
100
AcDbLine
 10
149.0052638237387
 20
154.9954625758486
 30
0.0
 11
148.9614021389223
 21
154.9976581672901
 31
0.0
  0
LINE
  5
403
330
E3
100
AcDbEntity
  8
0
  6
Continuous
100
AcDbLine
 10
148.9614021389223
 20
154.9976581672901
 30
0.0
 11
148.9178628084774
 21
154.9997928695725
 31
0.0
  0
LINE
  5
404
330
E3
100
AcDbEntity
  8
0
  6
Continuous
100
AcDbLine
 10
148.9178628084774
 20
154.9997928695725
 30
0.0
 11
148.8749789319211
 21
155.0018129569673
 31
0.0
  0
LINE
  5
405
330
E3
100
AcDbEntity
  8
0
  6
Continuous
100
AcDbLine
 10
148.8749789319211
 20
155.0018129569673
 30
0.0
 11
148.8330621184795
 21
155.0036647037458
 31
0.0
  0
LINE
  5
406
330
E3
100
AcDbEntity
  8
0
  6
Continuous
100
AcDbLine
 10
148.8330621184795
 20
155.0036647037458
 30
0.0
 11
148.7924275590933
 21
155.0052908024643
 31
0.0
  0
LINE
  5
407
330
E3
100
AcDbEntity
  8
0
  6
Continuous
100
AcDbLine
 10
148.7924275590933
 20
155.0052908024643
 30
0.0
 11
148.7533761178428
 21
155.006633945679
 31
0.0
  0
LINE
  5
408
330
E3
100
AcDbEntity
  8
0
  6
Continuous
100
AcDbLine
 10
148.7533761178428
 20
155.006633945679
 30
0.0
 11
148.7162014953775
 21
155.0076475710916
 31
0.0
  0
LINE
  5
409
330
E3
100
AcDbEntity
  8
0
  6
Continuous
100
AcDbLine
 10
148.7162014953775
 20
155.0076475710916
 30
0.0
 11
148.6811723203404
 21
155.0082851164041
 31
0.0
  0
LINE
  5
40A
330
E3
100
AcDbEntity
  8
0
  6
Continuous
100
AcDbLine
 10
148.6811723203404
 20
155.0082851164041
 30
0.0
 11
148.648553639659
 21
155.0084964376032
 31
0.0
  0
LINE
  5
40B
330
E3
100
AcDbEntity
  8
0
  6
Continuous
100
AcDbLine
 10
148.648553639659
 20
155.0084964376032
 30
0.0
 11
148.6185854282545
 21
155.008238554106
 31
0.0
  0
LINE
  5
40C
330
E3
100
AcDbEntity
  8
0
  6
Continuous
100
AcDbLine
 10
148.6185854282545
 20
155.008238554106
 30
0.0
 11
148.5914897524717
 21
155.0074756487601
 31
0.0
  0
LINE
  5
40D
330
E3
100
AcDbEntity
  8
0
  6
Continuous
100
AcDbLine
 10
148.5914897524717
 20
155.0074756487601
 30
0.0
 11
148.5674600249334
 21
155.0061719044131
 31
0.0
  0
LINE
  5
40E
330
E3
100
AcDbEntity
  8
0
  6
Continuous
100
AcDbLine
 10
148.5674600249334
 20
155.0061719044131
 30
0.0
 11
148.5466789131169
 21
155.0042986673431
 31
0.0
  0
LINE
  5
40F
330
E3
100
AcDbEntity
  8
0
  6
Continuous
100
AcDbLine
 10
148.5466789131169
 20
155.0042986673431
 30
0.0
 11
148.5292896856317
 21
155.001823702113
 31
0.0
  0
LINE
  5
410
330
E3
100
AcDbEntity
  8
0
  6
Continuous
100
AcDbLine
 10
148.5292896856317
 20
155.001823702113
 30
0.0
 11
148.5154248659417
 21
154.9987255184313
 31
0.0
  0
LINE
  5
411
330
E3
100
AcDbEntity
  8
0
  6
Continuous
100
AcDbLine
 10
148.5154248659417
 20
154.9987255184313
 30
0.0
 11
148.5051811603582
 21
154.9949933711523
 31
0.0
  0
LINE
  5
412
330
E3
100
AcDbEntity
  8
0
  6
Continuous
100
AcDbLine
 10
148.5051811603582
 20
154.9949933711523
 30
0.0
 11
148.4986267900268
 21
154.9906080266487
 31
0.0
  0
LINE
  5
413
330
E3
100
AcDbEntity
  8
0
  6
Continuous
100
AcDbLine
 10
148.4986267900268
 20
154.9906080266487
 30
0.0
 11
148.4958055595195
 21
154.9855649635181
 31
0.0
  0
LINE
  5
414
330
E3
100
AcDbEntity
  8
0
  6
Continuous
100
AcDbLine
 10
149.4465038490614
 20
154.6184724057952
 30
0.0
 11
149.4436826185541
 21
154.6134293426645
 31
0.0
  0
LINE
  5
415
330
E3
100
AcDbEntity
  8
0
  6
Continuous
100
AcDbLine
 10
149.4436826185541
 20
154.6134293426645
 30
0.0
 11
149.437128157559
 21
154.6090445487941
 31
0.0
  0
LINE
  5
416
330
E3
100
AcDbEntity
  8
0
  6
Continuous
100
AcDbLine
 10
149.437128157559
 20
154.6090445487941
 30
0.0
 11
149.4268818513791
 21
154.6053099165826
 31
0.0
  0
LINE
  5
417
330
E3
100
AcDbEntity
  8
0
  6
Continuous
100
AcDbLine
 10
149.4268818513791
 20
154.6053099165826
 30
0.0
 11
149.413017031689
 21
154.6022153146161
 31
0.0
  0
LINE
  5
418
330
E3
100
AcDbEntity
  8
0
  6
Continuous
100
AcDbLine
 10
149.413017031689
 20
154.6022153146161
 30
0.0
 11
149.3956313859191
 21
154.599740349386
 31
0.0
  0
LINE
  5
419
330
E3
100
AcDbEntity
  8
0
  6
Continuous
100
AcDbLine
 10
149.3956313859191
 20
154.599740349386
 30
0.0
 11
149.3748502741026
 21
154.5978635306008
 31
0.0
  0
LINE
  5
41A
330
E3
100
AcDbEntity
  8
0
  6
Continuous
100
AcDbLine
 10
149.3748502741026
 20
154.5978635306008
 30
0.0
 11
149.3508205465643
 21
154.5965597862538
 31
0.0
  0
LINE
  5
41B
330
E3
100
AcDbEntity
  8
0
  6
Continuous
100
AcDbLine
 10
149.3508205465643
 20
154.5965597862538
 30
0.0
 11
149.3237248707815
 21
154.5957968809079
 31
0.0
  0
LINE
  5
41C
330
E3
100
AcDbEntity
  8
0
  6
Continuous
100
AcDbLine
 10
149.3237248707815
 20
154.5957968809079
 30
0.0
 11
149.2937530776617
 21
154.5955425791259
 31
0.0
  0
LINE
  5
41D
330
E3
100
AcDbEntity
  8
0
  6
Continuous
100
AcDbLine
 10
149.2937530776617
 20
154.5955425791259
 30
0.0
 11
149.2611379786957
 21
154.595753900325
 31
0.0
  0
LINE
  5
41E
330
E3
100
AcDbEntity
  8
0
  6
Continuous
100
AcDbLine
 10
149.2611379786957
 20
154.595753900325
 30
0.0
 11
149.2261088036585
 21
154.5963878639223
 31
0.0
  0
LINE
  5
41F
330
E3
100
AcDbEntity
  8
0
  6
Continuous
100
AcDbLine
 10
149.2261088036585
 20
154.5963878639223
 30
0.0
 11
149.188930599478
 21
154.597401489335
 31
0.0
  0
LINE
  5
420
330
E3
100
AcDbEntity
  8
0
  6
Continuous
100
AcDbLine
 10
149.188930599478
 20
154.597401489335
 30
0.0
 11
149.1498827399427
 21
154.5987482142648
 31
0.0
  0
LINE
  5
421
330
E3
100
AcDbEntity
  8
0
  6
Continuous
100
AcDbLine
 10
149.1498827399427
 20
154.5987482142648
 30
0.0
 11
149.1092481805566
 21
154.6003743129833
 31
0.0
  0
LINE
  5
422
330
E3
100
AcDbEntity
  8
0
  6
Continuous
100
AcDbLine
 10
149.1092481805566
 20
154.6003743129833
 30
0.0
 11
149.0673313671149
 21
154.6022224780466
 31
0.0
  0
LINE
  5
423
330
E3
100
AcDbEntity
  8
0
  6
Continuous
100
AcDbLine
 10
149.0673313671149
 20
154.6022224780466
 30
0.0
 11
149.0244439088434
 21
154.6042461471566
 31
0.0
  0
LINE
  5
424
330
E3
100
AcDbEntity
  8
0
  6
Continuous
100
AcDbLine
 10
149.0244439088434
 20
154.6042461471566
 30
0.0
 11
148.9809081601138
 21
154.606380849439
 31
0.0
  0
LINE
  5
425
330
E3
100
AcDbEntity
  8
0
  6
Continuous
100
AcDbLine
 10
148.9809081601138
 20
154.606380849439
 30
0.0
 11
148.9370464752973
 21
154.6085728591653
 31
0.0
  0
LINE
  5
426
330
E3
100
AcDbEntity
  8
0
  6
Continuous
100
AcDbLine
 10
148.9370464752973
 20
154.6085728591653
 30
0.0
 11
148.8931812087656
 21
154.6107684506068
 31
0.0
  0
LINE
  5
427
330
E3
100
AcDbEntity
  8
0
  6
Continuous
100
AcDbLine
 10
148.8931812087656
 20
154.6107684506068
 30
0.0
 11
148.8496454600359
 21
154.6129031528892
 31
0.0
  0
LINE
  5
428
330
E3
100
AcDbEntity
  8
0
  6
Continuous
100
AcDbLine
 10
148.8496454600359
 20
154.6129031528892
 30
0.0
 11
148.8067580017644
 21
154.6149268219992
 31
0.0
  0
LINE
  5
429
330
E3
100
AcDbEntity
  8
0
  6
Continuous
100
AcDbLine
 10
148.8067580017644
 20
154.6149268219992
 30
0.0
 11
148.764844770038
 21
154.6167749870625
 31
0.0
  0
LINE
  5
42A
330
E3
100
AcDbEntity
  8
0
  6
Continuous
100
AcDbLine
 10
148.764844770038
 20
154.6167749870625
 30
0.0
 11
148.7242102106518
 21
154.618401085781
 31
0.0
  0
LINE
  5
42B
330
E3
100
AcDbEntity
  8
0
  6
Continuous
100
AcDbLine
 10
148.7242102106518
 20
154.618401085781
 30
0.0
 11
148.6851587694013
 21
154.6197442289956
 31
0.0
  0
LINE
  5
42C
330
E3
100
AcDbEntity
  8
0
  6
Continuous
100
AcDbLine
 10
148.6851587694013
 20
154.6197442289956
 30
0.0
 11
148.6479805652208
 21
154.6207614361235
 31
0.0
  0
LINE
  5
42D
330
E3
100
AcDbEntity
  8
0
  6
Continuous
100
AcDbLine
 10
148.6479805652208
 20
154.6207614361235
 30
0.0
 11
148.6129549718989
 21
154.6213953997208
 31
0.0
  0
LINE
  5
42E
330
E3
100
AcDbEntity
  8
0
  6
Continuous
100
AcDbLine
 10
148.6129549718989
 20
154.6213953997208
 30
0.0
 11
148.5803362912176
 21
154.6216067209199
 31
0.0
  0
LINE
  5
42F
330
E3
100
AcDbEntity
  8
0
  6
Continuous
100
AcDbLine
 10
148.5803362912176
 20
154.6216067209199
 30
0.0
 11
148.5503680798131
 21
154.6213524191379
 31
0.0
  0
LINE
  5
430
330
E3
100
AcDbEntity
  8
0
  6
Continuous
100
AcDbLine
 10
148.5503680798131
 20
154.6213524191379
 30
0.0
 11
148.523268822315
 21
154.620589513792
 31
0.0
  0
LINE
  5
431
330
E3
100
AcDbEntity
  8
0
  6
Continuous
100
AcDbLine
 10
148.523268822315
 20
154.620589513792
 30
0.0
 11
148.499242676492
 21
154.6192857694451
 31
0.0
  0
LINE
  5
432
330
E3
100
AcDbEntity
  8
0
  6
Continuous
100
AcDbLine
 10
148.499242676492
 20
154.6192857694451
 30
0.0
 11
148.4784579829602
 21
154.6174089506598
 31
0.0
  0
LINE
  5
433
330
E3
100
AcDbEntity
  8
0
  6
Continuous
100
AcDbLine
 10
148.4784579829602
 20
154.6174089506598
 30
0.0
 11
148.4610723371903
 21
154.6149339854297
 31
0.0
  0
LINE
  5
434
330
E3
100
AcDbEntity
  8
0
  6
Continuous
100
AcDbLine
 10
148.4610723371903
 20
154.6149339854297
 30
0.0
 11
148.4472075175002
 21
154.6118393834632
 31
0.0
  0
LINE
  5
435
330
E3
100
AcDbEntity
  8
0
  6
Continuous
100
AcDbLine
 10
148.4472075175002
 20
154.6118393834632
 30
0.0
 11
148.4369638119167
 21
154.608103654469
 31
0.0
  0
LINE
  5
436
330
E3
100
AcDbEntity
  8
0
  6
Continuous
100
AcDbLine
 10
148.4369638119167
 20
154.608103654469
 30
0.0
 11
148.4304078630863
 21
154.6037192665368
 31
0.0
  0
LINE
  5
437
330
E3
100
AcDbEntity
  8
0
  6
Continuous
100
AcDbLine
 10
148.4304078630863
 20
154.6037192665368
 30
0.0
 11
148.4275866325789
 21
154.5986762034061
 31
0.0
  0
LINE
  5
438
330
E3
100
AcDbEntity
  8
0
  6
Continuous
100
AcDbLine
 10
149.3782849221209
 20
154.2315836456832
 30
0.0
 11
149.3754636916136
 21
154.2265405825526
 31
0.0
  0
LINE
  5
439
330
E3
100
AcDbEntity
  8
0
  6
Continuous
100
AcDbLine
 10
149.3754636916136
 20
154.2265405825526
 30
0.0
 11
149.3689092306184
 21
154.2221557886822
 31
0.0
  0
LINE
  5
43A
330
E3
100
AcDbEntity
  8
0
  6
Continuous
100
AcDbLine
 10
149.3689092306184
 20
154.2221557886822
 30
0.0
 11
149.3586645029376
 21
154.2184201998993
 31
0.0
  0
LINE
  5
43B
330
E3
100
AcDbEntity
  8
0
  6
Continuous
100
AcDbLine
 10
149.3586645029376
 20
154.2184201998993
 30
0.0
 11
149.3447996832476
 21
154.2153255979328
 31
0.0
  0
LINE
  5
43C
330
E3
100
AcDbEntity
  8
0
  6
Continuous
100
AcDbLine
 10
149.3447996832476
 20
154.2153255979328
 30
0.0
 11
149.3274140374776
 21
154.2128506327027
 31
0.0
  0
LINE
  5
43D
330
E3
100
AcDbEntity
  8
0
  6
Continuous
100
AcDbLine
 10
149.3274140374776
 20
154.2128506327027
 30
0.0
 11
149.3066293439459
 21
154.2109738139175
 31
0.0
  0
LINE
  5
43E
330
E3
100
AcDbEntity
  8
0
  6
Continuous
100
AcDbLine
 10
149.3066293439459
 20
154.2109738139175
 30
0.0
 11
149.2826031981228
 21
154.2096700695705
 31
0.0
  0
LINE
  5
43F
330
E3
100
AcDbEntity
  8
0
  6
Continuous
100
AcDbLine
 10
149.2826031981228
 20
154.2096700695705
 30
0.0
 11
149.2555039406247
 21
154.2089107459398
 31
0.0
  0
LINE
  5
440
330
E3
100
AcDbEntity
  8
0
  6
Continuous
100
AcDbLine
 10
149.2555039406247
 20
154.2089107459398
 30
0.0
 11
149.2255357292203
 21
154.2086528624426
 31
0.0
  0
LINE
  5
441
330
E3
100
AcDbEntity
  8
0
  6
Continuous
100
AcDbLine
 10
149.2255357292203
 20
154.2086528624426
 30
0.0
 11
149.192917048539
 21
154.2088641836417
 31
0.0
  0
LINE
  5
442
330
E3
100
AcDbEntity
  8
0
  6
Continuous
100
AcDbLine
 10
149.192917048539
 20
154.2088641836417
 30
0.0
 11
149.1578914552171
 21
154.209498147239
 31
0.0
  0
LINE
  5
443
330
E3
100
AcDbEntity
  8
0
  6
Continuous
100
AcDbLine
 10
149.1578914552171
 20
154.209498147239
 30
0.0
 11
149.1207132510365
 21
154.2105153543669
 31
0.0
  0
LINE
  5
444
330
E3
100
AcDbEntity
  8
0
  6
Continuous
100
AcDbLine
 10
149.1207132510365
 20
154.2105153543669
 30
0.0
 11
149.081661809786
 21
154.2118584975815
 31
0.0
  0
LINE
  5
445
330
E3
100
AcDbEntity
  8
0
  6
Continuous
100
AcDbLine
 10
149.081661809786
 20
154.2118584975815
 30
0.0
 11
149.0410272503999
 21
154.2134845963
 31
0.0
  0
LINE
  5
446
330
E3
100
AcDbEntity
  8
0
  6
Continuous
100
AcDbLine
 10
149.0410272503999
 20
154.2134845963
 30
0.0
 11
148.9991140186735
 21
154.2153327613633
 31
0.0
  0
LINE
  5
447
330
E3
100
AcDbEntity
  8
0
  6
Continuous
100
AcDbLine
 10
148.9991140186735
 20
154.2153327613633
 30
0.0
 11
148.956226560402
 21
154.2173564304733
 31
0.0
  0
LINE
  5
448
330
E3
100
AcDbEntity
  8
0
  6
Continuous
100
AcDbLine
 10
148.956226560402
 20
154.2173564304733
 30
0.0
 11
148.9126908116722
 21
154.2194911327558
 31
0.0
  0
LINE
  5
449
330
E3
100
AcDbEntity
  8
0
  6
Continuous
100
AcDbLine
 10
148.9126908116722
 20
154.2194911327558
 30
0.0
 11
148.8688255451406
 21
154.2216867241972
 31
0.0
  0
LINE
  5
44A
330
E3
100
AcDbEntity
  8
0
  6
Continuous
100
AcDbLine
 10
148.8688255451406
 20
154.2216867241972
 30
0.0
 11
148.8249638603241
 21
154.2238787339235
 31
0.0
  0
LINE
  5
44B
330
E3
100
AcDbEntity
  8
0
  6
Continuous
100
AcDbLine
 10
148.8249638603241
 20
154.2238787339235
 30
0.0
 11
148.7814245298792
 21
154.2260170179212
 31
0.0
  0
LINE
  5
44C
330
E3
100
AcDbEntity
  8
0
  6
Continuous
100
AcDbLine
 10
148.7814245298792
 20
154.2260170179212
 30
0.0
 11
148.738540653323
 21
154.2280371053159
 31
0.0
  0
LINE
  5
44D
330
E3
100
AcDbEntity
  8
0
  6
Continuous
100
AcDbLine
 10
148.738540653323
 20
154.2280371053159
 30
0.0
 11
148.6966238398813
 21
154.2298888520945
 31
0.0
  0
LINE
  5
44E
330
E3
100
AcDbEntity
  8
0
  6
Continuous
100
AcDbLine
 10
148.6966238398813
 20
154.2298888520945
 30
0.0
 11
148.6559892804951
 21
154.2315113690977
 31
0.0
  0
LINE
  5
44F
330
E3
100
AcDbEntity
  8
0
  6
Continuous
100
AcDbLine
 10
148.6559892804951
 20
154.2315113690977
 30
0.0
 11
148.6169378392446
 21
154.2328580940276
 31
0.0
  0
LINE
  5
450
330
E3
100
AcDbEntity
  8
0
  6
Continuous
100
AcDbLine
 10
148.6169378392446
 20
154.2328580940276
 30
0.0
 11
148.5797632167794
 21
154.2338717194402
 31
0.0
  0
LINE
  5
451
330
E3
100
AcDbEntity
  8
0
  6
Continuous
100
AcDbLine
 10
148.5797632167794
 20
154.2338717194402
 30
0.0
 11
148.5447340417422
 21
154.2345056830375
 31
0.0
  0
LINE
  5
452
330
E3
100
AcDbEntity
  8
0
  6
Continuous
100
AcDbLine
 10
148.5447340417422
 20
154.2345056830375
 30
0.0
 11
148.5121153610609
 21
154.2347170042366
 31
0.0
  0
LINE
  5
453
330
E3
100
AcDbEntity
  8
0
  6
Continuous
100
AcDbLine
 10
148.5121153610609
 20
154.2347170042366
 30
0.0
 11
148.4821471496564
 21
154.2344627024546
 31
0.0
  0
LINE
  5
454
330
E3
100
AcDbEntity
  8
0
  6
Continuous
100
AcDbLine
 10
148.4821471496564
 20
154.2344627024546
 30
0.0
 11
148.4550514738736
 21
154.2336997971088
 31
0.0
  0
LINE
  5
455
330
E3
100
AcDbEntity
  8
0
  6
Continuous
100
AcDbLine
 10
148.4550514738736
 20
154.2336997971088
 30
0.0
 11
148.4310217463353
 21
154.2323960527618
 31
0.0
  0
LINE
  5
456
330
E3
100
AcDbEntity
  8
0
  6
Continuous
100
AcDbLine
 10
148.4310217463353
 20
154.2323960527618
 30
0.0
 11
148.4102406345188
 21
154.2305192339765
 31
0.0
  0
LINE
  5
457
330
E3
100
AcDbEntity
  8
0
  6
Continuous
100
AcDbLine
 10
148.4102406345188
 20
154.2305192339765
 30
0.0
 11
148.3928549887488
 21
154.2280442687464
 31
0.0
  0
LINE
  5
458
330
E3
100
AcDbEntity
  8
0
  6
Continuous
100
AcDbLine
 10
148.3928549887488
 20
154.2280442687464
 30
0.0
 11
148.3789901690588
 21
154.2249496667799
 31
0.0
  0
LINE
  5
459
330
E3
100
AcDbEntity
  8
0
  6
Continuous
100
AcDbLine
 10
148.3789901690588
 20
154.2249496667799
 30
0.0
 11
148.3687428817601
 21
154.2212139377857
 31
0.0
  0
LINE
  5
45A
330
E3
100
AcDbEntity
  8
0
  6
Continuous
100
AcDbLine
 10
148.3687428817601
 20
154.2212139377857
 30
0.0
 11
148.3621889361457
 21
154.2168305064248
 31
0.0
  0
LINE
  5
45B
330
E3
100
AcDbEntity
  8
0
  6
Continuous
100
AcDbLine
 10
148.3621889361457
 20
154.2168305064248
 30
0.0
 11
148.3593677056384
 21
154.2117874432942
 31
0.0
  0
LINE
  5
45C
330
E3
100
AcDbEntity
  8
0
  6
Continuous
100
AcDbLine
 10
149.3100659951803
 20
153.8446948855713
 30
0.0
 11
149.307244764673
 21
153.8396518224406
 31
0.0
  0
LINE
  5
45D
330
E3
100
AcDbEntity
  8
0
  6
Continuous
100
AcDbLine
 10
149.307244764673
 20
153.8396518224406
 30
0.0
 11
149.3006903036779
 21
153.8352670285702
 31
0.0
  0
LINE
  5
45E
330
E3
100
AcDbEntity
  8
0
  6
Continuous
100
AcDbLine
 10
149.3006903036779
 20
153.8352670285702
 30
0.0
 11
149.2904435727809
 21
153.8315340649312
 31
0.0
  0
LINE
  5
45F
330
E3
100
AcDbEntity
  8
0
  6
Continuous
100
AcDbLine
 10
149.2904435727809
 20
153.8315340649312
 30
0.0
 11
149.2765787530909
 21
153.8284358812495
 31
0.0
  0
LINE
  5
460
330
E3
100
AcDbEntity
  8
0
  6
Continuous
100
AcDbLine
 10
149.2765787530909
 20
153.8284358812495
 30
0.0
 11
149.2591931073209
 21
153.8259609160194
 31
0.0
  0
LINE
  5
461
330
E3
100
AcDbEntity
  8
0
  6
Continuous
100
AcDbLine
 10
149.2591931073209
 20
153.8259609160194
 30
0.0
 11
149.2384119955044
 21
153.8240876789494
 31
0.0
  0
LINE
  5
462
330
E3
100
AcDbEntity
  8
0
  6
Continuous
100
AcDbLine
 10
149.2384119955044
 20
153.8240876789494
 30
0.0
 11
149.2143822679661
 21
153.8227839346024
 31
0.0
  0
LINE
  5
463
330
E3
100
AcDbEntity
  8
0
  6
Continuous
100
AcDbLine
 10
149.2143822679661
 20
153.8227839346024
 30
0.0
 11
149.1872865921833
 21
153.8220210292565
 31
0.0
  0
LINE
  5
464
330
E3
100
AcDbEntity
  8
0
  6
Continuous
100
AcDbLine
 10
149.1872865921833
 20
153.8220210292565
 30
0.0
 11
149.1573183807788
 21
153.8217631457593
 31
0.0
  0
LINE
  5
465
330
E3
100
AcDbEntity
  8
0
  6
Continuous
100
AcDbLine
 10
149.1573183807788
 20
153.8217631457593
 30
0.0
 11
149.1246997000975
 21
153.8219744669584
 31
0.0
  0
LINE
  5
466
330
E3
100
AcDbEntity
  8
0
  6
Continuous
100
AcDbLine
 10
149.1246997000975
 20
153.8219744669584
 30
0.0
 11
149.0896705250603
 21
153.822612012271
 31
0.0
  0
LINE
  5
467
330
E3
100
AcDbEntity
  8
0
  6
Continuous
100
AcDbLine
 10
149.0896705250603
 20
153.822612012271
 30
0.0
 11
149.0524959025951
 21
153.8236256376836
 31
0.0
  0
LINE
  5
468
330
E3
100
AcDbEntity
  8
0
  6
Continuous
100
AcDbLine
 10
149.0524959025951
 20
153.8236256376836
 30
0.0
 11
149.0134444613446
 21
153.8249723626134
 31
0.0
  0
LINE
  5
469
330
E3
100
AcDbEntity
  8
0
  6
Continuous
100
AcDbLine
 10
149.0134444613446
 20
153.8249723626134
 30
0.0
 11
148.9728099019584
 21
153.8265948796167
 31
0.0
  0
LINE
  5
46A
330
E3
100
AcDbEntity
  8
0
  6
Continuous
100
AcDbLine
 10
148.9728099019584
 20
153.8265948796167
 30
0.0
 11
148.9308930885167
 21
153.8284466263952
 31
0.0
  0
LINE
  5
46B
330
E3
100
AcDbEntity
  8
0
  6
Continuous
100
AcDbLine
 10
148.9308930885167
 20
153.8284466263952
 30
0.0
 11
148.8880056302453
 21
153.83046671379
 31
0.0
  0
LINE
  5
46C
330
E3
100
AcDbEntity
  8
0
  6
Continuous
100
AcDbLine
 10
148.8880056302453
 20
153.83046671379
 30
0.0
 11
148.8444698815156
 21
153.8326014160725
 31
0.0
  0
LINE
  5
46D
330
E3
100
AcDbEntity
  8
0
  6
Continuous
100
AcDbLine
 10
148.8444698815156
 20
153.8326014160725
 30
0.0
 11
148.8006081966991
 21
153.834797007514
 31
0.0
  0
LINE
  5
46E
330
E3
100
AcDbEntity
  8
0
  6
Continuous
100
AcDbLine
 10
148.8006081966991
 20
153.834797007514
 30
0.0
 11
148.7567429301674
 21
153.8369890172402
 31
0.0
  0
LINE
  5
46F
330
E3
100
AcDbEntity
  8
0
  6
Continuous
100
AcDbLine
 10
148.7567429301674
 20
153.8369890172402
 30
0.0
 11
148.7132071814377
 21
153.8391273012379
 31
0.0
  0
LINE
  5
470
330
E3
100
AcDbEntity
  8
0
  6
Continuous
100
AcDbLine
 10
148.7132071814377
 20
153.8391273012379
 30
0.0
 11
148.6703197231662
 21
153.8411473886326
 31
0.0
  0
LINE
  5
471
330
E3
100
AcDbEntity
  8
0
  6
Continuous
100
AcDbLine
 10
148.6703197231662
 20
153.8411473886326
 30
0.0
 11
148.6284064914398
 21
153.8429991354112
 31
0.0
  0
LINE
  5
472
330
E3
100
AcDbEntity
  8
0
  6
Continuous
100
AcDbLine
 10
148.6284064914398
 20
153.8429991354112
 30
0.0
 11
148.5877719320537
 21
153.8446216524144
 31
0.0
  0
LINE
  5
473
330
E3
100
AcDbEntity
  8
0
  6
Continuous
100
AcDbLine
 10
148.5877719320537
 20
153.8446216524144
 30
0.0
 11
148.5487204908031
 21
153.8459683773443
 31
0.0
  0
LINE
  5
474
330
E3
100
AcDbEntity
  8
0
  6
Continuous
100
AcDbLine
 10
148.5487204908031
 20
153.8459683773443
 30
0.0
 11
148.5115422866226
 21
153.8469820027569
 31
0.0
  0
LINE
  5
475
330
E3
100
AcDbEntity
  8
0
  6
Continuous
100
AcDbLine
 10
148.5115422866226
 20
153.8469820027569
 30
0.0
 11
148.4765166933007
 21
153.8476195480695
 31
0.0
  0
LINE
  5
476
330
E3
100
AcDbEntity
  8
0
  6
Continuous
100
AcDbLine
 10
148.4765166933007
 20
153.8476195480695
 30
0.0
 11
148.4438980126194
 21
153.8478308692686
 31
0.0
  0
LINE
  5
477
330
E3
100
AcDbEntity
  8
0
  6
Continuous
100
AcDbLine
 10
148.4438980126194
 20
153.8478308692686
 30
0.0
 11
148.4139298012149
 21
153.8475729857713
 31
0.0
  0
LINE
  5
478
330
E3
100
AcDbEntity
  8
0
  6
Continuous
100
AcDbLine
 10
148.4139298012149
 20
153.8475729857713
 30
0.0
 11
148.3868305437169
 21
153.8468100804255
 31
0.0
  0
LINE
  5
479
330
E3
100
AcDbEntity
  8
0
  6
Continuous
100
AcDbLine
 10
148.3868305437169
 20
153.8468100804255
 30
0.0
 11
148.3628043978939
 21
153.8455063360785
 31
0.0
  0
LINE
  5
47A
330
E3
100
AcDbEntity
  8
0
  6
Continuous
100
AcDbLine
 10
148.3628043978939
 20
153.8455063360785
 30
0.0
 11
148.3420197043621
 21
153.8436295172932
 31
0.0
  0
LINE
  5
47B
330
E3
100
AcDbEntity
  8
0
  6
Continuous
100
AcDbLine
 10
148.3420197043621
 20
153.8436295172932
 30
0.0
 11
148.3246340585921
 21
153.8411581337784
 31
0.0
  0
LINE
  5
47C
330
E3
100
AcDbEntity
  8
0
  6
Continuous
100
AcDbLine
 10
148.3246340585921
 20
153.8411581337784
 30
0.0
 11
148.3107692389021
 21
153.8380599500966
 31
0.0
  0
LINE
  5
47D
330
E3
100
AcDbEntity
  8
0
  6
Continuous
100
AcDbLine
 10
148.3107692389021
 20
153.8380599500966
 30
0.0
 11
148.3005255333186
 21
153.8343278028176
 31
0.0
  0
LINE
  5
47E
330
E3
100
AcDbEntity
  8
0
  6
Continuous
100
AcDbLine
 10
148.3005255333186
 20
153.8343278028176
 30
0.0
 11
148.2939700092051
 21
153.8299417463129
 31
0.0
  0
LINE
  5
47F
330
E3
100
AcDbEntity
  8
0
  6
Continuous
100
AcDbLine
 10
148.2939700092051
 20
153.8299417463129
 30
0.0
 11
148.2911487786978
 21
153.8248986831823
 31
0.0
  0
LINE
  5
480
330
E3
100
AcDbEntity
  8
0
  6
Continuous
100
AcDbLine
 10
149.2418470682397
 20
153.4578061254593
 30
0.0
 11
149.2390258377324
 21
153.4527630623287
 31
0.0
  0
LINE
  5
481
330
E3
100
AcDbEntity
  8
0
  6
Continuous
100
AcDbLine
 10
149.2390258377324
 20
153.4527630623287
 30
0.0
 11
149.2324713767373
 21
153.4483782684582
 31
0.0
  0
LINE
  5
482
330
E3
100
AcDbEntity
  8
0
  6
Continuous
100
AcDbLine
 10
149.2324713767373
 20
153.4483782684582
 30
0.0
 11
149.2222262243395
 21
153.4446443482479
 31
0.0
  0
LINE
  5
483
330
E3
100
AcDbEntity
  8
0
  6
Continuous
100
AcDbLine
 10
149.2222262243395
 20
153.4446443482479
 30
0.0
 11
149.2083614046494
 21
153.4415497462815
 31
0.0
  0
LINE
  5
484
330
E3
100
AcDbEntity
  8
0
  6
Continuous
100
AcDbLine
 10
149.2083614046494
 20
153.4415497462815
 30
0.0
 11
149.1909757588795
 21
153.4390747810513
 31
0.0
  0
LINE
  5
485
330
E3
100
AcDbEntity
  8
0
  6
Continuous
100
AcDbLine
 10
149.1909757588795
 20
153.4390747810513
 30
0.0
 11
149.1701910653477
 21
153.4371979622661
 31
0.0
  0
LINE
  5
486
330
E3
100
AcDbEntity
  8
0
  6
Continuous
100
AcDbLine
 10
149.1701910653477
 20
153.4371979622661
 30
0.0
 11
149.1461649195246
 21
153.4358942179191
 31
0.0
  0
LINE
  5
487
330
E3
100
AcDbEntity
  8
0
  6
Continuous
100
AcDbLine
 10
149.1461649195246
 20
153.4358942179191
 30
0.0
 11
149.1190656620266
 21
153.4351313125732
 31
0.0
  0
LINE
  5
488
330
E3
100
AcDbEntity
  8
0
  6
Continuous
100
AcDbLine
 10
149.1190656620266
 20
153.4351313125732
 30
0.0
 11
149.0890974506221
 21
153.434873429076
 31
0.0
  0
LINE
  5
489
330
E3
100
AcDbEntity
  8
0
  6
Continuous
100
AcDbLine
 10
149.0890974506221
 20
153.434873429076
 30
0.0
 11
149.0564787699408
 21
153.4350847502751
 31
0.0
  0
LINE
  5
48A
330
E3
100
AcDbEntity
  8
0
  6
Continuous
100
AcDbLine
 10
149.0564787699408
 20
153.4350847502751
 30
0.0
 11
149.0214531766189
 21
153.4357222955877
 31
0.0
  0
LINE
  5
48B
330
E3
100
AcDbEntity
  8
0
  6
Continuous
100
AcDbLine
 10
149.0214531766189
 20
153.4357222955877
 30
0.0
 11
148.9842749724384
 21
153.4367359210003
 31
0.0
  0
LINE
  5
48C
330
E3
100
AcDbEntity
  8
0
  6
Continuous
100
AcDbLine
 10
148.9842749724384
 20
153.4367359210003
 30
0.0
 11
148.9452235311878
 21
153.4380826459301
 31
0.0
  0
LINE
  5
48D
330
E3
100
AcDbEntity
  8
0
  6
Continuous
100
AcDbLine
 10
148.9452235311878
 20
153.4380826459301
 30
0.0
 11
148.9045889718017
 21
153.4397051629334
 31
0.0
  0
LINE
  5
48E
330
E3
100
AcDbEntity
  8
0
  6
Continuous
100
AcDbLine
 10
148.9045889718017
 20
153.4397051629334
 30
0.0
 11
148.8626757400753
 21
153.4415569097119
 31
0.0
  0
LINE
  5
48F
330
E3
100
AcDbEntity
  8
0
  6
Continuous
100
AcDbLine
 10
148.8626757400753
 20
153.4415569097119
 30
0.0
 11
148.8197882818038
 21
153.4435769971067
 31
0.0
  0
LINE
  5
490
330
E3
100
AcDbEntity
  8
0
  6
Continuous
100
AcDbLine
 10
148.8197882818038
 20
153.4435769971067
 30
0.0
 11
148.7762525330741
 21
153.4457152811044
 31
0.0
  0
LINE
  5
491
330
E3
100
AcDbEntity
  8
0
  6
Continuous
100
AcDbLine
 10
148.7762525330741
 20
153.4457152811044
 30
0.0
 11
148.7323872665424
 21
153.4479072908306
 31
0.0
  0
LINE
  5
492
330
E3
100
AcDbEntity
  8
0
  6
Continuous
100
AcDbLine
 10
148.7323872665424
 20
153.4479072908306
 30
0.0
 11
148.688525581726
 21
153.4501028822721
 31
0.0
  0
LINE
  5
493
330
E3
100
AcDbEntity
  8
0
  6
Continuous
100
AcDbLine
 10
148.688525581726
 20
153.4501028822721
 30
0.0
 11
148.6449898329962
 21
153.4522375845546
 31
0.0
  0
LINE
  5
494
330
E3
100
AcDbEntity
  8
0
  6
Continuous
100
AcDbLine
 10
148.6449898329962
 20
153.4522375845546
 30
0.0
 11
148.6021023747248
 21
153.4542576719493
 31
0.0
  0
LINE
  5
495
330
E3
100
AcDbEntity
  8
0
  6
Continuous
100
AcDbLine
 10
148.6021023747248
 20
153.4542576719493
 30
0.0
 11
148.5601855612831
 21
153.4561094187279
 31
0.0
  0
LINE
  5
496
330
E3
100
AcDbEntity
  8
0
  6
Continuous
100
AcDbLine
 10
148.5601855612831
 20
153.4561094187279
 30
0.0
 11
148.519551001897
 21
153.4577355174464
 31
0.0
  0
LINE
  5
497
330
E3
100
AcDbEntity
  8
0
  6
Continuous
100
AcDbLine
 10
148.519551001897
 20
153.4577355174464
 30
0.0
 11
148.4805031423617
 21
153.459078660661
 31
0.0
  0
LINE
  5
498
330
E3
100
AcDbEntity
  8
0
  6
Continuous
100
AcDbLine
 10
148.4805031423617
 20
153.459078660661
 30
0.0
 11
148.4433249381811
 21
153.4600958677889
 31
0.0
  0
LINE
  5
499
330
E3
100
AcDbEntity
  8
0
  6
Continuous
100
AcDbLine
 10
148.4433249381811
 20
153.4600958677889
 30
0.0
 11
148.408295763144
 21
153.4607298313862
 31
0.0
  0
LINE
  5
49A
330
E3
100
AcDbEntity
  8
0
  6
Continuous
100
AcDbLine
 10
148.408295763144
 20
153.4607298313862
 30
0.0
 11
148.3756806641779
 21
153.4609411525853
 31
0.0
  0
LINE
  5
49B
330
E3
100
AcDbEntity
  8
0
  6
Continuous
100
AcDbLine
 10
148.3756806641779
 20
153.4609411525853
 30
0.0
 11
148.3457088710582
 21
153.460683269088
 31
0.0
  0
LINE
  5
49C
330
E3
100
AcDbEntity
  8
0
  6
Continuous
100
AcDbLine
 10
148.3457088710582
 20
153.460683269088
 30
0.0
 11
148.3186131952754
 21
153.4599203637422
 31
0.0
  0
LINE
  5
49D
330
E3
100
AcDbEntity
  8
0
  6
Continuous
100
AcDbLine
 10
148.3186131952754
 20
153.4599203637422
 30
0.0
 11
148.2945834677371
 21
153.4586202011104
 31
0.0
  0
LINE
  5
49E
330
E3
100
AcDbEntity
  8
0
  6
Continuous
100
AcDbLine
 10
148.2945834677371
 20
153.4586202011104
 30
0.0
 11
148.2738023559206
 21
153.4567433823252
 31
0.0
  0
LINE
  5
49F
330
E3
100
AcDbEntity
  8
0
  6
Continuous
100
AcDbLine
 10
148.2738023559206
 20
153.4567433823252
 30
0.0
 11
148.2564167101506
 21
153.4542684170951
 31
0.0
  0
LINE
  5
4A0
330
E3
100
AcDbEntity
  8
0
  6
Continuous
100
AcDbLine
 10
148.2564167101506
 20
153.4542684170951
 30
0.0
 11
148.2425518904606
 21
153.4511702334134
 31
0.0
  0
LINE
  5
4A1
330
E3
100
AcDbEntity
  8
0
  6
Continuous
100
AcDbLine
 10
148.2425518904606
 20
153.4511702334134
 30
0.0
 11
148.2323046031619
 21
153.4474380861343
 31
0.0
  0
LINE
  5
4A2
330
E3
100
AcDbEntity
  8
0
  6
Continuous
100
AcDbLine
 10
148.2323046031619
 20
153.4474380861343
 30
0.0
 11
148.2257510822645
 21
153.4430529862009
 31
0.0
  0
LINE
  5
4A3
330
E3
100
AcDbEntity
  8
0
  6
Continuous
100
AcDbLine
 10
148.2257510822645
 20
153.4430529862009
 30
0.0
 11
148.2229298517572
 21
153.4380099230703
 31
0.0
  0
LINE
  5
4A4
330
E3
100
AcDbEntity
  8
0
  6
Continuous
100
AcDbLine
 10
149.1736281412991
 20
153.0709173653474
 30
0.0
 11
149.1708069107918
 21
153.0658743022167
 31
0.0
  0
LINE
  5
4A5
330
E3
100
AcDbEntity
  8
0
  6
Continuous
100
AcDbLine
 10
149.1708069107918
 20
153.0658743022167
 30
0.0
 11
149.1642524497967
 21
153.0614895083464
 31
0.0
  0
LINE
  5
4A6
330
E3
100
AcDbEntity
  8
0
  6
Continuous
100
AcDbLine
 10
149.1642524497967
 20
153.0614895083464
 30
0.0
 11
149.154008875898
 21
153.0577546315646
 31
0.0
  0
LINE
  5
4A7
330
E3
100
AcDbEntity
  8
0
  6
Continuous
100
AcDbLine
 10
149.154008875898
 20
153.0577546315646
 30
0.0
 11
149.140144056208
 21
153.0546600295982
 31
0.0
  0
LINE
  5
4A8
330
E3
100
AcDbEntity
  8
0
  6
Continuous
100
AcDbLine
 10
149.140144056208
 20
153.0546600295982
 30
0.0
 11
149.1227548287227
 21
153.052185064368
 31
0.0
  0
LINE
  5
4A9
330
E3
100
AcDbEntity
  8
0
  6
Continuous
100
AcDbLine
 10
149.1227548287227
 20
153.052185064368
 30
0.0
 11
149.1019737169063
 21
153.0503082455828
 31
0.0
  0
LINE
  5
4AA
330
E3
100
AcDbEntity
  8
0
  6
Continuous
100
AcDbLine
 10
149.1019737169063
 20
153.0503082455828
 30
0.0
 11
149.077943989368
 21
153.0490045012359
 31
0.0
  0
LINE
  5
4AB
330
E3
100
AcDbEntity
  8
0
  6
Continuous
100
AcDbLine
 10
149.077943989368
 20
153.0490045012359
 30
0.0
 11
149.0508483135851
 21
153.0482415958899
 31
0.0
  0
LINE
  5
4AC
330
E3
100
AcDbEntity
  8
0
  6
Continuous
100
AcDbLine
 10
149.0508483135851
 20
153.0482415958899
 30
0.0
 11
149.0208801021807
 21
153.047987294108
 31
0.0
  0
LINE
  5
4AD
330
E3
100
AcDbEntity
  8
0
  6
Continuous
100
AcDbLine
 10
149.0208801021807
 20
153.047987294108
 30
0.0
 11
148.9882614214993
 21
153.0481986153071
 31
0.0
  0
LINE
  5
4AE
330
E3
100
AcDbEntity
  8
0
  6
Continuous
100
AcDbLine
 10
148.9882614214993
 20
153.0481986153071
 30
0.0
 11
148.9532322464622
 21
153.0488325789044
 31
0.0
  0
LINE
  5
4AF
330
E3
100
AcDbEntity
  8
0
  6
Continuous
100
AcDbLine
 10
148.9532322464622
 20
153.0488325789044
 30
0.0
 11
148.9160576239969
 21
153.049846204317
 31
0.0
  0
LINE
  5
4B0
330
E3
100
AcDbEntity
  8
0
  6
Continuous
100
AcDbLine
 10
148.9160576239969
 20
153.049846204317
 30
0.0
 11
148.8770061827464
 21
153.0511929292468
 31
0.0
  0
LINE
  5
4B1
330
E3
100
AcDbEntity
  8
0
  6
Continuous
100
AcDbLine
 10
148.8770061827464
 20
153.0511929292468
 30
0.0
 11
148.8363716233603
 21
153.0528190279653
 31
0.0
  0
LINE
  5
4B2
330
E3
100
AcDbEntity
  8
0
  6
Continuous
100
AcDbLine
 10
148.8363716233603
 20
153.0528190279653
 30
0.0
 11
148.7944548099185
 21
153.0546671930286
 31
0.0
  0
LINE
  5
4B3
330
E3
100
AcDbEntity
  8
0
  6
Continuous
100
AcDbLine
 10
148.7944548099185
 20
153.0546671930286
 30
0.0
 11
148.7515709333623
 21
153.0566908621387
 31
0.0
  0
LINE
  5
4B4
330
E3
100
AcDbEntity
  8
0
  6
Continuous
100
AcDbLine
 10
148.7515709333623
 20
153.0566908621387
 30
0.0
 11
148.7080316029174
 21
153.0588255644211
 31
0.0
  0
LINE
  5
4B5
330
E3
100
AcDbEntity
  8
0
  6
Continuous
100
AcDbLine
 10
148.7080316029174
 20
153.0588255644211
 30
0.0
 11
148.664169918101
 21
153.0610175741473
 31
0.0
  0
LINE
  5
4B6
330
E3
100
AcDbEntity
  8
0
  6
Continuous
100
AcDbLine
 10
148.664169918101
 20
153.0610175741473
 30
0.0
 11
148.6203046515693
 21
153.0632131655888
 31
0.0
  0
LINE
  5
4B7
330
E3
100
AcDbEntity
  8
0
  6
Continuous
100
AcDbLine
 10
148.6203046515693
 20
153.0632131655888
 30
0.0
 11
148.5767689028395
 21
153.0653478678712
 31
0.0
  0
LINE
  5
4B8
330
E3
100
AcDbEntity
  8
0
  6
Continuous
100
AcDbLine
 10
148.5767689028395
 20
153.0653478678712
 30
0.0
 11
148.5338850262833
 21
153.0673715369813
 31
0.0
  0
LINE
  5
4B9
330
E3
100
AcDbEntity
  8
0
  6
Continuous
100
AcDbLine
 10
148.5338850262833
 20
153.0673715369813
 30
0.0
 11
148.4919682128417
 21
153.0692197020446
 31
0.0
  0
LINE
  5
4BA
330
E3
100
AcDbEntity
  8
0
  6
Continuous
100
AcDbLine
 10
148.4919682128417
 20
153.0692197020446
 30
0.0
 11
148.4513336534555
 21
153.0708458007631
 31
0.0
  0
LINE
  5
4BB
330
E3
100
AcDbEntity
  8
0
  6
Continuous
100
AcDbLine
 10
148.4513336534555
 20
153.0708458007631
 30
0.0
 11
148.412282212205
 21
153.0721889439777
 31
0.0
  0
LINE
  5
4BC
330
E3
100
AcDbEntity
  8
0
  6
Continuous
100
AcDbLine
 10
148.412282212205
 20
153.0721889439777
 30
0.0
 11
148.3751075897397
 21
153.0732061511056
 31
0.0
  0
LINE
  5
4BD
330
E3
100
AcDbEntity
  8
0
  6
Continuous
100
AcDbLine
 10
148.3751075897397
 20
153.0732061511056
 30
0.0
 11
148.3400784147025
 21
153.0738401147029
 31
0.0
  0
LINE
  5
4BE
330
E3
100
AcDbEntity
  8
0
  6
Continuous
100
AcDbLine
 10
148.3400784147025
 20
153.0738401147029
 30
0.0
 11
148.3074597340212
 21
153.074051435902
 31
0.0
  0
LINE
  5
4BF
330
E3
100
AcDbEntity
  8
0
  6
Continuous
100
AcDbLine
 10
148.3074597340212
 20
153.074051435902
 30
0.0
 11
148.2774915226168
 21
153.07379713412
 31
0.0
  0
LINE
  5
4C0
330
E3
100
AcDbEntity
  8
0
  6
Continuous
100
AcDbLine
 10
148.2774915226168
 20
153.07379713412
 30
0.0
 11
148.2503922651187
 21
153.0730342287741
 31
0.0
  0
LINE
  5
4C1
330
E3
100
AcDbEntity
  8
0
  6
Continuous
100
AcDbLine
 10
148.2503922651187
 20
153.0730342287741
 30
0.0
 11
148.2263661192957
 21
153.0717304844271
 31
0.0
  0
LINE
  5
4C2
330
E3
100
AcDbEntity
  8
0
  6
Continuous
100
AcDbLine
 10
148.2263661192957
 20
153.0717304844271
 30
0.0
 11
148.2055814257639
 21
153.0698536656419
 31
0.0
  0
LINE
  5
4C3
330
E3
100
AcDbEntity
  8
0
  6
Continuous
100
AcDbLine
 10
148.2055814257639
 20
153.0698536656419
 30
0.0
 11
148.1881957799939
 21
153.0673787004117
 31
0.0
  0
LINE
  5
4C4
330
E3
100
AcDbEntity
  8
0
  6
Continuous
100
AcDbLine
 10
148.1881957799939
 20
153.0673787004117
 30
0.0
 11
148.1743309603038
 21
153.0642840984453
 31
0.0
  0
LINE
  5
4C5
330
E3
100
AcDbEntity
  8
0
  6
Continuous
100
AcDbLine
 10
148.1743309603038
 20
153.0642840984453
 30
0.0
 11
148.1640872547204
 21
153.0605483694511
 31
0.0
  0
LINE
  5
4C6
330
E3
100
AcDbEntity
  8
0
  6
Continuous
100
AcDbLine
 10
148.1640872547204
 20
153.0605483694511
 30
0.0
 11
148.1575321553239
 21
153.056164226089
 31
0.0
  0
LINE
  5
4C7
330
E3
100
AcDbEntity
  8
0
  6
Continuous
100
AcDbLine
 10
148.1575321553239
 20
153.056164226089
 30
0.0
 11
148.1547109248166
 21
153.0511211629584
 31
0.0
  0
LINE
  5
4C8
330
E3
100
AcDbEntity
  8
0
  6
Continuous
100
AcDbLine
 10
149.1054092143586
 20
152.6840286052355
 30
0.0
 11
149.1025879838512
 21
152.6789855421048
 31
0.0
  0
LINE
  5
4C9
330
E3
100
AcDbEntity
  8
0
  6
Continuous
100
AcDbLine
 10
149.1025879838512
 20
152.6789855421048
 30
0.0
 11
149.0960335228561
 21
152.6746007482344
 31
0.0
  0
LINE
  5
4CA
330
E3
100
AcDbEntity
  8
0
  6
Continuous
100
AcDbLine
 10
149.0960335228561
 20
152.6746007482344
 30
0.0
 11
149.0857879457413
 21
152.6708649148813
 31
0.0
  0
LINE
  5
4CB
330
E3
100
AcDbEntity
  8
0
  6
Continuous
100
AcDbLine
 10
149.0857879457413
 20
152.6708649148813
 30
0.0
 11
149.0719231260513
 21
152.6677703129149
 31
0.0
  0
LINE
  5
4CC
330
E3
100
AcDbEntity
  8
0
  6
Continuous
100
AcDbLine
 10
149.0719231260513
 20
152.6677703129149
 30
0.0
 11
149.0545374802813
 21
152.6652953476847
 31
0.0
  0
LINE
  5
4CD
330
E3
100
AcDbEntity
  8
0
  6
Continuous
100
AcDbLine
 10
149.0545374802813
 20
152.6652953476847
 30
0.0
 11
149.0337563684648
 21
152.6634185288995
 31
0.0
  0
LINE
  5
4CE
330
E3
100
AcDbEntity
  8
0
  6
Continuous
100
AcDbLine
 10
149.0337563684648
 20
152.6634185288995
 30
0.0
 11
149.0097266409265
 21
152.6621147845526
 31
0.0
  0
LINE
  5
4CF
330
E3
100
AcDbEntity
  8
0
  6
Continuous
100
AcDbLine
 10
149.0097266409265
 20
152.6621147845526
 30
0.0
 11
148.9826273834284
 21
152.6613554609219
 31
0.0
  0
LINE
  5
4D0
330
E3
100
AcDbEntity
  8
0
  6
Continuous
100
AcDbLine
 10
148.9826273834284
 20
152.6613554609219
 30
0.0
 11
148.952659172024
 21
152.6610975774247
 31
0.0
  0
LINE
  5
4D1
330
E3
100
AcDbEntity
  8
0
  6
Continuous
100
AcDbLine
 10
148.952659172024
 20
152.6610975774247
 30
0.0
 11
148.9200404913427
 21
152.6613088986238
 31
0.0
  0
LINE
  5
4D2
330
E3
100
AcDbEntity
  8
0
  6
Continuous
100
AcDbLine
 10
148.9200404913427
 20
152.6613088986238
 30
0.0
 11
148.8850148980207
 21
152.6619428622211
 31
0.0
  0
LINE
  5
4D3
330
E3
100
AcDbEntity
  8
0
  6
Continuous
100
AcDbLine
 10
148.8850148980207
 20
152.6619428622211
 30
0.0
 11
148.8478366938402
 21
152.6629600693489
 31
0.0
  0
LINE
  5
4D4
330
E3
100
AcDbEntity
  8
0
  6
Continuous
100
AcDbLine
 10
148.8478366938402
 20
152.6629600693489
 30
0.0
 11
148.8087852525897
 21
152.6643032125635
 31
0.0
  0
LINE
  5
4D5
330
E3
100
AcDbEntity
  8
0
  6
Continuous
100
AcDbLine
 10
148.8087852525897
 20
152.6643032125635
 30
0.0
 11
148.7681542749188
 21
152.665929311282
 31
0.0
  0
LINE
  5
4D6
330
E3
100
AcDbEntity
  8
0
  6
Continuous
100
AcDbLine
 10
148.7681542749188
 20
152.665929311282
 30
0.0
 11
148.7262374614771
 21
152.6677774763453
 31
0.0
  0
LINE
  5
4D7
330
E3
100
AcDbEntity
  8
0
  6
Continuous
100
AcDbLine
 10
148.7262374614771
 20
152.6677774763453
 30
0.0
 11
148.6833500032056
 21
152.6698011454554
 31
0.0
  0
LINE
  5
4D8
330
E3
100
AcDbEntity
  8
0
  6
Continuous
100
AcDbLine
 10
148.6833500032056
 20
152.6698011454554
 30
0.0
 11
148.6398142544759
 21
152.6719358477378
 31
0.0
  0
LINE
  5
4D9
330
E3
100
AcDbEntity
  8
0
  6
Continuous
100
AcDbLine
 10
148.6398142544759
 20
152.6719358477378
 30
0.0
 11
148.5959489879442
 21
152.6741314391793
 31
0.0
  0
LINE
  5
4DA
330
E3
100
AcDbEntity
  8
0
  6
Continuous
100
AcDbLine
 10
148.5959489879442
 20
152.6741314391793
 30
0.0
 11
148.5520873031278
 21
152.6763234489055
 31
0.0
  0
LINE
  5
4DB
330
E3
100
AcDbEntity
  8
0
  6
Continuous
100
AcDbLine
 10
148.5520873031278
 20
152.6763234489055
 30
0.0
 11
148.5085515543981
 21
152.6784617329032
 31
0.0
  0
LINE
  5
4DC
330
E3
100
AcDbEntity
  8
0
  6
Continuous
100
AcDbLine
 10
148.5085515543981
 20
152.6784617329032
 30
0.0
 11
148.4656640961266
 21
152.680481820298
 31
0.0
  0
LINE
  5
4DD
330
E3
100
AcDbEntity
  8
0
  6
Continuous
100
AcDbLine
 10
148.4656640961266
 20
152.680481820298
 30
0.0
 11
148.423747282685
 21
152.6823335670765
 31
0.0
  0
LINE
  5
4DE
330
E3
100
AcDbEntity
  8
0
  6
Continuous
100
AcDbLine
 10
148.423747282685
 20
152.6823335670765
 30
0.0
 11
148.3831127232988
 21
152.6839560840798
 31
0.0
  0
LINE
  5
4DF
330
E3
100
AcDbEntity
  8
0
  6
Continuous
100
AcDbLine
 10
148.3831127232988
 20
152.6839560840798
 30
0.0
 11
148.3440648637635
 21
152.6853028090096
 31
0.0
  0
LINE
  5
4E0
330
E3
100
AcDbEntity
  8
0
  6
Continuous
100
AcDbLine
 10
148.3440648637635
 20
152.6853028090096
 30
0.0
 11
148.306886659583
 21
152.6863164344223
 31
0.0
  0
LINE
  5
4E1
330
E3
100
AcDbEntity
  8
0
  6
Continuous
100
AcDbLine
 10
148.306886659583
 20
152.6863164344223
 30
0.0
 11
148.2718610662611
 21
152.6869539797348
 31
0.0
  0
LINE
  5
4E2
330
E3
100
AcDbEntity
  8
0
  6
Continuous
100
AcDbLine
 10
148.2718610662611
 20
152.6869539797348
 30
0.0
 11
148.2392423855798
 21
152.6871617192186
 31
0.0
  0
LINE
  5
4E3
330
E3
100
AcDbEntity
  8
0
  6
Continuous
100
AcDbLine
 10
148.2392423855798
 20
152.6871617192186
 30
0.0
 11
148.2092741741753
 21
152.6869074174367
 31
0.0
  0
LINE
  5
4E4
330
E3
100
AcDbEntity
  8
0
  6
Continuous
100
AcDbLine
 10
148.2092741741753
 20
152.6869074174367
 30
0.0
 11
148.1821749166772
 21
152.6861445120908
 31
0.0
  0
LINE
  5
4E5
330
E3
100
AcDbEntity
  8
0
  6
Continuous
100
AcDbLine
 10
148.1821749166772
 20
152.6861445120908
 30
0.0
 11
148.158145189139
 21
152.6848407677438
 31
0.0
  0
LINE
  5
4E6
330
E3
100
AcDbEntity
  8
0
  6
Continuous
100
AcDbLine
 10
148.158145189139
 20
152.6848407677438
 30
0.0
 11
148.1373640773224
 21
152.6829639489586
 31
0.0
  0
LINE
  5
4E7
330
E3
100
AcDbEntity
  8
0
  6
Continuous
100
AcDbLine
 10
148.1373640773224
 20
152.6829639489586
 30
0.0
 11
148.1199784315525
 21
152.6804889837285
 31
0.0
  0
LINE
  5
4E8
330
E3
100
AcDbEntity
  8
0
  6
Continuous
100
AcDbLine
 10
148.1199784315525
 20
152.6804889837285
 30
0.0
 11
148.1061136118624
 21
152.677394381762
 31
0.0
  0
LINE
  5
4E9
330
E3
100
AcDbEntity
  8
0
  6
Continuous
100
AcDbLine
 10
148.1061136118624
 20
152.677394381762
 30
0.0
 11
148.0958663245637
 21
152.6736586527678
 31
0.0
  0
LINE
  5
4EA
330
E3
100
AcDbEntity
  8
0
  6
Continuous
100
AcDbLine
 10
148.0958663245637
 20
152.6736586527678
 30
0.0
 11
148.0893132283833
 21
152.6692754659771
 31
0.0
  0
LINE
  5
4EB
330
E3
100
AcDbEntity
  8
0
  6
Continuous
100
AcDbLine
 10
148.0893132283833
 20
152.6692754659771
 30
0.0
 11
148.086491997876
 21
152.6642324028464
 31
0.0
  0
LINE
  5
4EC
330
E3
100
AcDbEntity
  8
0
  6
Continuous
100
AcDbLine
 10
149.037190287418
 20
152.2971398451235
 30
0.0
 11
149.0343690569106
 21
152.2920967819929
 31
0.0
  0
LINE
  5
4ED
330
E3
100
AcDbEntity
  8
0
  6
Continuous
100
AcDbLine
 10
149.0343690569106
 20
152.2920967819929
 30
0.0
 11
149.0278145959155
 21
152.2877119881225
 31
0.0
  0
LINE
  5
4EE
330
E3
100
AcDbEntity
  8
0
  6
Continuous
100
AcDbLine
 10
149.0278145959155
 20
152.2877119881225
 30
0.0
 11
149.0175705972999
 21
152.2839787799133
 31
0.0
  0
LINE
  5
4EF
330
E3
100
AcDbEntity
  8
0
  6
Continuous
100
AcDbLine
 10
149.0175705972999
 20
152.2839787799133
 30
0.0
 11
149.0037057776098
 21
152.2808805962316
 31
0.0
  0
LINE
  5
4F0
330
E3
100
AcDbEntity
  8
0
  6
Continuous
100
AcDbLine
 10
149.0037057776098
 20
152.2808805962316
 30
0.0
 11
148.9863201318398
 21
152.2784056310014
 31
0.0
  0
LINE
  5
4F1
330
E3
100
AcDbEntity
  8
0
  6
Continuous
100
AcDbLine
 10
148.9863201318398
 20
152.2784056310014
 30
0.0
 11
148.9655354383081
 21
152.2765323939315
 31
0.0
  0
LINE
  5
4F2
330
E3
100
AcDbEntity
  8
0
  6
Continuous
100
AcDbLine
 10
148.9655354383081
 20
152.2765323939315
 30
0.0
 11
148.941509292485
 21
152.2752286495845
 31
0.0
  0
LINE
  5
4F3
330
E3
100
AcDbEntity
  8
0
  6
Continuous
100
AcDbLine
 10
148.941509292485
 20
152.2752286495845
 30
0.0
 11
148.914410034987
 21
152.2744657442386
 31
0.0
  0
LINE
  5
4F4
330
E3
100
AcDbEntity
  8
0
  6
Continuous
100
AcDbLine
 10
148.914410034987
 20
152.2744657442386
 30
0.0
 11
148.8844418235825
 21
152.2742078607414
 31
0.0
  0
LINE
  5
4F5
330
E3
100
AcDbEntity
  8
0
  6
Continuous
100
AcDbLine
 10
148.8844418235825
 20
152.2742078607414
 30
0.0
 11
148.8518231429012
 21
152.2744191819405
 31
0.0
  0
LINE
  5
4F6
330
E3
100
AcDbEntity
  8
0
  6
Continuous
100
AcDbLine
 10
148.8518231429012
 20
152.2744191819405
 30
0.0
 11
148.816793967864
 21
152.275056727253
 31
0.0
  0
LINE
  5
4F7
330
E3
100
AcDbEntity
  8
0
  6
Continuous
100
AcDbLine
 10
148.816793967864
 20
152.275056727253
 30
0.0
 11
148.7796193453987
 21
152.2760703526656
 31
0.0
  0
LINE
  5
4F8
330
E3
100
AcDbEntity
  8
0
  6
Continuous
100
AcDbLine
 10
148.7796193453987
 20
152.2760703526656
 30
0.0
 11
148.7405679041482
 21
152.2774170775955
 31
0.0
  0
LINE
  5
4F9
330
E3
100
AcDbEntity
  8
0
  6
Continuous
100
AcDbLine
 10
148.7405679041482
 20
152.2774170775955
 30
0.0
 11
148.6999333447621
 21
152.2790395945987
 31
0.0
  0
LINE
  5
4FA
330
E3
100
AcDbEntity
  8
0
  6
Continuous
100
AcDbLine
 10
148.6999333447621
 20
152.2790395945987
 30
0.0
 11
148.6580165313204
 21
152.2808913413773
 31
0.0
  0
LINE
  5
4FB
330
E3
100
AcDbEntity
  8
0
  6
Continuous
100
AcDbLine
 10
148.6580165313204
 20
152.2808913413773
 30
0.0
 11
148.6151326547642
 21
152.2829114287721
 31
0.0
  0
LINE
  5
4FC
330
E3
100
AcDbEntity
  8
0
  6
Continuous
100
AcDbLine
 10
148.6151326547642
 20
152.2829114287721
 30
0.0
 11
148.5715933243193
 21
152.2850497127697
 31
0.0
  0
LINE
  5
4FD
330
E3
100
AcDbEntity
  8
0
  6
Continuous
100
AcDbLine
 10
148.5715933243193
 20
152.2850497127697
 30
0.0
 11
148.5277316395028
 21
152.287241722496
 31
0.0
  0
LINE
  5
4FE
330
E3
100
AcDbEntity
  8
0
  6
Continuous
100
AcDbLine
 10
148.5277316395028
 20
152.287241722496
 30
0.0
 11
148.4838699546863
 21
152.2894337322222
 31
0.0
  0
LINE
  5
4FF
330
E3
100
AcDbEntity
  8
0
  6
Continuous
100
AcDbLine
 10
148.4838699546863
 20
152.2894337322222
 30
0.0
 11
148.4403306242414
 21
152.2915720162199
 31
0.0
  0
LINE
  5
500
330
E3
100
AcDbEntity
  8
0
  6
Continuous
100
AcDbLine
 10
148.4403306242414
 20
152.2915720162199
 30
0.0
 11
148.3974467476852
 21
152.2935921036147
 31
0.0
  0
LINE
  5
501
330
E3
100
AcDbEntity
  8
0
  6
Continuous
100
AcDbLine
 10
148.3974467476852
 20
152.2935921036147
 30
0.0
 11
148.3555299342434
 21
152.2954438503932
 31
0.0
  0
LINE
  5
502
330
E3
100
AcDbEntity
  8
0
  6
Continuous
100
AcDbLine
 10
148.3555299342434
 20
152.2954438503932
 30
0.0
 11
148.3148953748573
 21
152.2970663673965
 31
0.0
  0
LINE
  5
503
330
E3
100
AcDbEntity
  8
0
  6
Continuous
100
AcDbLine
 10
148.3148953748573
 20
152.2970663673965
 30
0.0
 11
148.2758439336068
 21
152.2984130923263
 31
0.0
  0
LINE
  5
504
330
E3
100
AcDbEntity
  8
0
  6
Continuous
100
AcDbLine
 10
148.2758439336068
 20
152.2984130923263
 30
0.0
 11
148.2386693111415
 21
152.299426717739
 31
0.0
  0
LINE
  5
505
330
E3
100
AcDbEntity
  8
0
  6
Continuous
100
AcDbLine
 10
148.2386693111415
 20
152.299426717739
 30
0.0
 11
148.2036401361044
 21
152.3000642630515
 31
0.0
  0
LINE
  5
506
330
E3
100
AcDbEntity
  8
0
  6
Continuous
100
AcDbLine
 10
148.2036401361044
 20
152.3000642630515
 30
0.0
 11
148.171021455423
 21
152.3002755842506
 31
0.0
  0
LINE
  5
507
330
E3
100
AcDbEntity
  8
0
  6
Continuous
100
AcDbLine
 10
148.171021455423
 20
152.3002755842506
 30
0.0
 11
148.1410532440186
 21
152.3000177007534
 31
0.0
  0
LINE
  5
508
330
E3
100
AcDbEntity
  8
0
  6
Continuous
100
AcDbLine
 10
148.1410532440186
 20
152.3000177007534
 30
0.0
 11
148.1139539865205
 21
152.2992547954075
 31
0.0
  0
LINE
  5
509
330
E3
100
AcDbEntity
  8
0
  6
Continuous
100
AcDbLine
 10
148.1139539865205
 20
152.2992547954075
 30
0.0
 11
148.0899278406975
 21
152.2979510510605
 31
0.0
  0
LINE
  5
50A
330
E3
100
AcDbEntity
  8
0
  6
Continuous
100
AcDbLine
 10
148.0899278406975
 20
152.2979510510605
 30
0.0
 11
148.0691431471657
 21
152.2960778139905
 31
0.0
  0
LINE
  5
50B
330
E3
100
AcDbEntity
  8
0
  6
Continuous
100
AcDbLine
 10
148.0691431471657
 20
152.2960778139905
 30
0.0
 11
148.0517575013958
 21
152.2936028487604
 31
0.0
  0
LINE
  5
50C
330
E3
100
AcDbEntity
  8
0
  6
Continuous
100
AcDbLine
 10
148.0517575013958
 20
152.2936028487604
 30
0.0
 11
148.0378926817057
 21
152.2905046650787
 31
0.0
  0
LINE
  5
50D
330
E3
100
AcDbEntity
  8
0
  6
Continuous
100
AcDbLine
 10
148.0378926817057
 20
152.2905046650787
 30
0.0
 11
148.0276489761222
 21
152.2867725177997
 31
0.0
  0
LINE
  5
50E
330
E3
100
AcDbEntity
  8
0
  6
Continuous
100
AcDbLine
 10
148.0276489761222
 20
152.2867725177997
 30
0.0
 11
148.0210943014428
 21
152.2823867058651
 31
0.0
  0
LINE
  5
50F
330
E3
100
AcDbEntity
  8
0
  6
Continuous
100
AcDbLine
 10
148.0210943014428
 20
152.2823867058651
 30
0.0
 11
148.0182730709355
 21
152.2773436427345
 31
0.0
  0
LINE
  5
510
330
E3
100
AcDbEntity
  8
0
  6
Continuous
100
AcDbLine
 10
148.9689713604774
 20
151.9102510850116
 30
0.0
 11
148.9661501299701
 21
151.905208021881
 31
0.0
  0
LINE
  5
511
330
E3
100
AcDbEntity
  8
0
  6
Continuous
100
AcDbLine
 10
148.9661501299701
 20
151.905208021881
 30
0.0
 11
148.959595668975
 21
151.9008232280105
 31
0.0
  0
LINE
  5
512
330
E3
100
AcDbEntity
  8
0
  6
Continuous
100
AcDbLine
 10
148.959595668975
 20
151.9008232280105
 30
0.0
 11
148.9493496671432
 21
151.89708906323
 31
0.0
  0
LINE
  5
513
330
E3
100
AcDbEntity
  8
0
  6
Continuous
100
AcDbLine
 10
148.9493496671432
 20
151.89708906323
 30
0.0
 11
148.9354848474531
 21
151.8939944612635
 31
0.0
  0
LINE
  5
514
330
E3
100
AcDbEntity
  8
0
  6
Continuous
100
AcDbLine
 10
148.9354848474531
 20
151.8939944612635
 30
0.0
 11
148.9180992016831
 21
151.8915194960334
 31
0.0
  0
LINE
  5
515
330
E3
100
AcDbEntity
  8
0
  6
Continuous
100
AcDbLine
 10
148.9180992016831
 20
151.8915194960334
 30
0.0
 11
148.8973180898666
 21
151.8896426772482
 31
0.0
  0
LINE
  5
516
330
E3
100
AcDbEntity
  8
0
  6
Continuous
100
AcDbLine
 10
148.8973180898666
 20
151.8896426772482
 30
0.0
 11
148.8732883623283
 21
151.8883389329012
 31
0.0
  0
LINE
  5
517
330
E3
100
AcDbEntity
  8
0
  6
Continuous
100
AcDbLine
 10
148.8732883623283
 20
151.8883389329012
 30
0.0
 11
148.8461891048303
 21
151.8875760275553
 31
0.0
  0
LINE
  5
518
330
E3
100
AcDbEntity
  8
0
  6
Continuous
100
AcDbLine
 10
148.8461891048303
 20
151.8875760275553
 30
0.0
 11
148.8162208934258
 21
151.8873217257733
 31
0.0
  0
LINE
  5
519
330
E3
100
AcDbEntity
  8
0
  6
Continuous
100
AcDbLine
 10
148.8162208934258
 20
151.8873217257733
 30
0.0
 11
148.7836022127445
 21
151.8875294652572
 31
0.0
  0
LINE
  5
51A
330
E3
100
AcDbEntity
  8
0
  6
Continuous
100
AcDbLine
 10
148.7836022127445
 20
151.8875294652572
 30
0.0
 11
148.7485766194226
 21
151.8881670105697
 31
0.0
  0
LINE
  5
51B
330
E3
100
AcDbEntity
  8
0
  6
Continuous
100
AcDbLine
 10
148.7485766194226
 20
151.8881670105697
 30
0.0
 11
148.711398415242
 21
151.8891806359823
 31
0.0
  0
LINE
  5
51C
330
E3
100
AcDbEntity
  8
0
  6
Continuous
100
AcDbLine
 10
148.711398415242
 20
151.8891806359823
 30
0.0
 11
148.6723505557068
 21
151.8905273609122
 31
0.0
  0
LINE
  5
51D
330
E3
100
AcDbEntity
  8
0
  6
Continuous
100
AcDbLine
 10
148.6723505557068
 20
151.8905273609122
 30
0.0
 11
148.6317159963206
 21
151.8921498779154
 31
0.0
  0
LINE
  5
51E
330
E3
100
AcDbEntity
  8
0
  6
Continuous
100
AcDbLine
 10
148.6317159963206
 20
151.8921498779154
 30
0.0
 11
148.5897991828789
 21
151.894001624694
 31
0.0
  0
LINE
  5
51F
330
E3
100
AcDbEntity
  8
0
  6
Continuous
100
AcDbLine
 10
148.5897991828789
 20
151.894001624694
 30
0.0
 11
148.5469117246075
 21
151.8960217120888
 31
0.0
  0
LINE
  5
520
330
E3
100
AcDbEntity
  8
0
  6
Continuous
100
AcDbLine
 10
148.5469117246075
 20
151.8960217120888
 30
0.0
 11
148.5033759758778
 21
151.8981599960864
 31
0.0
  0
LINE
  5
521
330
E3
100
AcDbEntity
  8
0
  6
Continuous
100
AcDbLine
 10
148.5033759758778
 20
151.8981599960864
 30
0.0
 11
148.4595142910613
 21
151.9003520058127
 31
0.0
  0
LINE
  5
522
330
E3
100
AcDbEntity
  8
0
  6
Continuous
100
AcDbLine
 10
148.4595142910613
 20
151.9003520058127
 30
0.0
 11
148.4156490245296
 21
151.9025475972542
 31
0.0
  0
LINE
  5
523
330
E3
100
AcDbEntity
  8
0
  6
Continuous
100
AcDbLine
 10
148.4156490245296
 20
151.9025475972542
 30
0.0
 11
148.3721132757999
 21
151.9046822995366
 31
0.0
  0
LINE
  5
524
330
E3
100
AcDbEntity
  8
0
  6
Continuous
100
AcDbLine
 10
148.3721132757999
 20
151.9046822995366
 30
0.0
 11
148.3292258175285
 21
151.9067059686466
 31
0.0
  0
LINE
  5
525
330
E3
100
AcDbEntity
  8
0
  6
Continuous
100
AcDbLine
 10
148.3292258175285
 20
151.9067059686466
 30
0.0
 11
148.2873090040868
 21
151.9085541337099
 31
0.0
  0
LINE
  5
526
330
E3
100
AcDbEntity
  8
0
  6
Continuous
100
AcDbLine
 10
148.2873090040868
 20
151.9085541337099
 30
0.0
 11
148.2466780264159
 21
151.9101802324284
 31
0.0
  0
LINE
  5
527
330
E3
100
AcDbEntity
  8
0
  6
Continuous
100
AcDbLine
 10
148.2466780264159
 20
151.9101802324284
 30
0.0
 11
148.2076265851653
 21
151.911523375643
 31
0.0
  0
LINE
  5
528
330
E3
100
AcDbEntity
  8
0
  6
Continuous
100
AcDbLine
 10
148.2076265851653
 20
151.911523375643
 30
0.0
 11
148.1704483809848
 21
151.9125405827709
 31
0.0
  0
LINE
  5
529
330
E3
100
AcDbEntity
  8
0
  6
Continuous
100
AcDbLine
 10
148.1704483809848
 20
151.9125405827709
 30
0.0
 11
148.1354227876629
 21
151.9131745463682
 31
0.0
  0
LINE
  5
52A
330
E3
100
AcDbEntity
  8
0
  6
Continuous
100
AcDbLine
 10
148.1354227876629
 20
151.9131745463682
 30
0.0
 11
148.1028041069816
 21
151.9133858675673
 31
0.0
  0
LINE
  5
52B
330
E3
100
AcDbEntity
  8
0
  6
Continuous
100
AcDbLine
 10
148.1028041069816
 20
151.9133858675673
 30
0.0
 11
148.0728358955771
 21
151.9131279840701
 31
0.0
  0
LINE
  5
52C
330
E3
100
AcDbEntity
  8
0
  6
Continuous
100
AcDbLine
 10
148.0728358955771
 20
151.9131279840701
 30
0.0
 11
148.045736638079
 21
151.9123686604395
 31
0.0
  0
LINE
  5
52D
330
E3
100
AcDbEntity
  8
0
  6
Continuous
100
AcDbLine
 10
148.045736638079
 20
151.9123686604395
 30
0.0
 11
148.0217069105408
 21
151.9110649160925
 31
0.0
  0
LINE
  5
52E
330
E3
100
AcDbEntity
  8
0
  6
Continuous
100
AcDbLine
 10
148.0217069105408
 20
151.9110649160925
 30
0.0
 11
148.0009257987243
 21
151.9091880973072
 31
0.0
  0
LINE
  5
52F
330
E3
100
AcDbEntity
  8
0
  6
Continuous
100
AcDbLine
 10
148.0009257987243
 20
151.9091880973072
 30
0.0
 11
147.9835401529543
 21
151.9067131320771
 31
0.0
  0
LINE
  5
530
330
E3
100
AcDbEntity
  8
0
  6
Continuous
100
AcDbLine
 10
147.9835401529543
 20
151.9067131320771
 30
0.0
 11
147.9696753332642
 21
151.9036185301106
 31
0.0
  0
LINE
  5
531
330
E3
100
AcDbEntity
  8
0
  6
Continuous
100
AcDbLine
 10
147.9696753332642
 20
151.9036185301106
 30
0.0
 11
147.9594280459656
 21
151.8998828011164
 31
0.0
  0
LINE
  5
532
330
E3
100
AcDbEntity
  8
0
  6
Continuous
100
AcDbLine
 10
147.9594280459656
 20
151.8998828011164
 30
0.0
 11
147.9528753745022
 21
151.8954979457532
 31
0.0
  0
LINE
  5
533
330
E3
100
AcDbEntity
  8
0
  6
Continuous
100
AcDbLine
 10
147.9528753745022
 20
151.8954979457532
 30
0.0
 11
147.9500541439949
 21
151.8904548826225
 31
0.0
  0
LINE
  5
534
330
E3
100
AcDbEntity
  8
0
  6
Continuous
100
AcDbLine
 10
148.9007524335368
 20
151.5233623248997
 30
0.0
 11
148.8979312030295
 21
151.518319261769
 31
0.0
  0
LINE
  5
535
330
E3
100
AcDbEntity
  8
0
  6
Continuous
100
AcDbLine
 10
148.8979312030295
 20
151.518319261769
 30
0.0
 11
148.8913767420344
 21
151.5139344678986
 31
0.0
  0
LINE
  5
536
330
E3
100
AcDbEntity
  8
0
  6
Continuous
100
AcDbLine
 10
148.8913767420344
 20
151.5139344678986
 30
0.0
 11
148.8811323187017
 21
151.5101993465467
 31
0.0
  0
LINE
  5
537
330
E3
100
AcDbEntity
  8
0
  6
Continuous
100
AcDbLine
 10
148.8811323187017
 20
151.5101993465467
 30
0.0
 11
148.8672674990116
 21
151.5071047445802
 31
0.0
  0
LINE
  5
538
330
E3
100
AcDbEntity
  8
0
  6
Continuous
100
AcDbLine
 10
148.8672674990116
 20
151.5071047445802
 30
0.0
 11
148.8498818532417
 21
151.5046297793501
 31
0.0
  0
LINE
  5
539
330
E3
100
AcDbEntity
  8
0
  6
Continuous
100
AcDbLine
 10
148.8498818532417
 20
151.5046297793501
 30
0.0
 11
148.8290971597099
 21
151.5027529605649
 31
0.0
  0
LINE
  5
53A
330
E3
100
AcDbEntity
  8
0
  6
Continuous
100
AcDbLine
 10
148.8290971597099
 20
151.5027529605649
 30
0.0
 11
148.8050710138869
 21
151.5014492162179
 31
0.0
  0
LINE
  5
53B
330
E3
100
AcDbEntity
  8
0
  6
Continuous
100
AcDbLine
 10
148.8050710138869
 20
151.5014492162179
 30
0.0
 11
148.7779717563888
 21
151.500686310872
 31
0.0
  0
LINE
  5
53C
330
E3
100
AcDbEntity
  8
0
  6
Continuous
100
AcDbLine
 10
148.7779717563888
 20
151.500686310872
 30
0.0
 11
148.7480035449844
 21
151.50043200909
 31
0.0
  0
LINE
  5
53D
330
E3
100
AcDbEntity
  8
0
  6
Continuous
100
AcDbLine
 10
148.7480035449844
 20
151.50043200909
 30
0.0
 11
148.715384864303
 21
151.5006433302891
 31
0.0
  0
LINE
  5
53E
330
E3
100
AcDbEntity
  8
0
  6
Continuous
100
AcDbLine
 10
148.715384864303
 20
151.5006433302891
 30
0.0
 11
148.6803592709811
 21
151.5012772938864
 31
0.0
  0
LINE
  5
53F
330
E3
100
AcDbEntity
  8
0
  6
Continuous
100
AcDbLine
 10
148.6803592709811
 20
151.5012772938864
 30
0.0
 11
148.6431810668006
 21
151.5022945010143
 31
0.0
  0
LINE
  5
540
330
E3
100
AcDbEntity
  8
0
  6
Continuous
100
AcDbLine
 10
148.6431810668006
 20
151.5022945010143
 30
0.0
 11
148.6041296255501
 21
151.5036376442289
 31
0.0
  0
LINE
  5
541
330
E3
100
AcDbEntity
  8
0
  6
Continuous
100
AcDbLine
 10
148.6041296255501
 20
151.5036376442289
 30
0.0
 11
148.5634950661639
 21
151.5052637429474
 31
0.0
  0
LINE
  5
542
330
E3
100
AcDbEntity
  8
0
  6
Continuous
100
AcDbLine
 10
148.5634950661639
 20
151.5052637429474
 30
0.0
 11
148.5215782527222
 21
151.5071119080107
 31
0.0
  0
LINE
  5
543
330
E3
100
AcDbEntity
  8
0
  6
Continuous
100
AcDbLine
 10
148.5215782527222
 20
151.5071119080107
 30
0.0
 11
148.478694376166
 21
151.5091355771207
 31
0.0
  0
LINE
  5
544
330
E3
100
AcDbEntity
  8
0
  6
Continuous
100
AcDbLine
 10
148.478694376166
 20
151.5091355771207
 30
0.0
 11
148.4351586274363
 21
151.5112702794031
 31
0.0
  0
LINE
  5
545
330
E3
100
AcDbEntity
  8
0
  6
Continuous
100
AcDbLine
 10
148.4351586274363
 20
151.5112702794031
 30
0.0
 11
148.3912933609046
 21
151.5134658708446
 31
0.0
  0
LINE
  5
546
330
E3
100
AcDbEntity
  8
0
  6
Continuous
100
AcDbLine
 10
148.3912933609046
 20
151.5134658708446
 30
0.0
 11
148.3474316760881
 21
151.5156578805709
 31
0.0
  0
LINE
  5
547
330
E3
100
AcDbEntity
  8
0
  6
Continuous
100
AcDbLine
 10
148.3474316760881
 20
151.5156578805709
 30
0.0
 11
148.3038923456432
 21
151.5177925828533
 31
0.0
  0
LINE
  5
548
330
E3
100
AcDbEntity
  8
0
  6
Continuous
100
AcDbLine
 10
148.3038923456432
 20
151.5177925828533
 30
0.0
 11
148.261008469087
 21
151.5198162519633
 31
0.0
  0
LINE
  5
549
330
E3
100
AcDbEntity
  8
0
  6
Continuous
100
AcDbLine
 10
148.261008469087
 20
151.5198162519633
 30
0.0
 11
148.2190916556453
 21
151.5216644170266
 31
0.0
  0
LINE
  5
54A
330
E3
100
AcDbEntity
  8
0
  6
Continuous
100
AcDbLine
 10
148.2190916556453
 20
151.5216644170266
 30
0.0
 11
148.1784570962592
 21
151.5232905157451
 31
0.0
  0
LINE
  5
54B
330
E3
100
AcDbEntity
  8
0
  6
Continuous
100
AcDbLine
 10
148.1784570962592
 20
151.5232905157451
 30
0.0
 11
148.1394056550087
 21
151.524637240675
 31
0.0
  0
LINE
  5
54C
330
E3
100
AcDbEntity
  8
0
  6
Continuous
100
AcDbLine
 10
148.1394056550087
 20
151.524637240675
 30
0.0
 11
148.1022310325434
 21
151.5256508660876
 31
0.0
  0
LINE
  5
54D
330
E3
100
AcDbEntity
  8
0
  6
Continuous
100
AcDbLine
 10
148.1022310325434
 20
151.5256508660876
 30
0.0
 11
148.0672018575062
 21
151.5262848296849
 31
0.0
  0
LINE
  5
54E
330
E3
100
AcDbEntity
  8
0
  6
Continuous
100
AcDbLine
 10
148.0672018575062
 20
151.5262848296849
 30
0.0
 11
148.0345831768249
 21
151.526496150884
 31
0.0
  0
LINE
  5
54F
330
E3
100
AcDbEntity
  8
0
  6
Continuous
100
AcDbLine
 10
148.0345831768249
 20
151.526496150884
 30
0.0
 11
148.0046149654204
 21
151.526241849102
 31
0.0
  0
LINE
  5
550
330
E3
100
AcDbEntity
  8
0
  6
Continuous
100
AcDbLine
 10
148.0046149654204
 20
151.526241849102
 30
0.0
 11
147.9775192896376
 21
151.5254789437562
 31
0.0
  0
LINE
  5
551
330
E3
100
AcDbEntity
  8
0
  6
Continuous
100
AcDbLine
 10
147.9775192896376
 20
151.5254789437562
 30
0.0
 11
147.9534895620993
 21
151.5241751994092
 31
0.0
  0
LINE
  5
552
330
E3
100
AcDbEntity
  8
0
  6
Continuous
100
AcDbLine
 10
147.9534895620993
 20
151.5241751994092
 30
0.0
 11
147.9327084502828
 21
151.5222983806239
 31
0.0
  0
LINE
  5
553
330
E3
100
AcDbEntity
  8
0
  6
Continuous
100
AcDbLine
 10
147.9327084502828
 20
151.5222983806239
 30
0.0
 11
147.9153192227976
 21
151.5198234153938
 31
0.0
  0
LINE
  5
554
330
E3
100
AcDbEntity
  8
0
  6
Continuous
100
AcDbLine
 10
147.9153192227976
 20
151.5198234153938
 30
0.0
 11
147.9014544031075
 21
151.5167288134273
 31
0.0
  0
LINE
  5
555
330
E3
100
AcDbEntity
  8
0
  6
Continuous
100
AcDbLine
 10
147.9014544031075
 20
151.5167288134273
 30
0.0
 11
147.8912106975241
 21
151.5129930844331
 31
0.0
  0
LINE
  5
556
330
E3
100
AcDbEntity
  8
0
  6
Continuous
100
AcDbLine
 10
147.8912106975241
 20
151.5129930844331
 30
0.0
 11
147.8846564475616
 21
151.5086091856412
 31
0.0
  0
LINE
  5
557
330
E3
100
AcDbEntity
  8
0
  6
Continuous
100
AcDbLine
 10
147.8846564475616
 20
151.5086091856412
 30
0.0
 11
147.8818352170543
 21
151.5035661225106
 31
0.0
  0
LINE
  5
558
330
E3
100
AcDbEntity
  8
0
  6
Continuous
100
AcDbLine
 10
148.8325335065962
 20
151.1364735647877
 30
0.0
 11
148.8297122760889
 21
151.1314305016571
 31
0.0
  0
LINE
  5
559
330
E3
100
AcDbEntity
  8
0
  6
Continuous
100
AcDbLine
 10
148.8297122760889
 20
151.1314305016571
 30
0.0
 11
148.8231578150938
 21
151.1270457077867
 31
0.0
  0
LINE
  5
55A
330
E3
100
AcDbEntity
  8
0
  6
Continuous
100
AcDbLine
 10
148.8231578150938
 20
151.1270457077867
 30
0.0
 11
148.812911388545
 21
151.1233132115786
 31
0.0
  0
LINE
  5
55B
330
E3
100
AcDbEntity
  8
0
  6
Continuous
100
AcDbLine
 10
148.812911388545
 20
151.1233132115786
 30
0.0
 11
148.7990465688549
 21
151.1202150278969
 31
0.0
  0
LINE
  5
55C
330
E3
100
AcDbEntity
  8
0
  6
Continuous
100
AcDbLine
 10
148.7990465688549
 20
151.1202150278969
 30
0.0
 11
148.781660923085
 21
151.1177400626668
 31
0.0
  0
LINE
  5
55D
330
E3
100
AcDbEntity
  8
0
  6
Continuous
100
AcDbLine
 10
148.781660923085
 20
151.1177400626668
 30
0.0
 11
148.7608798112684
 21
151.1158668255968
 31
0.0
  0
LINE
  5
55E
330
E3
100
AcDbEntity
  8
0
  6
Continuous
100
AcDbLine
 10
148.7608798112684
 20
151.1158668255968
 30
0.0
 11
148.7368500837302
 21
151.1145630812498
 31
0.0
  0
LINE
  5
55F
330
E3
100
AcDbEntity
  8
0
  6
Continuous
100
AcDbLine
 10
148.7368500837302
 20
151.1145630812498
 30
0.0
 11
148.7097544079473
 21
151.1138001759039
 31
0.0
  0
LINE
  5
560
330
E3
100
AcDbEntity
  8
0
  6
Continuous
100
AcDbLine
 10
148.7097544079473
 20
151.1138001759039
 30
0.0
 11
148.6797826148276
 21
151.1135422924067
 31
0.0
  0
LINE
  5
561
330
E3
100
AcDbEntity
  8
0
  6
Continuous
100
AcDbLine
 10
148.6797826148276
 20
151.1135422924067
 30
0.0
 11
148.6471675158616
 21
151.1137536136058
 31
0.0
  0
LINE
  5
562
330
E3
100
AcDbEntity
  8
0
  6
Continuous
100
AcDbLine
 10
148.6471675158616
 20
151.1137536136058
 30
0.0
 11
148.6121383408244
 21
151.1143911589184
 31
0.0
  0
LINE
  5
563
330
E3
100
AcDbEntity
  8
0
  6
Continuous
100
AcDbLine
 10
148.6121383408244
 20
151.1143911589184
 30
0.0
 11
148.5749601366439
 21
151.115404784331
 31
0.0
  0
LINE
  5
564
330
E3
100
AcDbEntity
  8
0
  6
Continuous
100
AcDbLine
 10
148.5749601366439
 20
151.115404784331
 30
0.0
 11
148.5359122771086
 21
151.1167479275456
 31
0.0
  0
LINE
  5
565
330
E3
100
AcDbEntity
  8
0
  6
Continuous
100
AcDbLine
 10
148.5359122771086
 20
151.1167479275456
 30
0.0
 11
148.4952777177224
 21
151.1183740262641
 31
0.0
  0
LINE
  5
566
330
E3
100
AcDbEntity
  8
0
  6
Continuous
100
AcDbLine
 10
148.4952777177224
 20
151.1183740262641
 30
0.0
 11
148.4533609042808
 21
151.1202257730426
 31
0.0
  0
LINE
  5
567
330
E3
100
AcDbEntity
  8
0
  6
Continuous
100
AcDbLine
 10
148.4533609042808
 20
151.1202257730426
 30
0.0
 11
148.4104734460093
 21
151.1222458604374
 31
0.0
  0
LINE
  5
568
330
E3
100
AcDbEntity
  8
0
  6
Continuous
100
AcDbLine
 10
148.4104734460093
 20
151.1222458604374
 30
0.0
 11
148.3669376972796
 21
151.1243805627198
 31
0.0
  0
LINE
  5
569
330
E3
100
AcDbEntity
  8
0
  6
Continuous
100
AcDbLine
 10
148.3669376972796
 20
151.1243805627198
 30
0.0
 11
148.3230760124631
 21
151.1265761541613
 31
0.0
  0
LINE
  5
56A
330
E3
100
AcDbEntity
  8
0
  6
Continuous
100
AcDbLine
 10
148.3230760124631
 20
151.1265761541613
 30
0.0
 11
148.2792107459315
 21
151.1287681638876
 31
0.0
  0
LINE
  5
56B
330
E3
100
AcDbEntity
  8
0
  6
Continuous
100
AcDbLine
 10
148.2792107459315
 20
151.1287681638876
 30
0.0
 11
148.2356749972018
 21
151.1309064478853
 31
0.0
  0
LINE
  5
56C
330
E3
100
AcDbEntity
  8
0
  6
Continuous
100
AcDbLine
 10
148.2356749972018
 20
151.1309064478853
 30
0.0
 11
148.1927875389303
 21
151.13292653528
 31
0.0
  0
LINE
  5
56D
330
E3
100
AcDbEntity
  8
0
  6
Continuous
100
AcDbLine
 10
148.1927875389303
 20
151.13292653528
 30
0.0
 11
148.1508743072038
 21
151.1347782820586
 31
0.0
  0
LINE
  5
56E
330
E3
100
AcDbEntity
  8
0
  6
Continuous
100
AcDbLine
 10
148.1508743072038
 20
151.1347782820586
 30
0.0
 11
148.1102397478177
 21
151.1364007990618
 31
0.0
  0
LINE
  5
56F
330
E3
100
AcDbEntity
  8
0
  6
Continuous
100
AcDbLine
 10
148.1102397478177
 20
151.1364007990618
 30
0.0
 11
148.0711883065672
 21
151.1377475239917
 31
0.0
  0
LINE
  5
570
330
E3
100
AcDbEntity
  8
0
  6
Continuous
100
AcDbLine
 10
148.0711883065672
 20
151.1377475239917
 30
0.0
 11
148.0340101023866
 21
151.1387611494043
 31
0.0
  0
LINE
  5
571
330
E3
100
AcDbEntity
  8
0
  6
Continuous
100
AcDbLine
 10
148.0340101023866
 20
151.1387611494043
 30
0.0
 11
147.9989845090647
 21
151.1393986947168
 31
0.0
  0
LINE
  5
572
330
E3
100
AcDbEntity
  8
0
  6
Continuous
100
AcDbLine
 10
147.9989845090647
 20
151.1393986947168
 30
0.0
 11
147.9663658283834
 21
151.1396100159159
 31
0.0
  0
LINE
  5
573
330
E3
100
AcDbEntity
  8
0
  6
Continuous
100
AcDbLine
 10
147.9663658283834
 20
151.1396100159159
 30
0.0
 11
147.936397616979
 21
151.1393521324187
 31
0.0
  0
LINE
  5
574
330
E3
100
AcDbEntity
  8
0
  6
Continuous
100
AcDbLine
 10
147.936397616979
 20
151.1393521324187
 30
0.0
 11
147.9092983594809
 21
151.1385892270729
 31
0.0
  0
LINE
  5
575
330
E3
100
AcDbEntity
  8
0
  6
Continuous
100
AcDbLine
 10
147.9092983594809
 20
151.1385892270729
 30
0.0
 11
147.8852722136579
 21
151.1372854827259
 31
0.0
  0
LINE
  5
576
330
E3
100
AcDbEntity
  8
0
  6
Continuous
100
AcDbLine
 10
147.8852722136579
 20
151.1372854827259
 30
0.0
 11
147.8644875201261
 21
151.1354086639406
 31
0.0
  0
LINE
  5
577
330
E3
100
AcDbEntity
  8
0
  6
Continuous
100
AcDbLine
 10
147.8644875201261
 20
151.1354086639406
 30
0.0
 11
147.8471018743561
 21
151.1329336987105
 31
0.0
  0
LINE
  5
578
330
E3
100
AcDbEntity
  8
0
  6
Continuous
100
AcDbLine
 10
147.8471018743561
 20
151.1329336987105
 30
0.0
 11
147.8332370546661
 21
151.129839096744
 31
0.0
  0
LINE
  5
579
330
E3
100
AcDbEntity
  8
0
  6
Continuous
100
AcDbLine
 10
147.8332370546661
 20
151.129839096744
 30
0.0
 11
147.8229933490826
 21
151.1261069494651
 31
0.0
  0
ENDBLK
  5
E5
330
E3
100
AcDbEntity
  8
0
100
AcDbBlockEnd
  0
BLOCK
  5
57F
330
57E
100
AcDbEntity
  8
0
100
AcDbBlockBegin
  2
R-TRS6-06 BARGE DETAIL - HEAD_STORY_MARKER
 70
     0
 10
0.0
 20
0.0
 30
0.0
  3
R-TRS6-06 BARGE DETAIL - HEAD_STORY_MARKER
  1

  0
ENDBLK
  5
580
330
57E
100
AcDbEntity
  8
0
100
AcDbBlockEnd
  0
ENDSEC
  0
SECTION
  2
ENTITIES
  0
HATCH
  5
3F
330
1F
100
AcDbEntity
  8
Doc_ Finishes
  6
Continuous
100
AcDbHatch
 10
0.0
 20
0.0
 30
0.0
210
0.0
220
0.0
230
1.0
  2
SOLID
 70
     1
 71
     0
 91
        1
 92
        3
 72
     0
 73
     1
 93
       54
 10
27.4117749414874
 20
16.87044408857867
 10
26.89356552397386
 20
16.5825499677378
 10
26.5480925789648
 20
16.29465584689693
 10
26.12584786839819
 20
16.02595466744544
 10
25.76118198199976
 20
15.60370995687884
 10
25.39651609560134
 20
15.33500877742737
 10
25.07023609198168
 20
14.89357112547136
 10
24.49444785029994
 20
14.45213347351537
 10
23.93785255000758
 20
14.02988876294876
 10
23.43883607388344
 20
13.81876640766546
 10
22.74789018386533
 20
13.39652169709885
 10
22.09533017662603
 20
12.99346992792163
 10
21.63469958328064
 20
12.55203227596564
 10
20.90536781048376
 20
12.12978756539902
 10
20.59828074825351
 20
11.7459287376112
 10
20.04168544796116
 20
11.28529814426581
 10
19.36993249933246
 20
10.8630534336992
 10
18.73656543348255
 20
10.42161578174319
 10
18.04561954346447
 20
10.15291460229172
 10
17.1051654153843
 20
9.692284008946325
 10
16.39502658397681
 20
9.020531060317637
 10
15.83843128368446
 20
8.598286349751023
 10
15.12829245227699
 20
8.137655756405634
 10
14.84039833143612
 20
7.98411222529051
 10
14.37976773809073
 20
7.81137575278599
 10
14.07268067586046
 20
7.523481631945121
 10
14.0151018516923
 20
7.216394569714853
 10
14.14945244141803
 20
6.890114566095209
 10
14.4373465622589
 20
6.563834562475543
 10
14.8787842142149
 20
6.659799269422514
 10
15.51215128006482
 20
7.06285103859973
 10
16.01116775618899
 20
7.389131042219374
 10
16.33744775980864
 20
7.696218104449641
 10
16.51018423231316
 20
7.907340459732938
 10
17.01303929671522
 20
8.421711288968723
 10
17.33548071205699
 20
8.652026585641417
 10
17.75004824606785
 20
8.99749953065046
 10
18.14158425041142
 20
9.204783297655894
 10
19.24709767444037
 20
9.75754000967037
 10
20.23745345013295
 20
10.47151742935572
 10
21.4120614631637
 20
11.1624633193738
 10
21.84966052684182
 20
11.64612544238645
 10
22.49454335752537
 20
12.06069297639732
 10
23.78430901889248
 20
12.9819541630881
 10
24.3600972605742
 20
13.25833251909534
 10
25.6498629219413
 20
14.24868829478776
 10
25.85714668894673
 20
14.64022429913134
 10
26.68628175696843
 20
15.23904407048036
 10
27.28510152831745
 20
15.72270619349301
 10
27.81482671066464
 20
16.1142421978366
 10
28.27545730401003
 20
16.52880973184745
 10
28.22939424467549
 20
16.7821565581874
 10
28.09120506667188
 20
16.89731420652375
 10
27.56147988432467
 20
16.89731420652375
 97
        0
 75
     0
 76
     1
 98
        0
  0
LINE
  5
41
330
1F
100
AcDbEntity
  8
Doc_ Finishes
  6
Continuous
100
AcDbLine
 10
27.41177566876475
 20
16.87044600708104
 30
0.0
 11
26.89356756490952
 21
16.58254868214004
 31
0.0
  0
LINE
  5
42
330
1F
100
AcDbEntity
  8
Doc_ Finishes
  6
Continuous
100
AcDbLine
 10
26.89356756490952
 20
16.58254868214004
 30
0.0
 11
26.54809254523997
 21
16.29465578284815
 31
0.0
  0
LINE
  5
43
330
1F
100
AcDbEntity
  8
Doc_ Finishes
  6
Continuous
100
AcDbLine
 10
26.54809254523997
 20
16.29465578284815
 30
0.0
 11
26.12584579071597
 21
16.02595249803305
 31
0.0
  0
LINE
  5
44
330
1F
100
AcDbEntity
  8
Doc_ Finishes
  6
Continuous
100
AcDbLine
 10
26.12584579071597
 20
16.02595249803305
 30
0.0
 11
25.76118115656963
 21
15.60371016915814
 31
0.0
  0
LINE
  5
45
330
1F
100
AcDbEntity
  8
Doc_ Finishes
  6
Continuous
100
AcDbLine
 10
25.76118115656963
 20
15.60371016915814
 30
0.0
 11
25.39651652242329
 21
15.33500688434304
 31
0.0
  0
LINE
  5
46
330
1F
100
AcDbEntity
  8
Doc_ Finishes
  6
Continuous
100
AcDbLine
 10
25.39651652242329
 20
15.33500688434304
 30
0.0
 11
25.07023554287962
 21
14.89357051534225
 31
0.0
  0
LINE
  5
47
330
1F
100
AcDbEntity
  8
Doc_ Finishes
  6
Continuous
100
AcDbLine
 10
25.07023554287962
 20
14.89357051534225
 30
0.0
 11
24.49444974429583
 21
14.45213414634146
 31
0.0
  0
LINE
  5
48
330
1F
100
AcDbEntity
  8
Doc_ Finishes
  6
Continuous
100
AcDbLine
 10
24.49444974429583
 20
14.45213414634146
 30
0.0
 11
23.93785356018882
 21
14.02988739181747
 31
0.0
  0
LINE
  5
49
330
1F
100
AcDbEntity
  8
Doc_ Finishes
  6
Continuous
100
AcDbLine
 10
23.93785356018882
 20
14.02988739181747
 30
0.0
 11
23.43883507081038
 21
13.81876622738001
 31
0.0
  0
LINE
  5
4A
330
1F
100
AcDbEntity
  8
Doc_ Finishes
  6
Continuous
100
AcDbLine
 10
23.43883507081038
 20
13.81876622738001
 30
0.0
 11
22.74788945712038
 21
13.39652389850511
 31
0.0
  0
LINE
  5
4B
330
1F
100
AcDbEntity
  8
Doc_ Finishes
  6
Continuous
100
AcDbLine
 10
22.74788945712038
 20
13.39652389850511
 30
0.0
 11
22.09533192368214
 21
12.993471184107
 31
0.0
  0
LINE
  5
4C
330
1F
100
AcDbEntity
  8
Doc_ Finishes
  6
Continuous
100
AcDbLine
 10
22.09533192368214
 20
12.993471184107
 30
0.0
 11
21.63470151455547
 21
12.55203038945712
 31
0.0
  0
LINE
  5
4D
330
1F
100
AcDbEntity
  8
Doc_ Finishes
  6
Continuous
100
AcDbLine
 10
21.63470151455547
 20
12.55203038945712
 30
0.0
 11
20.90536782061369
 21
12.12978806058222
 31
0.0
  0
LINE
  5
4E
330
1F
100
AcDbEntity
  8
Doc_ Finishes
  6
Continuous
100
AcDbLine
 10
20.90536782061369
 20
12.12978806058222
 30
0.0
 11
20.59828088119591
 21
11.74592938630999
 31
0.0
  0
LINE
  5
4F
330
1F
100
AcDbEntity
  8
Doc_ Finishes
  6
Continuous
100
AcDbLine
 10
20.59828088119591
 20
11.74592938630999
 30
0.0
 11
20.0416846970889
 21
11.28529897718332
 31
0.0
  0
LINE
  5
50
330
1F
100
AcDbEntity
  8
Doc_ Finishes
  6
Continuous
100
AcDbLine
 10
20.0416846970889
 20
11.28529897718332
 30
0.0
 11
19.36993312352478
 21
10.86305222265932
 31
0.0
  0
LINE
  5
51
330
1F
100
AcDbEntity
  8
Doc_ Finishes
  6
Continuous
100
AcDbLine
 10
19.36993312352478
 20
10.86305222265932
 30
0.0
 11
18.73656520456333
 21
10.42161585365854
 31
0.0
  0
LINE
  5
52
330
1F
100
AcDbEntity
  8
Doc_ Finishes
  6
Continuous
100
AcDbLine
 10
18.73656520456333
 20
10.42161585365854
 30
0.0
 11
18.04561959087333
 21
10.15291256884343
 31
0.0
  0
LINE
  5
53
330
1F
100
AcDbEntity
  8
Doc_ Finishes
  6
Continuous
100
AcDbLine
 10
18.04561959087333
 20
10.15291256884343
 30
0.0
 11
17.1051647324941
 21
9.692282159716758
 31
0.0
  0
LINE
  5
54
330
1F
100
AcDbEntity
  8
Doc_ Finishes
  6
Continuous
100
AcDbLine
 10
17.1051647324941
 20
9.692282159716758
 30
0.0
 11
16.3950250786782
 21
9.020530586152635
 31
0.0
  0
LINE
  5
55
330
1F
100
AcDbEntity
  8
Doc_ Finishes
  6
Continuous
100
AcDbLine
 10
16.3950250786782
 20
9.020530586152635
 30
0.0
 11
15.8384333202203
 21
8.598288257277733
 31
0.0
  0
LINE
  5
56
330
1F
100
AcDbEntity
  8
Doc_ Finishes
  6
Continuous
100
AcDbLine
 10
15.8384333202203
 20
8.598288257277733
 30
0.0
 11
15.1282936664044
 21
8.137657848151063
 31
0.0
  0
LINE
  5
57
330
1F
100
AcDbEntity
  8
Doc_ Finishes
  6
Continuous
100
AcDbLine
 10
15.1282936664044
 20
8.137657848151063
 30
0.0
 11
14.84039634146341
 21
7.984114378442171
 31
0.0
  0
LINE
  5
58
330
1F
100
AcDbEntity
  8
Doc_ Finishes
  6
Continuous
100
AcDbLine
 10
14.84039634146341
 20
7.984114378442171
 30
0.0
 11
14.37976593233674
 21
7.811376868607396
 31
0.0
  0
LINE
  5
59
330
1F
100
AcDbEntity
  8
Doc_ Finishes
  6
Continuous
100
AcDbLine
 10
14.37976593233674
 20
7.811376868607396
 30
0.0
 11
14.07267899291896
 21
7.523479543666405
 31
0.0
  0
LINE
  5
5A
330
1F
100
AcDbEntity
  8
Doc_ Finishes
  6
Continuous
100
AcDbLine
 10
14.07267899291896
 20
7.523479543666405
 30
0.0
 11
14.0151012981904
 21
7.216392604248622
 31
0.0
  0
LINE
  5
5B
330
1F
100
AcDbEntity
  8
Doc_ Finishes
  6
Continuous
100
AcDbLine
 10
14.0151012981904
 20
7.216392604248622
 30
0.0
 11
14.14945072777341
 21
6.890116050354051
 31
0.0
  0
LINE
  5
5C
330
1F
100
AcDbEntity
  8
Doc_ Finishes
  6
Continuous
100
AcDbLine
 10
14.14945072777341
 20
6.890116050354051
 30
0.0
 11
14.4373480527144
 21
6.563835070810386
 31
0.0
  0
LINE
  5
5D
330
1F
100
AcDbEntity
  8
Doc_ Finishes
  6
Continuous
100
AcDbLine
 10
14.4373480527144
 20
6.563835070810386
 30
0.0
 11
14.87878442171519
 21
6.659800845790715
 31
0.0
  0
LINE
  5
5E
330
1F
100
AcDbEntity
  8
Doc_ Finishes
  6
Continuous
100
AcDbLine
 10
14.87878442171519
 20
6.659800845790715
 30
0.0
 11
15.51215234067663
 21
7.062849134539732
 31
0.0
  0
LINE
  5
5F
330
1F
100
AcDbEntity
  8
Doc_ Finishes
  6
Continuous
100
AcDbLine
 10
15.51215234067663
 20
7.062849134539732
 30
0.0
 11
16.01116640440598
 21
7.389130114083398
 31
0.0
  0
LINE
  5
60
330
1F
100
AcDbEntity
  8
Doc_ Finishes
  6
Continuous
100
AcDbLine
 10
16.01116640440598
 20
7.389130114083398
 30
0.0
 11
16.33744738394964
 21
7.69621705350118
 31
0.0
  0
LINE
  5
61
330
1F
100
AcDbEntity
  8
Doc_ Finishes
  6
Continuous
100
AcDbLine
 10
16.33744738394964
 20
7.69621705350118
 30
0.0
 11
16.51018489378442
 21
7.907342643587726
 31
0.0
  0
LINE
  5
62
330
1F
100
AcDbEntity
  8
Doc_ Finishes
  6
Continuous
100
AcDbLine
 10
16.51018489378442
 20
7.907342643587726
 30
0.0
 11
17.0130404209284
 21
8.421709284028323
 31
0.0
  0
LINE
  5
63
330
1F
100
AcDbEntity
  8
Doc_ Finishes
  6
Continuous
100
AcDbLine
 10
17.0130404209284
 20
8.421709284028323
 30
0.0
 11
17.33547993705743
 21
8.65202448859166
 31
0.0
  0
LINE
  5
64
330
1F
100
AcDbEntity
  8
Doc_ Finishes
  6
Continuous
100
AcDbLine
 10
17.33547993705743
 20
8.65202448859166
 30
0.0
 11
17.75004819040126
 21
8.997499508261212
 31
0.0
  0
LINE
  5
65
330
1F
100
AcDbEntity
  8
Doc_ Finishes
  6
Continuous
100
AcDbLine
 10
17.75004819040126
 20
8.997499508261212
 30
0.0
 11
18.14158536585366
 21
9.204783634933122
 31
0.0
  0
LINE
  5
66
330
1F
100
AcDbEntity
  8
Doc_ Finishes
  6
Continuous
100
AcDbLine
 10
18.14158536585366
 20
9.204783634933122
 30
0.0
 11
19.24709923288749
 21
9.75753835562549
 31
0.0
  0
LINE
  5
67
330
1F
100
AcDbEntity
  8
Doc_ Finishes
  6
Continuous
100
AcDbLine
 10
19.24709923288749
 20
9.75753835562549
 30
0.0
 11
20.23745328481511
 21
10.47151947285602
 31
0.0
  0
LINE
  5
68
330
1F
100
AcDbEntity
  8
Doc_ Finishes
  6
Continuous
100
AcDbLine
 10
20.23745328481511
 20
10.47151947285602
 30
0.0
 11
21.41206038552321
 21
11.16246508654602
 31
0.0
  0
LINE
  5
69
330
1F
100
AcDbEntity
  8
Doc_ Finishes
  6
Continuous
100
AcDbLine
 10
21.41206038552321
 20
11.16246508654602
 30
0.0
 11
21.84965971675846
 21
11.64612657356412
 31
0.0
  0
LINE
  5
6A
330
1F
100
AcDbEntity
  8
Doc_ Finishes
  6
Continuous
100
AcDbLine
 10
21.84965971675846
 20
11.64612657356412
 30
0.0
 11
22.49454317466562
 21
12.06069482690795
 31
0.0
  0
LINE
  5
6B
330
1F
100
AcDbEntity
  8
Doc_ Finishes
  6
Continuous
100
AcDbLine
 10
22.49454317466562
 20
12.06069482690795
 30
0.0
 11
23.78431009047993
 21
12.98195564516129
 31
0.0
  0
LINE
  5
6C
330
1F
100
AcDbEntity
  8
Doc_ Finishes
  6
Continuous
100
AcDbLine
 10
23.78431009047993
 20
12.98195564516129
 30
0.0
 11
24.36009588906373
 21
13.25833300550747
 31
0.0
  0
LINE
  5
6D
330
1F
100
AcDbEntity
  8
Doc_ Finishes
  6
Continuous
100
AcDbLine
 10
24.36009588906373
 20
13.25833300550747
 30
0.0
 11
25.64986280487805
 21
14.24868705743509
 31
0.0
  0
LINE
  5
6E
330
1F
100
AcDbEntity
  8
Doc_ Finishes
  6
Continuous
100
AcDbLine
 10
25.64986280487805
 20
14.24868705743509
 30
0.0
 11
25.85714693154996
 21
14.64022423288749
 31
0.0
  0
LINE
  5
6F
330
1F
100
AcDbEntity
  8
Doc_ Finishes
  6
Continuous
100
AcDbLine
 10
25.85714693154996
 20
14.64022423288749
 30
0.0
 11
26.68628343823761
 21
15.2390455350118
 31
0.0
  0
LINE
  5
70
330
1F
100
AcDbEntity
  8
Doc_ Finishes
  6
Continuous
100
AcDbLine
 10
26.68628343823761
 20
15.2390455350118
 30
0.0
 11
27.28510031471282
 21
15.7227070220299
 31
0.0
  0
LINE
  5
71
330
1F
100
AcDbEntity
  8
Doc_ Finishes
  6
Continuous
100
AcDbLine
 10
27.28510031471282
 20
15.7227070220299
 30
0.0
 11
27.81482838316287
 21
16.1142441974823
 31
0.0
  0
LINE
  5
72
330
1F
100
AcDbEntity
  8
Doc_ Finishes
  6
Continuous
100
AcDbLine
 10
27.81482838316287
 20
16.1142441974823
 30
0.0
 11
28.27545879228953
 21
16.52880802517702
 31
0.0
  0
LINE
  5
73
330
1F
100
AcDbEntity
  8
Doc_ Finishes
  6
Continuous
100
AcDbLine
 10
28.27545879228953
 20
16.52880802517702
 30
0.0
 11
28.22939221085759
 21
16.78215873328088
 31
0.0
  0
LINE
  5
74
330
1F
100
AcDbEntity
  8
Doc_ Finishes
  6
Continuous
100
AcDbLine
 10
28.22939221085759
 20
16.78215873328088
 30
0.0
 11
28.09120574350905
 21
16.897314122738
 31
0.0
  0
LINE
  5
75
330
1F
100
AcDbEntity
  8
Doc_ Finishes
  6
Continuous
100
AcDbLine
 10
28.09120574350905
 20
16.897314122738
 30
0.0
 11
27.56147767505901
 21
16.897314122738
 31
0.0
  0
LINE
  5
76
330
1F
100
AcDbEntity
  8
Doc_ Finishes
  6
Continuous
100
AcDbLine
 10
27.56147767505901
 20
16.897314122738
 30
0.0
 11
27.41177566876475
 21
16.87044600708104
 31
0.0
  0
HATCH
  5
77
330
1F
100
AcDbEntity
  8
Doc_ Finishes
  6
Continuous
100
AcDbHatch
 10
0.0
 20
0.0
 30
0.0
210
0.0
220
0.0
230
1.0
  2
SOLID
 70
     1
 71
     0
 91
        1
 92
        3
 72
     0
 73
     1
 93
       39
 10
27.65360600299377
 20
13.12014334109181
 10
27.21600693931564
 20
12.77467039608275
 10
26.54809257896482
 20
12.24494521373555
 10
25.92624127794851
 20
11.85340920939199
 10
25.32742150659951
 20
11.32368402704478
 10
24.72860173525052
 20
11.04730567103754
 10
24.08371890456698
 20
10.56364354802488
 10
23.62308831122158
 20
10.33332825135219
 10
23.231552306878
 20
10.03391836567767
 10
22.81698477286715
 20
9.619350831666825
 10
22.40241723885631
 20
9.38903553499415
 10
21.91875511584363
 20
9.043562589985086
 10
21.66540828950367
 20
8.859310352646935
 10
21.25084075549282
 20
8.582931996639696
 10
20.09926427212933
 20
7.753796928618002
 10
19.75379132712029
 20
7.477418572610764
 10
19.2931607337749
 20
7.316197864939873
 10
19.22406614477309
 20
6.993756449598113
 10
19.3622553227767
 20
6.717378093590874
 10
19.63863367878394
 20
6.602220445254527
 10
20.00713815346026
 20
6.8325357419272
 10
20.26048497980021
 20
7.131945627601722
 10
20.55989486547472
 20
7.362260924274415
 10
21.31993534449462
 20
7.707733869283458
 10
21.84966052684182
 20
8.122301403294307
 10
22.88607936186895
 20
8.882341882314256
 10
23.20852077721072
 20
9.342972475659646
 10
24.01462431556515
 20
9.734508480003234
 10
24.5673810275796
 20
10.05694989534501
 10
25.46561068460312
 20
10.60970660735953
 10
25.88017821861399
 20
11.07033720070492
 10
26.31777728229212
 20
11.34671555671216
 10
26.70931328663569
 20
11.30065249737762
 10
27.21600693931562
 20
11.55399932371759
 10
28.0681735370046
 20
12.17585062473387
 10
28.41364648201364
 20
12.49829204007566
 10
28.39061495234636
 20
12.77467039608289
 10
28.22939424467547
 20
13.00498569275559
 10
28.04514200733732
 20
13.05104875209013
 97
        0
 75
     0
 76
     1
 98
        0
  0
LINE
  5
78
330
1F
100
AcDbEntity
  8
Doc_ Finishes
  6
Continuous
100
AcDbLine
 10
27.6536064122738
 20
13.12014211250983
 30
0.0
 11
27.21600708103855
 21
12.77467151848938
 31
0.0
  0
LINE
  5
79
330
1F
100
AcDbEntity
  8
Doc_ Finishes
  6
Continuous
100
AcDbLine
 10
27.21600708103855
 20
12.77467151848938
 30
0.0
 11
26.54809254523997
 21
12.24494345003934
 31
0.0
  0
LINE
  5
7A
330
1F
100
AcDbEntity
  8
Doc_ Finishes
  6
Continuous
100
AcDbLine
 10
26.54809254523997
 20
12.24494345003934
 30
0.0
 11
25.92624016522423
 21
11.85341070023603
 31
0.0
  0
LINE
  5
7B
330
1F
100
AcDbEntity
  8
Doc_ Finishes
  6
Continuous
100
AcDbLine
 10
25.92624016522423
 20
11.85341070023603
 30
0.0
 11
25.32742328874902
 21
11.32368263178599
 31
0.0
  0
LINE
  5
7C
330
1F
100
AcDbEntity
  8
Doc_ Finishes
  6
Continuous
100
AcDbLine
 10
25.32742328874902
 20
11.32368263178599
 30
0.0
 11
24.72860198662471
 21
11.04730527143981
 31
0.0
  0
LINE
  5
7D
330
1F
100
AcDbEntity
  8
Doc_ Finishes
  6
Continuous
100
AcDbLine
 10
24.72860198662471
 20
11.04730527143981
 30
0.0
 11
24.08371852871754
 21
10.56364378442171
 31
0.0
  0
LINE
  5
7E
330
1F
100
AcDbEntity
  8
Doc_ Finishes
  6
Continuous
100
AcDbLine
 10
24.08371852871754
 20
10.56364378442171
 30
0.0
 11
23.62308811959087
 21
10.33332857985838
 31
0.0
  0
LINE
  5
7F
330
1F
100
AcDbEntity
  8
Doc_ Finishes
  6
Continuous
100
AcDbLine
 10
23.62308811959087
 20
10.33332857985838
 30
0.0
 11
23.23155094413847
 21
10.03392014162077
 31
0.0
  0
LINE
  5
80
330
1F
100
AcDbEntity
  8
Doc_ Finishes
  6
Continuous
100
AcDbLine
 10
23.23155094413847
 20
10.03392014162077
 30
0.0
 11
22.81698269079465
 21
9.619351888276947
 31
0.0
  0
LINE
  5
81
330
1F
100
AcDbEntity
  8
Doc_ Finishes
  6
Continuous
100
AcDbLine
 10
22.81698269079465
 20
9.619351888276947
 30
0.0
 11
22.40241886309992
 21
9.389036683713611
 31
0.0
  0
LINE
  5
82
330
1F
100
AcDbEntity
  8
Doc_ Finishes
  6
Continuous
100
AcDbLine
 10
22.40241886309992
 20
9.389036683713611
 30
0.0
 11
21.91875295043273
 21
9.04356166404406
 31
0.0
  0
LINE
  5
83
330
1F
100
AcDbEntity
  8
Doc_ Finishes
  6
Continuous
100
AcDbLine
 10
21.91875295043273
 20
9.04356166404406
 30
0.0
 11
21.66540666797797
 21
8.859308615263572
 31
0.0
  0
LINE
  5
84
330
1F
100
AcDbEntity
  8
Doc_ Finishes
  6
Continuous
100
AcDbLine
 10
21.66540666797797
 20
8.859308615263572
 30
0.0
 11
21.25084284028324
 21
8.582931254917387
 31
0.0
  0
LINE
  5
85
330
1F
100
AcDbEntity
  8
Doc_ Finishes
  6
Continuous
100
AcDbLine
 10
21.25084284028324
 20
8.582931254917387
 30
0.0
 11
20.09926239181747
 21
7.75379474822974
 31
0.0
  0
LINE
  5
86
330
1F
100
AcDbEntity
  8
Doc_ Finishes
  6
Continuous
100
AcDbLine
 10
20.09926239181747
 20
7.75379474822974
 30
0.0
 11
19.75379179779701
 21
7.477417387883556
 31
0.0
  0
LINE
  5
87
330
1F
100
AcDbEntity
  8
Doc_ Finishes
  6
Continuous
100
AcDbLine
 10
19.75379179779701
 20
7.477417387883556
 30
0.0
 11
19.29316138867033
 21
7.316199842643588
 31
0.0
  0
LINE
  5
88
330
1F
100
AcDbEntity
  8
Doc_ Finishes
  6
Continuous
100
AcDbLine
 10
19.29316138867033
 20
7.316199842643588
 30
0.0
 11
19.22406815499606
 21
6.993755900865461
 31
0.0
  0
LINE
  5
89
330
1F
100
AcDbEntity
  8
Doc_ Finishes
  6
Continuous
100
AcDbLine
 10
19.22406815499606
 20
6.993755900865461
 30
0.0
 11
19.36225462234461
 21
6.717378540519276
 31
0.0
  0
LINE
  5
8A
330
1F
100
AcDbEntity
  8
Doc_ Finishes
  6
Continuous
100
AcDbLine
 10
19.36225462234461
 20
6.717378540519276
 30
0.0
 11
19.63863198269079
 21
6.602218725413059
 31
0.0
  0
LINE
  5
8B
330
1F
100
AcDbEntity
  8
Doc_ Finishes
  6
Continuous
100
AcDbLine
 10
19.63863198269079
 20
6.602218725413059
 30
0.0
 11
20.00713808025177
 21
6.832533929976396
 31
0.0
  0
LINE
  5
8C
330
1F
100
AcDbEntity
  8
Doc_ Finishes
  6
Continuous
100
AcDbLine
 10
20.00713808025177
 20
6.832533929976396
 30
0.0
 11
20.26048436270653
 21
7.1319467938631
 31
0.0
  0
LINE
  5
8D
330
1F
100
AcDbEntity
  8
Doc_ Finishes
  6
Continuous
100
AcDbLine
 10
20.26048436270653
 20
7.1319467938631
 30
0.0
 11
20.55989280094414
 21
7.362261998426435
 31
0.0
  0
LINE
  5
8E
330
1F
100
AcDbEntity
  8
Doc_ Finishes
  6
Continuous
100
AcDbLine
 10
20.55989280094414
 20
7.362261998426435
 30
0.0
 11
21.31993607395751
 21
7.707732592446892
 31
0.0
  0
LINE
  5
8F
330
1F
100
AcDbEntity
  8
Doc_ Finishes
  6
Continuous
100
AcDbLine
 10
21.31993607395751
 20
7.707732592446892
 30
0.0
 11
21.84965971675846
 21
8.122300845790717
 31
0.0
  0
LINE
  5
90
330
1F
100
AcDbEntity
  8
Doc_ Finishes
  6
Continuous
100
AcDbLine
 10
21.84965971675846
 20
8.122300845790717
 30
0.0
 11
22.88608035011802
 21
8.882339693154996
 31
0.0
  0
LINE
  5
91
330
1F
100
AcDbEntity
  8
Doc_ Finishes
  6
Continuous
100
AcDbLine
 10
22.88608035011802
 20
8.882339693154996
 30
0.0
 11
23.20851986624705
 21
9.342974527930762
 31
0.0
  0
LINE
  5
92
330
1F
100
AcDbEntity
  8
Doc_ Finishes
  6
Continuous
100
AcDbLine
 10
23.20851986624705
 20
9.342974527930762
 30
0.0
 11
24.01462529504327
 21
9.734507277734066
 31
0.0
  0
LINE
  5
93
330
1F
100
AcDbEntity
  8
Doc_ Finishes
  6
Continuous
100
AcDbLine
 10
24.01462529504327
 20
9.734507277734066
 30
0.0
 11
24.56738001573564
 21
10.05695121951219
 31
0.0
  0
LINE
  5
94
330
1F
100
AcDbEntity
  8
Doc_ Finishes
  6
Continuous
100
AcDbLine
 10
24.56738001573564
 20
10.05695121951219
 30
0.0
 11
25.46560975609756
 21
10.60970594020456
 31
0.0
  0
LINE
  5
95
330
1F
100
AcDbEntity
  8
Doc_ Finishes
  6
Continuous
100
AcDbLine
 10
25.46560975609756
 20
10.60970594020456
 30
0.0
 11
25.88017800944139
 21
11.07033634933124
 31
0.0
  0
LINE
  5
96
330
1F
100
AcDbEntity
  8
Doc_ Finishes
  6
Continuous
100
AcDbLine
 10
25.88017800944139
 20
11.07033634933124
 30
0.0
 11
26.31777734067663
 21
11.34671370967742
 31
0.0
  0
LINE
  5
97
330
1F
100
AcDbEntity
  8
Doc_ Finishes
  6
Continuous
100
AcDbLine
 10
26.31777734067663
 20
11.34671370967742
 30
0.0
 11
26.70931451612903
 21
11.30065155389457
 31
0.0
  0
LINE
  5
98
330
1F
100
AcDbEntity
  8
Doc_ Finishes
  6
Continuous
100
AcDbLine
 10
26.70931451612903
 20
11.30065155389457
 30
0.0
 11
27.21600708103855
 21
11.55399783634933
 31
0.0
  0
LINE
  5
99
330
1F
100
AcDbEntity
  8
Doc_ Finishes
  6
Continuous
100
AcDbLine
 10
27.21600708103855
 20
11.55399783634933
 30
0.0
 11
28.06817466561763
 21
12.17585021636507
 31
0.0
  0
LINE
  5
9A
330
1F
100
AcDbEntity
  8
Doc_ Finishes
  6
Continuous
100
AcDbLine
 10
28.06817466561763
 20
12.17585021636507
 30
0.0
 11
28.41364525963808
 21
12.49829415814319
 31
0.0
  0
LINE
  5
9B
330
1F
100
AcDbEntity
  8
Doc_ Finishes
  6
Continuous
100
AcDbLine
 10
28.41364525963808
 20
12.49829415814319
 30
0.0
 11
28.39061418174666
 21
12.77467151848938
 31
0.0
  0
LINE
  5
9C
330
1F
100
AcDbEntity
  8
Doc_ Finishes
  6
Continuous
100
AcDbLine
 10
28.39061418174666
 20
12.77467151848938
 30
0.0
 11
28.22939221085759
 21
13.00498672305271
 31
0.0
  0
LINE
  5
9D
330
1F
100
AcDbEntity
  8
Doc_ Finishes
  6
Continuous
100
AcDbLine
 10
28.22939221085759
 20
13.00498672305271
 30
0.0
 11
28.04514358772619
 21
13.05104887883556
 31
0.0
  0
LINE
  5
9E
330
1F
100
AcDbEntity
  8
Doc_ Finishes
  6
Continuous
100
AcDbLine
 10
28.04514358772619
 20
13.05104887883556
 30
0.0
 11
27.6536064122738
 21
13.12014211250983
 31
0.0
  0
HATCH
  5
9F
330
1F
100
AcDbEntity
  8
Doc_ Finishes
  6
Continuous
100
AcDbHatch
 10
0.0
 20
0.0
 30
0.0
210
0.0
220
0.0
230
1.0
  2
SOLID
 70
     1
 71
     0
 91
        1
 92
        3
 72
     0
 73
     1
 93
       47
 10
28.06817353700456
 20
15.74573772316067
 10
28.30309513961077
 20
15.62136746295728
 10
28.4412843176144
 20
15.4002647781515
 10
28.93876535842742
 20
15.17916209334572
 10
29.82317609765057
 20
14.40530269652538
 10
30.92868952167951
 20
13.74199464210799
 10
31.59199757609689
 20
13.3827027792986
 10
32.20002995931279
 20
13.07868658769064
 10
33.55428390374828
 20
12.08372450606458
 10
34.07940278016201
 20
11.69679480765445
 10
34.88090001258301
 20
11.08876242443854
 10
35.59948373820179
 20
10.50836787682334
 10
36.5668079842271
 20
9.817421986805197
 10
37.06428902504012
 20
9.458130123995785
 10
37.81051058625966
 20
8.933011247582023
 10
38.61200781868061
 20
8.407892371168286
 10
38.77783483228498
 20
8.186789686362482
 10
39.38586721550092
 20
7.744584316750918
 10
40.18736444792187
 20
6.915449248729224
 10
40.7953968311378
 20
6.44560604351692
 10
41.56925622795804
 20
6.169227687509681
 10
42.23256428237543
 20
6.086314180707507
 10
42.48130480278193
 20
6.30741686551329
 10
42.14965077557326
 20
6.611433057121246
 10
41.48634272115586
 20
6.998362755531397
 10
40.76775899553709
 20
7.357654618340788
 10
40.18736444792187
 20
8.048600508358874
 10
38.99893751709079
 20
8.822459905179112
 10
38.47381864067705
 20
9.319940945992132
 10
38.22507812027052
 20
9.734508480003
 10
37.17484036744301
 20
10.31490302761817
 10
36.73263499783144
 20
10.78474623283046
 10
36.2351539570184
 20
11.17167593124059
 10
35.48893239579888
 20
11.61388130085215
 10
34.85326217698223
 20
12.16663801286669
 10
34.35578113616919
 20
12.58120554687754
 10
33.69247308175183
 20
12.99577308088841
 10
33.22262987653953
 20
13.32742710809708
 10
32.7251488357265
 20
13.5761676285036
 10
31.93747052110588
 20
14.06443605744977
 10
31.43077686842594
 20
14.38687747279155
 10
30.92408321574601
 20
14.70931888813342
 10
30.62467333007151
 20
15.100854892477
 10
29.95675896972068
 20
15.67664313415887
 10
29.47309684670803
 20
15.9530214901661
 10
28.82821401602447
 20
16.36758902417695
 10
28.50577260068269
 20
16.22939984617334
 97
        0
 75
     0
 76
     1
 98
        0
  0
LINE
  5
A0
330
1F
100
AcDbEntity
  8
Doc_ Finishes
  6
Continuous
100
AcDbLine
 10
28.30309697088906
 20
15.62136850904799
 30
0.0
 11
28.06817466561763
 21
15.74573809992132
 31
0.0
  0
LINE
  5
A1
330
1F
100
AcDbEntity
  8
Doc_ Finishes
  6
Continuous
100
AcDbLine
 10
28.44128343823761
 20
15.40026308025177
 30
0.0
 11
28.30309697088906
 21
15.62136850904799
 31
0.0
  0
LINE
  5
A2
330
1F
100
AcDbEntity
  8
Doc_ Finishes
  6
Continuous
100
AcDbLine
 10
28.93876622738001
 20
15.17916207710464
 30
0.0
 11
28.44128343823761
 21
15.40026308025177
 31
0.0
  0
LINE
  5
A3
330
1F
100
AcDbEntity
  8
Doc_ Finishes
  6
Continuous
100
AcDbLine
 10
29.82317466561762
 20
14.40530192761605
 30
0.0
 11
28.93876622738001
 21
15.17916207710464
 31
0.0
  0
LINE
  5
A4
330
1F
100
AcDbEntity
  8
Doc_ Finishes
  6
Continuous
100
AcDbLine
 10
30.92868853265146
 20
13.74199449252557
 30
0.0
 11
29.82317466561762
 21
14.40530192761605
 31
0.0
  0
LINE
  5
A5
330
1F
100
AcDbEntity
  8
Doc_ Finishes
  6
Continuous
100
AcDbLine
 10
31.59199596774193
 20
13.3827025963808
 30
0.0
 11
30.92868853265146
 21
13.74199449252557
 31
0.0
  0
LINE
  5
A6
330
1F
100
AcDbEntity
  8
Doc_ Finishes
  6
Continuous
100
AcDbLine
 10
32.20003147128246
 20
13.07868705743509
 30
0.0
 11
31.59199596774193
 21
13.3827025963808
 31
0.0
  0
LINE
  5
A7
330
1F
100
AcDbEntity
  8
Doc_ Finishes
  6
Continuous
100
AcDbLine
 10
33.55428452006294
 20
12.08372590479937
 30
0.0
 11
32.20003147128246
 21
13.07868705743509
 31
0.0
  0
LINE
  5
A8
330
1F
100
AcDbEntity
  8
Doc_ Finishes
  6
Continuous
100
AcDbLine
 10
34.07940106215578
 20
11.69679583005508
 30
0.0
 11
33.55428452006294
 21
12.08372590479937
 31
0.0
  0
LINE
  5
A9
330
1F
100
AcDbEntity
  8
Doc_ Finishes
  6
Continuous
100
AcDbLine
 10
34.8808993902439
 20
11.08876032651456
 30
0.0
 11
34.07940106215578
 21
11.69679583005508
 31
0.0
  0
LINE
  5
AA
330
1F
100
AcDbEntity
  8
Doc_ Finishes
  6
Continuous
100
AcDbLine
 10
35.59948318253343
 20
10.50836742722266
 30
0.0
 11
34.8808993902439
 21
11.08876032651456
 31
0.0
  0
LINE
  5
AB
330
1F
100
AcDbEntity
  8
Doc_ Finishes
  6
Continuous
100
AcDbLine
 10
36.56680615656963
 20
9.817421813532652
 30
0.0
 11
35.59948318253343
 21
10.50836742722266
 31
0.0
  0
LINE
  5
AC
330
1F
100
AcDbEntity
  8
Doc_ Finishes
  6
Continuous
100
AcDbLine
 10
37.06428894571204
 20
9.458129917387884
 30
0.0
 11
36.56680615656963
 21
9.817421813532652
 31
0.0
  0
LINE
  5
AD
330
1F
100
AcDbEntity
  8
Doc_ Finishes
  6
Continuous
100
AcDbLine
 10
37.8105109166011
 20
8.933013375295044
 30
0.0
 11
37.06428894571204
 21
9.458129917387884
 31
0.0
  0
LINE
  5
AE
330
1F
100
AcDbEntity
  8
Doc_ Finishes
  6
Continuous
100
AcDbLine
 10
38.61200924468922
 20
8.407892407553108
 30
0.0
 11
37.8105109166011
 21
8.933013375295044
 31
0.0
  0
LINE
  5
AF
330
1F
100
AcDbEntity
  8
Doc_ Finishes
  6
Continuous
100
AcDbLine
 10
38.77783389063729
 20
8.18679140440598
 30
0.0
 11
38.61200924468922
 21
8.407892407553108
 31
0.0
  0
LINE
  5
B0
330
1F
100
AcDbEntity
  8
Doc_ Finishes
  6
Continuous
100
AcDbLine
 10
39.3858693941778
 20
7.744584972462627
 30
0.0
 11
38.77783389063729
 21
8.18679140440598
 31
0.0
  0
LINE
  5
B1
330
1F
100
AcDbEntity
  8
Doc_ Finishes
  6
Continuous
100
AcDbLine
 10
40.18736329661684
 20
6.915448465774981
 30
0.0
 11
39.3858693941778
 21
7.744584972462627
 31
0.0
  0
LINE
  5
B2
330
1F
100
AcDbEntity
  8
Doc_ Finishes
  6
Continuous
100
AcDbLine
 10
40.79539880015735
 20
6.4456038552321
 30
0.0
 11
40.18736329661684
 21
6.915448465774981
 31
0.0
  0
LINE
  5
B3
330
1F
100
AcDbEntity
  8
Doc_ Finishes
  6
Continuous
100
AcDbLine
 10
41.56925452399685
 20
6.169226494885916
 30
0.0
 11
40.79539880015735
 21
6.4456038552321
 31
0.0
  0
LINE
  5
B4
330
1F
100
AcDbEntity
  8
Doc_ Finishes
  6
Continuous
100
AcDbLine
 10
42.23256638473643
 20
6.086316384736428
 30
0.0
 11
41.56925452399685
 21
6.169226494885916
 31
0.0
  0
LINE
  5
B5
330
1F
100
AcDbEntity
  8
Doc_ Finishes
  6
Continuous
100
AcDbLine
 10
42.48130556648308
 20
6.307417387883556
 30
0.0
 11
42.23256638473643
 21
6.086316384736428
 31
0.0
  0
LINE
  5
B6
330
1F
100
AcDbEntity
  8
Doc_ Finishes
  6
Continuous
100
AcDbLine
 10
42.14965184893784
 20
6.611432926829268
 30
0.0
 11
42.48130556648308
 21
6.307417387883556
 31
0.0
  0
LINE
  5
B7
330
1F
100
AcDbEntity
  8
Doc_ Finishes
  6
Continuous
100
AcDbLine
 10
41.48634441384736
 20
6.998363001573564
 30
0.0
 11
42.14965184893784
 21
6.611432926829268
 31
0.0
  0
LINE
  5
B8
330
1F
100
AcDbEntity
  8
Doc_ Finishes
  6
Continuous
100
AcDbLine
 10
40.76776062155783
 20
7.357654897718332
 30
0.0
 11
41.48634441384736
 21
6.998363001573564
 31
0.0
  0
LINE
  5
B9
330
1F
100
AcDbEntity
  8
Doc_ Finishes
  6
Continuous
100
AcDbLine
 10
40.18736329661684
 20
8.048600511408338
 30
0.0
 11
40.76776062155783
 21
7.357654897718332
 31
0.0
  0
LINE
  5
BA
330
1F
100
AcDbEntity
  8
Doc_ Finishes
  6
Continuous
100
AcDbLine
 10
38.99893931943352
 20
8.822460660896931
 30
0.0
 11
40.18736329661684
 21
8.048600511408338
 31
0.0
  0
LINE
  5
BB
330
1F
100
AcDbEntity
  8
Doc_ Finishes
  6
Continuous
100
AcDbLine
 10
38.47381835169158
 20
9.319939024390242
 30
0.0
 11
38.99893931943352
 21
8.822460660896931
 31
0.0
  0
LINE
  5
BC
330
1F
100
AcDbEntity
  8
Doc_ Finishes
  6
Continuous
100
AcDbLine
 10
38.22507916994492
 20
9.734507277734066
 30
0.0
 11
38.47381835169158
 21
9.319939024390242
 31
0.0
  0
LINE
  5
BD
330
1F
100
AcDbEntity
  8
Doc_ Finishes
  6
Continuous
100
AcDbLine
 10
37.17484166011014
 20
10.31490460267506
 30
0.0
 11
38.22507916994492
 21
9.734507277734066
 31
0.0
  0
LINE
  5
BE
330
1F
100
AcDbEntity
  8
Doc_ Finishes
  6
Continuous
100
AcDbLine
 10
36.7326352281668
 20
10.78474478756884
 30
0.0
 11
37.17484166011014
 21
10.31490460267506
 31
0.0
  0
LINE
  5
BF
330
1F
100
AcDbEntity
  8
Doc_ Finishes
  6
Continuous
100
AcDbLine
 10
36.23515243902439
 20
11.17167486231314
 30
0.0
 11
36.7326352281668
 21
10.78474478756884
 31
0.0
  0
LINE
  5
C0
330
1F
100
AcDbEntity
  8
Doc_ Finishes
  6
Continuous
100
AcDbLine
 10
35.48893046813532
 20
11.61388129425649
 30
0.0
 11
36.23515243902439
 21
11.17167486231314
 31
0.0
  0
LINE
  5
C1
330
1F
100
AcDbEntity
  8
Doc_ Finishes
  6
Continuous
100
AcDbLine
 10
34.85326121164437
 20
12.16663601494886
 30
0.0
 11
35.48893046813532
 21
11.61388129425649
 31
0.0
  0
LINE
  5
C2
330
1F
100
AcDbEntity
  8
Doc_ Finishes
  6
Continuous
100
AcDbLine
 10
34.35578284815106
 20
12.58120426829268
 30
0.0
 11
34.85326121164437
 21
12.16663601494886
 31
0.0
  0
LINE
  5
C3
330
1F
100
AcDbEntity
  8
Doc_ Finishes
  6
Continuous
100
AcDbLine
 10
33.69247098741149
 20
12.99577252163651
 30
0.0
 11
34.35578284815106
 21
12.58120426829268
 31
0.0
  0
LINE
  5
C4
330
1F
100
AcDbEntity
  8
Doc_ Finishes
  6
Continuous
100
AcDbLine
 10
33.2226308025177
 20
13.32742623918175
 30
0.0
 11
33.69247098741149
 21
12.99577252163651
 31
0.0
  0
LINE
  5
C5
330
1F
100
AcDbEntity
  8
Doc_ Finishes
  6
Continuous
100
AcDbLine
 10
32.7251480133753
 20
13.5761654209284
 30
0.0
 11
33.2226308025177
 21
13.32742623918175
 31
0.0
  0
LINE
  5
C6
330
1F
100
AcDbEntity
  8
Doc_ Finishes
  6
Continuous
100
AcDbLine
 10
31.93747098741148
 20
14.0644340086546
 30
0.0
 11
32.7251480133753
 21
13.5761654209284
 31
0.0
  0
LINE
  5
C7
330
1F
100
AcDbEntity
  8
Doc_ Finishes
  6
Continuous
100
AcDbLine
 10
31.43077842250197
 20
14.38687795043273
 30
0.0
 11
31.93747098741148
 21
14.0644340086546
 31
0.0
  0
LINE
  5
C8
330
1F
100
AcDbEntity
  8
Doc_ Finishes
  6
Continuous
100
AcDbLine
 10
30.92408143194335
 20
14.70931746656176
 30
0.0
 11
31.43077842250197
 21
14.38687795043273
 31
0.0
  0
LINE
  5
C9
330
1F
100
AcDbEntity
  8
Doc_ Finishes
  6
Continuous
100
AcDbLine
 10
30.62467299370574
 20
15.10085464201416
 30
0.0
 11
30.92408143194335
 21
14.70931746656176
 31
0.0
  0
LINE
  5
CA
330
1F
100
AcDbEntity
  8
Doc_ Finishes
  6
Continuous
100
AcDbLine
 10
29.95675845790716
 20
15.67664486624705
 30
0.0
 11
30.62467299370574
 21
15.10085464201416
 31
0.0
  0
LINE
  5
CB
330
1F
100
AcDbEntity
  8
Doc_ Finishes
  6
Continuous
100
AcDbLine
 10
29.47309697088906
 20
15.95302222659323
 30
0.0
 11
29.95675845790716
 21
15.67664486624705
 31
0.0
  0
LINE
  5
CC
330
1F
100
AcDbEntity
  8
Doc_ Finishes
  6
Continuous
100
AcDbLine
 10
28.8282135129819
 20
16.36759047993706
 30
0.0
 11
29.47309697088906
 21
15.95302222659323
 31
0.0
  0
LINE
  5
CD
330
1F
100
AcDbEntity
  8
Doc_ Finishes
  6
Continuous
100
AcDbLine
 10
28.50577399685287
 20
16.22939958693942
 30
0.0
 11
28.8282135129819
 21
16.36759047993706
 31
0.0
  0
LINE
  5
CE
330
1F
100
AcDbEntity
  8
Doc_ Finishes
  6
Continuous
100
AcDbLine
 10
28.06817466561763
 20
15.74573809992132
 30
0.0
 11
28.50577399685287
 21
16.22939958693942
 31
0.0
  0
LINE
  5
CF
330
1F
100
AcDbEntity
  8
Doc_ Finishes
  6
Continuous
 62
   254
370
    18
100
AcDbLine
 10
97.43333792289535
 20
5.093360051140834
 30
0.0
 11
97.43333792289535
 21
20.69901750590086
 31
0.0
  0
LINE
  5
D0
330
1F
100
AcDbEntity
  8
Doc_ Finishes
  6
Continuous
 62
   254
370
    18
100
AcDbLine
 10
7.000000491738787
 20
20.69901750590086
 30
0.0
 11
290.2406840086546
 21
20.69901750590086
 31
0.0
  0
LINE
  5
D1
330
1F
100
AcDbEntity
  8
Doc_ Finishes
  6
Continuous
 62
   254
370
    18
100
AcDbLine
 10
290.2406840086546
 20
20.69901750590086
 30
0.0
 11
290.2406840086546
 21
5.000000983477577
 31
0.0
  0
LINE
  5
D2
330
1F
100
AcDbEntity
  8
Doc_ Finishes
  6
Continuous
 62
   254
370
    18
100
AcDbLine
 10
290.2406840086546
 20
5.000000983477577
 30
0.0
 11
7.000000491738787
 21
5.000000983477577
 31
0.0
  0
LINE
  5
D3
330
1F
100
AcDbEntity
  8
Doc_ Finishes
  6
Continuous
 62
   254
370
    18
100
AcDbLine
 10
7.000000491738787
 20
20.69901750590086
 30
0.0
 11
7.000000491738787
 21
5.000000983477577
 31
0.0
  0
LINE
  5
D4
330
1F
100
AcDbEntity
  8
Doc_ Finishes
  6
Continuous
 62
   254
370
    18
100
AcDbLine
 10
190.2919443351691
 20
5.093360051140834
 30
0.0
 11
190.2919443351691
 21
20.69901750590086
 31
0.0
  0
LINE
  5
D5
330
1F
100
AcDbEntity
  8
Doc_ Finishes
  6
Continuous
 62
   254
370
    18
100
AcDbLine
 10
190.2919443351691
 20
12.8961909913454
 30
0.0
 11
290.2406840086546
 21
12.8961909913454
 31
0.0
  0
MTEXT
  5
D7
330
1F
100
AcDbEntity
  8
0
  6
Continuous
100
AcDbMText
 10
210.3494767103412
 20
15.00228372306228
 30
0.0
 40
2.25
 41
0.0
 71
     7
 72
     1
  1
{R-TRS6-06}
  7
GENERATED_STYLE_1
 73
     1
 44
1.0
  0
MTEXT
  5
D8
330
1F
100
AcDbEntity
  8
0
  6
Continuous
100
AcDbMText
 10
210.3494767103412
 20
11.03300550383743
 30
0.0
 40
3.0
 41
0.0
 71
     1
 72
     1
  1
{BARGE DETAIL - HEAD}
  7
GENERATED_STYLE_1
 73
     1
 44
1.0
  0
MTEXT
  5
DA
330
1F
100
AcDbEntity
  8
Doc_ Floor
  6
Continuous
100
AcDbMText
 10
29.78353726544612
 20
13.33283672870609
 30
0.0
 40
5.603347280334726
 41
0.0
 71
     1
 72
     1
  1
{The Roofing Store}
  7
GENERATED_STYLE_2
 73
     1
 44
1.0
  0
MTEXT
  5
DC
102
{ACAD_XDICTIONARY
360
5AC
102
}
330
1F
100
AcDbEntity
  8
0
  6
Continuous
100
AcDbMText
 10
102.7389238446655
 20
6.378784417288156
 30
0.0
 40
1.5
 41
0.0
 71
     7
 72
     1
  1
{P: HEAD OFFICE              09 277 2717\P    ALBANY             09 972 0060\P    KATIKAIT            07 549 5190\P    WELLINGTON              04 974 5792\P    CHRISTCHURCH          03 348 6528}
  7
GENERATED_STYLE_1
 73
     1
 44
1.062946161486498
  0
MTEXT
  5
DD
330
1F
100
AcDbEntity
  8
0
  6
Continuous
100
AcDbMText
 10
149.4184566143587
 20
9.199084231526156
 30
0.0
 40
1.5
 41
0.0
 71
     7
 72
     1
  1
{WEB: www.theroofingstore.co.nz}
  7
GENERATED_STYLE_1
 73
     1
 44
1.0
  0
MTEXT
  5
DE
330
1F
100
AcDbEntity
  8
0
  6
Continuous
100
AcDbMText
 10
149.4184566143587
 20
6.620946023411263
 30
0.0
 40
1.5
 41
0.0
 71
     7
 72
     1
  1
{Copyright \U+00A9 The Roofing Store 2013}
  7
GENERATED_STYLE_1
 73
     1
 44
1.0
  0
MTEXT
  5
DF
330
1F
100
AcDbEntity
  8
0
  6
Continuous
100
AcDbMText
 10
273.9546684065315
 20
15.01595205690762
 30
0.0
 40
2.25
 41
0.0
 71
     7
 72
     1
  1
{1:5}
  7
GENERATED_STYLE_1
 73
     1
 44
1.0
  0
MTEXT
  5
E0
330
1F
100
AcDbEntity
  8
0
  6
Continuous
100
AcDbMText
 10
264.8396605309016
 20
15.51746459162148
 30
0.0
 40
1.5
 41
0.0
 71
     7
 72
     1
  1
{SCALE:}
  7
GENERATED_STYLE_1
 73
     1
 44
1.0
  0
MTEXT
  5
E1
330
1F
100
AcDbEntity
  8
0
  6
Continuous
100
AcDbMText
 10
191.5066235617487
 20
15.48695559872207
 30
0.0
 40
1.5
 41
0.0
 71
     7
 72
     1
  1
{DETAIL NUMBER:}
  7
GENERATED_STYLE_1
 73
     1
 44
1.0
  0
MTEXT
  5
E2
330
1F
100
AcDbEntity
  8
0
  6
Continuous
100
AcDbMText
 10
191.5066235617487
 20
9.005462392315325
 30
0.0
 40
1.5
 41
0.0
 71
     7
 72
     1
  1
{TITLE:}
  7
GENERATED_STYLE_1
 73
     1
 44
1.0
  0
INSERT
  5
57A
102
{ACAD_XDICTIONARY
360
57B
102
}
330
1F
100
AcDbEntity
  8
0
  6
Continuous
100
AcDbBlockReference
  2
Drawing_1_2
 10
107.2260115974659
 20
-35.16744529250214
 30
0.0
  0
ENDSEC
  0
SECTION
  2
OBJECTS
  0
DICTIONARY
  5
C
330
0
100
AcDbDictionary
281
     1
  3
ACAD_GROUP
350
D
  3
ACAD_LAYOUT
350
1A
  3
ACAD_MATERIAL
350
3B
  3
ACAD_MLEADERSTYLE
350
5A7
  3
ACAD_MLINESTYLE
350
17
  3
ACAD_PLOTSETTINGS
350
19
  3
ACAD_PLOTSTYLENAME
350
E
  3
ACAD_SCALELIST
350
581
  3
ACAD_VISUALSTYLE
350
2A
  3
AcDbVariableDictionary
350
5A5
  3
WATERMARKS
350
5A3
  0
DICTIONARY
  5
5AC
330
DC
100
AcDbDictionary
280
     1
281
     1
  3
ACAD_MTEXT_RT
360
5AD
  0
DICTIONARY
  5
57B
330
57A
100
AcDbDictionary
280
     1
281
     1
  3
ACAD_FILTER
360
57C
  0
DICTIONARY
  5
D
102
{ACAD_REACTORS
330
C
102
}
330
C
100
AcDbDictionary
281
     1
  0
DICTIONARY
  5
1A
102
{ACAD_REACTORS
330
C
102
}
330
C
100
AcDbDictionary
281
     1
  3
Layout1
350
1E
  3
Model
350
22
  0
DICTIONARY
  5
3B
102
{ACAD_REACTORS
330
C
102
}
330
C
100
AcDbDictionary
281
     1
  3
ByBlock
350
3D
  3
ByLayer
350
3C
  3
Global
350
3E
  0
DICTIONARY
  5
5A7
102
{ACAD_REACTORS
330
C
102
}
330
C
100
AcDbDictionary
281
     1
  0
DICTIONARY
  5
17
102
{ACAD_REACTORS
330
C
102
}
330
C
100
AcDbDictionary
281
     1
  3
Standard
350
18
  0
DICTIONARY
  5
19
102
{ACAD_REACTORS
330
C
102
}
330
C
100
AcDbDictionary
281
     1
  0
ACDBDICTIONARYWDFLT
  5
E
102
{ACAD_REACTORS
330
C
102
}
330
C
100
AcDbDictionary
281
     1
  3
Normal
350
F
100
AcDbDictionaryWithDefault
340
F
  0
DICTIONARY
  5
581
102
{ACAD_REACTORS
330
C
102
}
330
C
100
AcDbDictionary
281
     1
  3
A0
350
582
  3
A1
350
583
  3
A2
350
584
  3
A3
350
585
  3
A4
350
586
  3
A5
350
587
  3
A6
350
588
  3
A7
350
589
  3
A8
350
58A
  3
A9
350
58B
  3
B0
350
58C
  3
B1
350
58D
  3
B2
350
58E
  3
B3
350
58F
  3
B4
350
590
  3
B5
350
591
  3
B6
350
592
  3
B7
350
593
  3
B8
350
594
  3
B9
350
595
  3
C0
350
596
  3
C1
350
597
  3
C2
350
598
  3
C3
350
599
  3
C4
350
59A
  3
C5
350
59B
  3
C6
350
59C
  3
C7
350
59D
  3
C8
350
59E
  3
C9
350
59F
  3
D0
350
5A0
  3
D1
350
5A1
  3
D2
350
5A2
  0
DICTIONARY
  5
2A
102
{ACAD_REACTORS
330
C
102
}
330
C
100
AcDbDictionary
281
     1
  3
2dWireframe
350
2F
  3
3D Hidden
350
31
  3
3dWireframe
350
30
  3
Basic
350
32
  3
Brighten
350
36
  3
ColorChange
350
3A
  3
Conceptual
350
34
  3
Dim
350
35
  3
Facepattern
350
39
  3
Flat
350
2B
  3
FlatWithEdges
350
2C
  3
Gouraud
350
2D
  3
GouraudWithEdges
350
2E
  3
Linepattern
350
38
  3
Realistic
350
33
  3
Thicken
350
37
  0
DICTIONARY
  5
5A5
102
{ACAD_REACTORS
330
C
102
}
330
C
100
AcDbDictionary
281
     1
  3
CANNOSCALE
350
5A9
  3
DIMASSOC
350
5AA
  3
HIDETEXT
350
5AB
  3
XCLIPFRAME
350
5A8
  0
DICTIONARY
  5
5A3
102
{ACAD_REACTORS
330
C
102
}
330
C
100
AcDbDictionary
281
     1
  3
AC_WATERMARK
350
5A4
  0
XRECORD
  5
5AD
102
{ACAD_REACTORS
330
5AC
102
}
330
5AC
100
AcDbXrecord
280
     1
 40
956118.0
  1
{P: HEAD OFFICE ^I^I09 277 2717\P    ALBANY ^I^I09 972 0060\P    KATIKAIT^I^I07 549 5190\P    WELLINGTON^I^I04 974 5792\P    CHRISTCHURCH^I^I03 348 6528}
  0
DICTIONARY
  5
57C
102
{ACAD_REACTORS
330
57B
102
}
330
57B
100
AcDbDictionary
280
     1
281
     1
  3
SPATIAL
360
57D
  0
LAYOUT
  5
1E
102
{ACAD_REACTORS
330
1A
102
}
330
1A
100
AcDbPlotSettings
  1

  2
none_device
  4

  6

 40
0.0
 41
0.0
 42
0.0
 43
0.0
 44
0.0
 45
0.0
 46
0.0
 47
0.0
 48
0.0
 49
0.0
140
0.0
141
0.0
142
1.0
143
1.0
 70
   688
 72
     0
 73
     0
 74
     5
  7

 75
    16
147
1.0
148
0.0
149
0.0
100
AcDbLayout
  1
Layout1
 70
     1
 71
     1
 10
0.0
 20
0.0
 11
12.0
 21
9.0
 12
0.0
 22
0.0
 32
0.0
 14
1.000000000000000E+20
 24
1.000000000000000E+20
 34
1.000000000000000E+20
 15
-1.000000000000000E+20
 25
-1.000000000000000E+20
 35
-1.000000000000000E+20
146
0.0
 13
0.0
 23
0.0
 33
0.0
 16
1.0
 26
0.0
 36
0.0
 17
0.0
 27
1.0
 37
0.0
 76
     0
330
1B
  0
LAYOUT
  5
22
102
{ACAD_REACTORS
330
1A
102
}
330
1A
100
AcDbPlotSettings
  1

  2
none_device
  4

  6

 40
0.0
 41
0.0
 42
0.0
 43
0.0
 44
0.0
 45
0.0
 46
0.0
 47
0.0
 48
0.0
 49
0.0
140
0.0
141
0.0
142
1.0
143
1.0
 70
  1712
 72
     0
 73
     0
 74
     0
  7

 75
     0
147
1.0
148
0.0
149
0.0
100
AcDbLayout
  1
Model
 70
     1
 71
     0
 10
0.0
 20
0.0
 11
12.0
 21
9.0
 12
0.0
 22
0.0
 32
0.0
 14
1.000000000000000E+20
 24
1.000000000000000E+20
 34
1.000000000000000E+20
 15
-1.000000000000000E+20
 25
-1.000000000000000E+20
 35
-1.000000000000000E+20
146
0.0
 13
0.0
 23
0.0
 33
0.0
 16
1.0
 26
0.0
 36
0.0
 17
0.0
 27
1.0
 37
0.0
 76
     0
330
1F
331
29
  0
MATERIAL
  5
3D
102
{ACAD_REACTORS
330
3B
102
}
102
{ACAD_XDICTIONARY
360
5D0
102
}
330
3B
100
AcDbMaterial
  1
ByBlock
  0
MATERIAL
  5
3C
102
{ACAD_REACTORS
330
3B
102
}
102
{ACAD_XDICTIONARY
360
5CE
102
}
330
3B
100
AcDbMaterial
  1
ByLayer
  0
MATERIAL
  5
3E
102
{ACAD_REACTORS
330
3B
102
}
102
{ACAD_XDICTIONARY
360
5D2
102
}
330
3B
100
AcDbMaterial
  1
Global
  0
MLINESTYLE
  5
18
102
{ACAD_REACTORS
330
17
102
}
330
17
100
AcDbMlineStyle
  2
Standard
 70
     0
  3

 62
   256
 51
90.0
 52
90.0
 71
     2
 49
0.5
 62
   256
  6
BYLAYER
 49
-0.5
 62
   256
  6
BYLAYER
  0
ACDBPLACEHOLDER
  5
F
102
{ACAD_REACTORS
330
E
102
}
330
E
  0
SCALE
  5
582
102
{ACAD_REACTORS
330
581
102
}
330
581
100
AcDbScale
 70
     0
300
1:1
140
1.0
141
1.0
290
     1
  0
SCALE
  5
583
102
{ACAD_REACTORS
330
581
102
}
330
581
100
AcDbScale
 70
     0
300
1:2
140
1.0
141
2.0
290
     0
  0
SCALE
  5
584
102
{ACAD_REACTORS
330
581
102
}
330
581
100
AcDbScale
 70
     0
300
1:4
140
1.0
141
4.0
290
     0
  0
SCALE
  5
585
102
{ACAD_REACTORS
330
581
102
}
330
581
100
AcDbScale
 70
     0
300
1:5
140
1.0
141
5.0
290
     0
  0
SCALE
  5
586
102
{ACAD_REACTORS
330
581
102
}
330
581
100
AcDbScale
 70
     0
300
1:8
140
1.0
141
8.0
290
     0
  0
SCALE
  5
587
102
{ACAD_REACTORS
330
581
102
}
330
581
100
AcDbScale
 70
     0
300
1:10
140
1.0
141
10.0
290
     0
  0
SCALE
  5
588
102
{ACAD_REACTORS
330
581
102
}
330
581
100
AcDbScale
 70
     0
300
1:16
140
1.0
141
16.0
290
     0
  0
SCALE
  5
589
102
{ACAD_REACTORS
330
581
102
}
330
581
100
AcDbScale
 70
     0
300
1:20
140
1.0
141
20.0
290
     0
  0
SCALE
  5
58A
102
{ACAD_REACTORS
330
581
102
}
330
581
100
AcDbScale
 70
     0
300
1:30
140
1.0
141
30.0
290
     0
  0
SCALE
  5
58B
102
{ACAD_REACTORS
330
581
102
}
330
581
100
AcDbScale
 70
     0
300
1:40
140
1.0
141
40.0
290
     0
  0
SCALE
  5
58C
102
{ACAD_REACTORS
330
581
102
}
330
581
100
AcDbScale
 70
     0
300
1:50
140
1.0
141
50.0
290
     0
  0
SCALE
  5
58D
102
{ACAD_REACTORS
330
581
102
}
330
581
100
AcDbScale
 70
     0
300
1:100
140
1.0
141
100.0
290
     0
  0
SCALE
  5
58E
102
{ACAD_REACTORS
330
581
102
}
330
581
100
AcDbScale
 70
     0
300
2:1
140
2.0
141
1.0
290
     0
  0
SCALE
  5
58F
102
{ACAD_REACTORS
330
581
102
}
330
581
100
AcDbScale
 70
     0
300
4:1
140
4.0
141
1.0
290
     0
  0
SCALE
  5
590
102
{ACAD_REACTORS
330
581
102
}
330
581
100
AcDbScale
 70
     0
300
8:1
140
8.0
141
1.0
290
     0
  0
SCALE
  5
591
102
{ACAD_REACTORS
330
581
102
}
330
581
100
AcDbScale
 70
     0
300
10:1
140
10.0
141
1.0
290
     0
  0
SCALE
  5
592
102
{ACAD_REACTORS
330
581
102
}
330
581
100
AcDbScale
 70
     0
300
100:1
140
100.0
141
1.0
290
     0
  0
SCALE
  5
593
102
{ACAD_REACTORS
330
581
102
}
330
581
100
AcDbScale
 70
     0
300
1/128" = 1'-0"
140
0.0078125
141
12.0
290
     0
  0
SCALE
  5
594
102
{ACAD_REACTORS
330
581
102
}
330
581
100
AcDbScale
 70
     0
300
1/64" = 1'-0"
140
0.015625
141
12.0
290
     0
  0
SCALE
  5
595
102
{ACAD_REACTORS
330
581
102
}
330
581
100
AcDbScale
 70
     0
300
1/32" = 1'-0"
140
0.03125
141
12.0
290
     0
  0
SCALE
  5
596
102
{ACAD_REACTORS
330
581
102
}
330
581
100
AcDbScale
 70
     0
300
1/16" = 1'-0"
140
0.0625
141
12.0
290
     0
  0
SCALE
  5
597
102
{ACAD_REACTORS
330
581
102
}
330
581
100
AcDbScale
 70
     0
300
3/32" = 1'-0"
140
0.09375
141
12.0
290
     0
  0
SCALE
  5
598
102
{ACAD_REACTORS
330
581
102
}
330
581
100
AcDbScale
 70
     0
300
1/8" = 1'-0"
140
0.125
141
12.0
290
     0
  0
SCALE
  5
599
102
{ACAD_REACTORS
330
581
102
}
330
581
100
AcDbScale
 70
     0
300
3/16" = 1'-0"
140
0.1875
141
12.0
290
     0
  0
SCALE
  5
59A
102
{ACAD_REACTORS
330
581
102
}
330
581
100
AcDbScale
 70
     0
300
1/4" = 1'-0"
140
0.25
141
12.0
290
     0
  0
SCALE
  5
59B
102
{ACAD_REACTORS
330
581
102
}
330
581
100
AcDbScale
 70
     0
300
3/8" = 1'-0"
140
0.375
141
12.0
290
     0
  0
SCALE
  5
59C
102
{ACAD_REACTORS
330
581
102
}
330
581
100
AcDbScale
 70
     0
300
1/2" = 1'-0"
140
0.5
141
12.0
290
     0
  0
SCALE
  5
59D
102
{ACAD_REACTORS
330
581
102
}
330
581
100
AcDbScale
 70
     0
300
3/4" = 1'-0"
140
0.75
141
12.0
290
     0
  0
SCALE
  5
59E
102
{ACAD_REACTORS
330
581
102
}
330
581
100
AcDbScale
 70
     0
300
1" = 1'-0"
140
1.0
141
12.0
290
     0
  0
SCALE
  5
59F
102
{ACAD_REACTORS
330
581
102
}
330
581
100
AcDbScale
 70
     0
300
1-1/2" = 1'-0"
140
1.5
141
12.0
290
     0
  0
SCALE
  5
5A0
102
{ACAD_REACTORS
330
581
102
}
330
581
100
AcDbScale
 70
     0
300
3" = 1'-0"
140
3.0
141
12.0
290
     0
  0
SCALE
  5
5A1
102
{ACAD_REACTORS
330
581
102
}
330
581
100
AcDbScale
 70
     0
300
6" = 1'-0"
140
6.0
141
12.0
290
     0
  0
SCALE
  5
5A2
102
{ACAD_REACTORS
330
581
102
}
330
581
100
AcDbScale
 70
     0
300
1'-0" = 1'-0"
140
12.0
141
12.0
290
     0
  0
VISUALSTYLE
  5
2F
102
{ACAD_REACTORS
330
2A
102
}
102
{ACAD_XDICTIONARY
360
5B6
102
}
330
2A
100
AcDbVisualStyle
  2
2dWireframe
 70
     4
 71
     0
 72
     2
 73
     0
 90
        0
 40
-0.6
 41
-30.0
 62
     5
 63
     7
 74
     1
 91
        4
 64
     7
 65
   257
 75
     1
175
     1
 42
1.0
 92
        0
 66
   257
 43
1.0
 76
     1
 77
     6
 78
     2
 67
     7
 79
     5
170
     0
171
     0
290
     0
174
     0
 93
        1
 44
0.0
173
     0
291
     0
 45
0.0
1001
ACAD
1000
AcDbSavedByObjectVersion
1070
     0
  0
VISUALSTYLE
  5
31
102
{ACAD_REACTORS
330
2A
102
}
102
{ACAD_XDICTIONARY
360
5BA
102
}
330
2A
100
AcDbVisualStyle
  2
3D Hidden
 70
     6
 71
     1
 72
     2
 73
     2
 90
        0
 40
-0.6
 41
-30.0
 62
     5
 63
     7
 74
     2
 91
        2
 64
     7
 65
   257
 75
     2
175
     1
 42
40.0
 92
        0
 66
   257
 43
1.0
 76
     1
 77
     6
 78
     2
 67
     7
 79
     3
170
     0
171
     0
290
     0
174
     0
 93
        1
 44
0.0
173
     0
291
     0
 45
0.0
1001
ACAD
1000
AcDbSavedByObjectVersion
1070
     0
  0
VISUALSTYLE
  5
30
102
{ACAD_REACTORS
330
2A
102
}
102
{ACAD_XDICTIONARY
360
5B8
102
}
330
2A
100
AcDbVisualStyle
  2
3dWireframe
 70
     5
 71
     0
 72
     2
 73
     0
 90
        0
 40
-0.6
 41
-30.0
 62
     5
 63
     7
 74
     1
 91
        4
 64
     7
 65
   257
 75
     1
175
     1
 42
1.0
 92
        0
 66
   257
 43
1.0
 76
     1
 77
     6
 78
     2
 67
     7
 79
     5
170
     0
171
     0
290
     0
174
     0
 93
        1
 44
0.0
173
     0
291
     0
 45
0.0
1001
ACAD
1000
AcDbSavedByObjectVersion
1070
     0
  0
VISUALSTYLE
  5
32
102
{ACAD_REACTORS
330
2A
102
}
102
{ACAD_XDICTIONARY
360
5BC
102
}
330
2A
100
AcDbVisualStyle
  2
Basic
 70
     7
 71
     1
 72
     0
 73
     1
 90
        0
 40
-0.6
 41
-30.0
 62
     5
 63
     7
 74
     0
 91
        4
 64
     7
 65
   257
 75
     1
175
     1
 42
1.0
 92
        8
 66
     7
 43
1.0
 76
     1
 77
     6
 78
     2
 67
     7
 79
     5
170
     0
171
     0
290
     0
174
     0
 93
        1
 44
0.0
173
     0
291
     1
 45
0.0
1001
ACAD
1000
AcDbSavedByObjectVersion
1070
     0
  0
VISUALSTYLE
  5
36
102
{ACAD_REACTORS
330
2A
102
}
102
{ACAD_XDICTIONARY
360
5C4
102
}
330
2A
100
AcDbVisualStyle
  2
Brighten
 70
    12
 71
     2
 72
     2
 73
     0
 90
        0
 40
-0.6
 41
-30.0
 62
     5
 63
     7
 74
     1
 91
        4
 64
     7
 65
   257
 75
     1
175
     1
 42
1.0
 92
        8
 66
     7
 43
1.0
 76
     1
 77
     6
 78
     2
 67
     7
 79
     5
170
     0
171
     0
290
     0
174
     0
 93
        1
 44
50.0
173
     0
291
     1
 45
0.0
1001
ACAD
1000
AcDbSavedByObjectVersion
1070
     0
  0
VISUALSTYLE
  5
3A
102
{ACAD_REACTORS
330
2A
102
}
102
{ACAD_XDICTIONARY
360
5CC
102
}
330
2A
100
AcDbVisualStyle
  2
ColorChange
 70
    16
 71
     2
 72
     2
 73
     3
 90
        0
 40
-0.6
 41
-30.0
 62
     5
 63
     8
 74
     1
 91
        4
 64
     7
 65
   257
 75
     1
175
     1
 42
1.0
 92
        8
 66
     8
 43
1.0
 76
     1
 77
     6
 78
     2
 67
     7
 79
     5
170
     0
171
     0
290
     0
174
     0
 93
        1
 44
0.0
173
     0
291
     1
 45
0.0
1001
ACAD
1000
AcDbSavedByObjectVersion
1070
     0
  0
VISUALSTYLE
  5
34
102
{ACAD_REACTORS
330
2A
102
}
102
{ACAD_XDICTIONARY
360
5C0
102
}
330
2A
100
AcDbVisualStyle
  2
Conceptual
 70
     9
 71
     3
 72
     2
 73
     0
 90
        0
 40
-0.6
 41
-30.0
 62
     5
 63
     7
 74
     2
 91
        2
 64
     7
 65
   257
 75
     1
175
     1
 42
40.0
 92
        8
 66
     7
 43
1.0
 76
     1
 77
     6
 78
     2
 67
     7
 79
     3
170
     0
171
     0
290
     0
174
     0
 93
        1
 44
0.0
173
     0
291
     0
 45
0.0
1001
ACAD
1000
AcDbSavedByObjectVersion
1070
     0
  0
VISUALSTYLE
  5
35
102
{ACAD_REACTORS
330
2A
102
}
102
{ACAD_XDICTIONARY
360
5C2
102
}
330
2A
100
AcDbVisualStyle
  2
Dim
 70
    11
 71
     2
 72
     2
 73
     0
 90
        0
 40
-0.6
 41
-30.0
 62
     5
 63
     7
 74
     1
 91
        4
 64
     7
 65
   257
 75
     1
175
     1
 42
1.0
 92
        8
 66
     7
 43
1.0
 76
     1
 77
     6
 78
     2
 67
     7
 79
     5
170
     0
171
     0
290
     0
174
     0
 93
        1
 44
-50.0
173
     0
291
     1
 45
0.0
1001
ACAD
1000
AcDbSavedByObjectVersion
1070
     0
  0
VISUALSTYLE
  5
39
102
{ACAD_REACTORS
330
2A
102
}
102
{ACAD_XDICTIONARY
360
5CA
102
}
330
2A
100
AcDbVisualStyle
  2
Facepattern
 70
    15
 71
     2
 72
     2
 73
     0
 90
        0
 40
-0.6
 41
-30.0
 62
     5
 63
     7
 74
     1
 91
        4
 64
     7
 65
   257
 75
     1
175
     1
 42
1.0
 92
        8
 66
     7
 43
1.0
 76
     1
 77
     6
 78
     2
 67
     7
 79
     5
170
     0
171
     0
290
     0
174
     0
 93
        1
 44
0.0
173
     0
291
     1
 45
0.0
1001
ACAD
1000
AcDbSavedByObjectVersion
1070
     0
  0
VISUALSTYLE
  5
2B
102
{ACAD_REACTORS
330
2A
102
}
102
{ACAD_XDICTIONARY
360
5AE
102
}
330
2A
100
AcDbVisualStyle
  2
Flat
 70
     0
 71
     2
 72
     1
 73
     1
 90
        2
 40
-0.6
 41
30.0
 62
     5
 63
     7
 74
     0
 91
        4
 64
     7
 65
   257
 75
     1
175
     1
 42
1.0
 92
        8
 66
     7
 43
1.0
 76
     1
 77
     6
 78
     2
 67
     7
 79
     5
170
     0
171
     0
290
     0
174
     0
 93
       13
 44
0.0
173
     0
291
     1
 45
0.0
1001
ACAD
1000
AcDbSavedByObjectVersion
1070
     0
  0
VISUALSTYLE
  5
2C
102
{ACAD_REACTORS
330
2A
102
}
102
{ACAD_XDICTIONARY
360
5B0
102
}
330
2A
100
AcDbVisualStyle
  2
FlatWithEdges
 70
     1
 71
     2
 72
     1
 73
     1
 90
        2
 40
-0.6
 41
30.0
 62
     5
 63
     7
 74
     1
 91
        4
 64
     7
 65
   257
 75
     1
175
     1
 42
1.0
 92
        0
 66
   257
 43
1.0
 76
     1
 77
     6
 78
     2
 67
     7
 79
     5
170
     0
171
     0
290
     0
174
     0
 93
       13
 44
0.0
173
     0
291
     1
 45
0.0
1001
ACAD
1000
AcDbSavedByObjectVersion
1070
     0
  0
VISUALSTYLE
  5
2D
102
{ACAD_REACTORS
330
2A
102
}
102
{ACAD_XDICTIONARY
360
5B2
102
}
330
2A
100
AcDbVisualStyle
  2
Gouraud
 70
     2
 71
     2
 72
     2
 73
     1
 90
        2
 40
-0.6
 41
30.0
 62
     5
 63
     7
 74
     0
 91
        4
 64
     7
 65
   257
 75
     1
175
     1
 42
1.0
 92
        0
 66
     7
 43
1.0
 76
     1
 77
     6
 78
     2
 67
     7
 79
     5
170
     0
171
     0
290
     0
174
     0
 93
       13
 44
0.0
173
     0
291
     1
 45
0.0
1001
ACAD
1000
AcDbSavedByObjectVersion
1070
     0
  0
VISUALSTYLE
  5
2E
102
{ACAD_REACTORS
330
2A
102
}
102
{ACAD_XDICTIONARY
360
5B4
102
}
330
2A
100
AcDbVisualStyle
  2
GouraudWithEdges
 70
     3
 71
     2
 72
     2
 73
     1
 90
        2
 40
-0.6
 41
30.0
 62
     5
 63
     7
 74
     1
 91
        4
 64
     7
 65
   257
 75
     1
175
     1
 42
1.0
 92
        0
 66
   257
 43
1.0
 76
     1
 77
     6
 78
     2
 67
     7
 79
     5
170
     0
171
     0
290
     0
174
     0
 93
       13
 44
0.0
173
     0
291
     1
 45
0.0
1001
ACAD
1000
AcDbSavedByObjectVersion
1070
     0
  0
VISUALSTYLE
  5
38
102
{ACAD_REACTORS
330
2A
102
}
102
{ACAD_XDICTIONARY
360
5C8
102
}
330
2A
100
AcDbVisualStyle
  2
Linepattern
 70
    14
 71
     2
 72
     2
 73
     0
 90
        0
 40
-0.6
 41
-30.0
 62
     5
 63
     7
 74
     1
 91
        4
 64
     7
 65
   257
 75
     7
175
     7
 42
1.0
 92
        8
 66
     7
 43
1.0
 76
     1
 77
     6
 78
     2
 67
     7
 79
     5
170
     0
171
     0
290
     0
174
     0
 93
        1
 44
0.0
173
     0
291
     1
 45
0.0
1001
ACAD
1000
AcDbSavedByObjectVersion
1070
     0
  0
VISUALSTYLE
  5
33
102
{ACAD_REACTORS
330
2A
102
}
102
{ACAD_XDICTIONARY
360
5BE
102
}
330
2A
100
AcDbVisualStyle
  2
Realistic
 70
     8
 71
     2
 72
     2
 73
     0
 90
        0
 40
-0.6
 41
-30.0
 62
     5
 63
     7
 74
     1
 91
        0
 64
     7
 65
   257
 75
     1
175
     1
 42
1.0
 92
        8
 66
     8
 43
1.0
 76
     1
 77
     6
 78
     2
 67
     7
 79
     5
170
     0
171
     0
290
     0
174
     0
 93
       13
 44
0.0
173
     0
291
     0
 45
0.0
1001
ACAD
1000
AcDbSavedByObjectVersion
1070
     0
  0
VISUALSTYLE
  5
37
102
{ACAD_REACTORS
330
2A
102
}
102
{ACAD_XDICTIONARY
360
5C6
102
}
330
2A
100
AcDbVisualStyle
  2
Thicken
 70
    13
 71
     2
 72
     2
 73
     0
 90
        0
 40
-0.6
 41
-30.0
 62
     5
 63
     7
 74
     1
 91
        4
 64
     7
 65
   257
 75
     1
175
     1
 42
1.0
 92
       12
 66
     7
 43
1.0
 76
     1
 77
     6
 78
     2
 67
     7
 79
     5
170
     0
171
     0
290
     0
174
     0
 93
        1
 44
0.0
173
     0
291
     1
 45
0.0
1001
ACAD
1000
AcDbSavedByObjectVersion
1070
     0
  0
DICTIONARYVAR
  5
5A9
102
{ACAD_REACTORS
330
5A5
102
}
330
5A5
100
DictionaryVariables
280
     0
  1
1:1
  0
DICTIONARYVAR
  5
5AA
102
{ACAD_REACTORS
330
5A5
102
}
330
5A5
100
DictionaryVariables
280
     0
  1
2
  0
DICTIONARYVAR
  5
5AB
102
{ACAD_REACTORS
330
5A5
102
}
330
5A5
100
DictionaryVariables
280
     0
  1
1
  0
DICTIONARYVAR
  5
5A8
102
{ACAD_REACTORS
330
5A5
102
}
330
5A5
100
DictionaryVariables
280
     0
  1
0
  0
XRECORD
  5
5A4
102
{ACAD_REACTORS
330
5A3
102
}
330
5A3
100
AcDbXrecord
280
     1
1000
This DWG file was created in ArchiCAD(TM)®
  0
SPATIAL_FILTER
  5
57D
102
{ACAD_REACTORS
330
57C
102
}
330
57C
100
AcDbFilter
100
AcDbSpatialFilter
 70
     4
 10
27.93050918650632
 20
32.4027913472007
 10
268.2951208156427
 20
32.4027913472007
 10
268.2951208156427
 20
191.9941743031082
 10
27.93050918650632
 20
191.9941743031082
210
0.0
220
0.0
230
1.0
 11
0.0
 21
0.0
 31
0.0
 71
     1
 72
     0
 73
     0
 40
1.0
 40
0.0
 40
0.0
 40
0.0
 40
0.0
 40
1.0
 40
0.0
 40
0.0
 40
0.0
 40
0.0
 40
1.0
 40
0.0
 40
1.0
 40
0.0
 40
0.0
 40
0.0
 40
0.0
 40
1.0
 40
0.0
 40
0.0
 40
0.0
 40
0.0
 40
1.0
 40
0.0
  0
DICTIONARY
  5
5D0
330
3D
100
AcDbDictionary
280
     1
281
     1
  3
ACAD_XREC_ROUNDTRIP
360
5D1
  0
DICTIONARY
  5
5CE
330
3C
100
AcDbDictionary
280
     1
281
     1
  3
ACAD_XREC_ROUNDTRIP
360
5CF
  0
DICTIONARY
  5
5D2
330
3E
100
AcDbDictionary
280
     1
281
     1
  3
ACAD_XREC_ROUNDTRIP
360
5D3
  0
DICTIONARY
  5
5B6
330
2F
100
AcDbDictionary
280
     1
281
     1
  3
ACAD_XREC_ROUNDTRIP
360
5B7
  0
DICTIONARY
  5
5BA
330
31
100
AcDbDictionary
280
     1
281
     1
  3
ACAD_XREC_ROUNDTRIP
360
5BB
  0
DICTIONARY
  5
5B8
330
30
100
AcDbDictionary
280
     1
281
     1
  3
ACAD_XREC_ROUNDTRIP
360
5B9
  0
DICTIONARY
  5
5BC
330
32
100
AcDbDictionary
280
     1
281
     1
  3
ACAD_XREC_ROUNDTRIP
360
5BD
  0
DICTIONARY
  5
5C4
330
36
100
AcDbDictionary
280
     1
281
     1
  3
ACAD_XREC_ROUNDTRIP
360
5C5
  0
DICTIONARY
  5
5CC
330
3A
100
AcDbDictionary
280
     1
281
     1
  3
ACAD_XREC_ROUNDTRIP
360
5CD
  0
DICTIONARY
  5
5C0
330
34
100
AcDbDictionary
280
     1
281
     1
  3
ACAD_XREC_ROUNDTRIP
360
5C1
  0
DICTIONARY
  5
5C2
330
35
100
AcDbDictionary
280
     1
281
     1
  3
ACAD_XREC_ROUNDTRIP
360
5C3
  0
DICTIONARY
  5
5CA
330
39
100
AcDbDictionary
280
     1
281
     1
  3
ACAD_XREC_ROUNDTRIP
360
5CB
  0
DICTIONARY
  5
5AE
330
2B
100
AcDbDictionary
280
     1
281
     1
  3
ACAD_XREC_ROUNDTRIP
360
5AF
  0
DICTIONARY
  5
5B0
330
2C
100
AcDbDictionary
280
     1
281
     1
  3
ACAD_XREC_ROUNDTRIP
360
5B1
  0
DICTIONARY
  5
5B2
330
2D
100
AcDbDictionary
280
     1
281
     1
  3
ACAD_XREC_ROUNDTRIP
360
5B3
  0
DICTIONARY
  5
5B4
330
2E
100
AcDbDictionary
280
     1
281
     1
  3
ACAD_XREC_ROUNDTRIP
360
5B5
  0
DICTIONARY
  5
5C8
330
38
100
AcDbDictionary
280
     1
281
     1
  3
ACAD_XREC_ROUNDTRIP
360
5C9
  0
DICTIONARY
  5
5BE
330
33
100
AcDbDictionary
280
     1
281
     1
  3
ACAD_XREC_ROUNDTRIP
360
5BF
  0
DICTIONARY
  5
5C6
330
37
100
AcDbDictionary
280
     1
281
     1
  3
ACAD_XREC_ROUNDTRIP
360
5C7
  0
XRECORD
  5
5D1
102
{ACAD_REACTORS
330
5D0
102
}
330
5D0
100
AcDbXrecord
280
     1
102
MATERIAL
148
0.0
149
0.0
149
0.0
 93
        0
 94
      127
282
     0
 72
     1
 77
     1
171
     1
175
     1
179
     1
273
     0
  0
XRECORD
  5
5CF
102
{ACAD_REACTORS
330
5CE
102
}
330
5CE
100
AcDbXrecord
280
     1
102
MATERIAL
148
0.0
149
0.0
149
0.0
 93
        0
 94
      127
282
     0
 72
     1
 77
     1
171
     1
175
     1
179
     1
273
     0
  0
XRECORD
  5
5D3
102
{ACAD_REACTORS
330
5D2
102
}
330
5D2
100
AcDbXrecord
280
     1
102
MATERIAL
148
0.0
149
0.0
149
0.0
 93
        0
 94
      127
282
     0
 72
     1
 77
     1
171
     1
175
     1
179
     1
273
     0
  0
XRECORD
  5
5B7
102
{ACAD_REACTORS
330
5B6
102
}
330
5B6
100
AcDbXrecord
280
     1
102
RTVSPropertyOp0
 70
     1
102
RTVSPropertyOp1
 70
     1
102
RTVSPropertyOp2
 70
     1
102
RTVSPropertyOp3
 70
     1
102
RTVSPropertyOp4
 70
     1
102
RTVSPropertyOp5
 70
     1
102
RTVSPropertyOp6
 70
     1
102
RTVSPropertyOp7
 70
     1
102
RTVSPropertyOp8
 70
     1
102
RTVSPropertyOp9
 70
     1
102
RTVSPropertyOp10
 70
     1
102
RTVSPropertyOp11
 70
     1
102
RTVSPropertyOp12
 70
     1
102
RTVSPropertyOp13
 70
     1
102
RTVSPropertyOp14
 70
     1
102
RTVSPropertyOp15
 70
     1
102
RTVSPropertyOp16
 70
     1
102
RTVSPropertyOp17
 70
     1
102
RTVSPropertyOp18
 70
     1
102
RTVSPropertyOp19
 70
     1
102
RTVSPropertyOp20
 70
     1
102
RTVSPropertyOp21
 70
     1
102
RTVSPropertyOp22
 70
     1
102
RTVSPropertyOp23
 70
     1
102
RTVSPropertyOp24
 70
     1
102
RTVSPropertyOp25
 70
     1
102
RTVSPropertyOp26
 70
     1
102
RTVSPropertyOp27
 70
     1
102
RTVSPropertyOp28
 70
     1
102
RTVSPropertyOp29
 70
     1
102
RTVSPropertyOp30
 70
     1
102
RTVSPropertyOp31
 70
     1
102
RTVSPropertyOp32
 70
     1
  0
XRECORD
  5
5BB
102
{ACAD_REACTORS
330
5BA
102
}
330
5BA
100
AcDbXrecord
280
     1
102
RTVSPropertyOp0
 70
     1
102
RTVSPropertyOp1
 70
     1
102
RTVSPropertyOp2
 70
     1
102
RTVSPropertyOp3
 70
     1
102
RTVSPropertyOp4
 70
     1
102
RTVSPropertyOp5
 70
     1
102
RTVSPropertyOp6
 70
     1
102
RTVSPropertyOp7
 70
     1
102
RTVSPropertyOp8
 70
     1
102
RTVSPropertyOp9
 70
     1
102
RTVSPropertyOp10
 70
     1
102
RTVSPropertyOp11
 70
     1
102
RTVSPropertyOp12
 70
     1
102
RTVSPropertyOp13
 70
     1
102
RTVSPropertyOp14
 70
     1
102
RTVSPropertyOp15
 70
     1
102
RTVSPropertyOp16
 70
     1
102
RTVSPropertyOp17
 70
     1
102
RTVSPropertyOp18
 70
     1
102
RTVSPropertyOp19
 70
     1
102
RTVSPropertyOp20
 70
     1
102
RTVSPropertyOp21
 70
     1
102
RTVSPropertyOp22
 70
     1
102
RTVSPropertyOp23
 70
     1
102
RTVSPropertyOp24
 70
     1
102
RTVSPropertyOp25
 70
     1
102
RTVSPropertyOp26
 70
     1
102
RTVSPropertyOp27
 70
     1
102
RTVSPropertyOp28
 70
     1
102
RTVSPropertyOp29
 70
     1
102
RTVSPropertyOp30
 70
     1
102
RTVSPropertyOp31
 70
     1
102
RTVSPropertyOp32
 70
     1
  0
XRECORD
  5
5B9
102
{ACAD_REACTORS
330
5B8
102
}
330
5B8
100
AcDbXrecord
280
     1
102
RTVSPropertyOp0
 70
     1
102
RTVSPropertyOp1
 70
     1
102
RTVSPropertyOp2
 70
     1
102
RTVSPropertyOp3
 70
     1
102
RTVSPropertyOp4
 70
     1
102
RTVSPropertyOp5
 70
     1
102
RTVSPropertyOp6
 70
     1
102
RTVSPropertyOp7
 70
     1
102
RTVSPropertyOp8
 70
     1
102
RTVSPropertyOp9
 70
     1
102
RTVSPropertyOp10
 70
     1
102
RTVSPropertyOp11
 70
     1
102
RTVSPropertyOp12
 70
     1
102
RTVSPropertyOp13
 70
     1
102
RTVSPropertyOp14
 70
     1
102
RTVSPropertyOp15
 70
     1
102
RTVSPropertyOp16
 70
     1
102
RTVSPropertyOp17
 70
     1
102
RTVSPropertyOp18
 70
     1
102
RTVSPropertyOp19
 70
     1
102
RTVSPropertyOp20
 70
     1
102
RTVSPropertyOp21
 70
     1
102
RTVSPropertyOp22
 70
     1
102
RTVSPropertyOp23
 70
     1
102
RTVSPropertyOp24
 70
     1
102
RTVSPropertyOp25
 70
     1
102
RTVSPropertyOp26
 70
     1
102
RTVSPropertyOp27
 70
     1
102
RTVSPropertyOp28
 70
     1
102
RTVSPropertyOp29
 70
     1
102
RTVSPropertyOp30
 70
     1
102
RTVSPropertyOp31
 70
     1
102
RTVSPropertyOp32
 70
     1
  0
XRECORD
  5
5BD
102
{ACAD_REACTORS
330
5BC
102
}
330
5BC
100
AcDbXrecord
280
     1
102
RTVSPropertyOp0
 70
     1
102
RTVSPropertyOp1
 70
     1
102
RTVSPropertyOp2
 70
     1
102
RTVSPropertyOp3
 70
     1
102
RTVSPropertyOp4
 70
     1
102
RTVSPropertyOp5
 70
     1
102
RTVSPropertyOp6
 70
     1
102
RTVSPropertyOp7
 70
     1
102
RTVSPropertyOp8
 70
     1
102
RTVSPropertyOp9
 70
     1
102
RTVSPropertyOp10
 70
     1
102
RTVSPropertyOp11
 70
     1
102
RTVSPropertyOp12
 70
     1
102
RTVSPropertyOp13
 70
     1
102
RTVSPropertyOp14
 70
     1
102
RTVSPropertyOp15
 70
     1
102
RTVSPropertyOp16
 70
     1
102
RTVSPropertyOp17
 70
     1
102
RTVSPropertyOp18
 70
     1
102
RTVSPropertyOp19
 70
     1
102
RTVSPropertyOp20
 70
     1
102
RTVSPropertyOp21
 70
     1
102
RTVSPropertyOp22
 70
     1
102
RTVSPropertyOp23
 70
     1
102
RTVSPropertyOp24
 70
     1
102
RTVSPropertyOp25
 70
     1
102
RTVSPropertyOp26
 70
     1
102
RTVSPropertyOp27
 70
     1
102
RTVSPropertyOp28
 70
     1
102
RTVSPropertyOp29
 70
     1
102
RTVSPropertyOp30
 70
     1
102
RTVSPropertyOp31
 70
     1
102
RTVSPropertyOp32
 70
     1
  0
XRECORD
  5
5C5
102
{ACAD_REACTORS
330
5C4
102
}
330
5C4
100
AcDbXrecord
280
     1
102
RTVSPropertyOp0
 70
     1
102
RTVSPropertyOp1
 70
     1
102
RTVSPropertyOp2
 70
     1
102
RTVSPropertyOp3
 70
     1
102
RTVSPropertyOp4
 70
     1
102
RTVSPropertyOp5
 70
     1
102
RTVSPropertyOp6
 70
     1
102
RTVSPropertyOp7
 70
     1
102
RTVSPropertyOp8
 70
     1
102
RTVSPropertyOp9
 70
     1
102
RTVSPropertyOp10
 70
     1
102
RTVSPropertyOp11
 70
     1
102
RTVSPropertyOp12
 70
     1
102
RTVSPropertyOp13
 70
     1
102
RTVSPropertyOp14
 70
     1
102
RTVSPropertyOp15
 70
     1
102
RTVSPropertyOp16
 70
     1
102
RTVSPropertyOp17
 70
     1
102
RTVSPropertyOp18
 70
     1
102
RTVSPropertyOp19
 70
     1
102
RTVSPropertyOp20
 70
     1
102
RTVSPropertyOp21
 70
     1
102
RTVSPropertyOp22
 70
     1
102
RTVSPropertyOp23
 70
     1
102
RTVSPropertyOp24
 70
     1
102
RTVSPropertyOp25
 70
     1
102
RTVSPropertyOp26
 70
     1
102
RTVSPropertyOp27
 70
     1
102
RTVSPropertyOp28
 70
     1
102
RTVSPropertyOp29
 70
     1
102
RTVSPropertyOp30
 70
     1
102
RTVSPropertyOp31
 70
     1
102
RTVSPropertyOp32
 70
     1
  0
XRECORD
  5
5CD
102
{ACAD_REACTORS
330
5CC
102
}
330
5CC
100
AcDbXrecord
280
     1
102
RTVSPropertyOp0
 70
     1
102
RTVSPropertyOp1
 70
     1
102
RTVSPropertyOp2
 70
     1
102
RTVSPropertyOp3
 70
     1
102
RTVSPropertyOp4
 70
     1
102
RTVSPropertyOp5
 70
     1
102
RTVSPropertyOp6
 70
     1
102
RTVSPropertyOp7
 70
     1
102
RTVSPropertyOp8
 70
     1
102
RTVSPropertyOp9
 70
     1
102
RTVSPropertyOp10
 70
     1
102
RTVSPropertyOp11
 70
     1
102
RTVSPropertyOp12
 70
     1
102
RTVSPropertyOp13
 70
     1
102
RTVSPropertyOp14
 70
     1
102
RTVSPropertyOp15
 70
     1
102
RTVSPropertyOp16
 70
     1
102
RTVSPropertyOp17
 70
     1
102
RTVSPropertyOp18
 70
     1
102
RTVSPropertyOp19
 70
     1
102
RTVSPropertyOp20
 70
     1
102
RTVSPropertyOp21
 70
     1
102
RTVSPropertyOp22
 70
     1
102
RTVSPropertyOp23
 70
     1
102
RTVSPropertyOp24
 70
     1
102
RTVSPropertyOp25
 70
     1
102
RTVSPropertyOp26
 70
     1
102
RTVSPropertyOp27
 70
     1
102
RTVSPropertyOp28
 70
     1
102
RTVSPropertyOp29
 70
     1
102
RTVSPropertyOp30
 70
     1
102
RTVSPropertyOp31
 70
     1
102
RTVSPropertyOp32
 70
     1
  0
XRECORD
  5
5C1
102
{ACAD_REACTORS
330
5C0
102
}
330
5C0
100
AcDbXrecord
280
     1
102
RTVSPropertyOp0
 70
     1
102
RTVSPropertyOp1
 70
     1
102
RTVSPropertyOp2
 70
     1
102
RTVSPropertyOp3
 70
     1
102
RTVSPropertyOp4
 70
     1
102
RTVSPropertyOp5
 70
     1
102
RTVSPropertyOp6
 70
     1
102
RTVSPropertyOp7
 70
     1
102
RTVSPropertyOp8
 70
     1
102
RTVSPropertyOp9
 70
     1
102
RTVSPropertyOp10
 70
     1
102
RTVSPropertyOp11
 70
     1
102
RTVSPropertyOp12
 70
     1
102
RTVSPropertyOp13
 70
     1
102
RTVSPropertyOp14
 70
     1
102
RTVSPropertyOp15
 70
     1
102
RTVSPropertyOp16
 70
     1
102
RTVSPropertyOp17
 70
     1
102
RTVSPropertyOp18
 70
     1
102
RTVSPropertyOp19
 70
     1
102
RTVSPropertyOp20
 70
     1
102
RTVSPropertyOp21
 70
     1
102
RTVSPropertyOp22
 70
     1
102
RTVSPropertyOp23
 70
     1
102
RTVSPropertyOp24
 70
     1
102
RTVSPropertyOp25
 70
     1
102
RTVSPropertyOp26
 70
     1
102
RTVSPropertyOp27
 70
     1
102
RTVSPropertyOp28
 70
     1
102
RTVSPropertyOp29
 70
     1
102
RTVSPropertyOp30
 70
     1
102
RTVSPropertyOp31
 70
     1
102
RTVSPropertyOp32
 70
     1
  0
XRECORD
  5
5C3
102
{ACAD_REACTORS
330
5C2
102
}
330
5C2
100
AcDbXrecord
280
     1
102
RTVSPropertyOp0
 70
     1
102
RTVSPropertyOp1
 70
     1
102
RTVSPropertyOp2
 70
     1
102
RTVSPropertyOp3
 70
     1
102
RTVSPropertyOp4
 70
     1
102
RTVSPropertyOp5
 70
     1
102
RTVSPropertyOp6
 70
     1
102
RTVSPropertyOp7
 70
     1
102
RTVSPropertyOp8
 70
     1
102
RTVSPropertyOp9
 70
     1
102
RTVSPropertyOp10
 70
     1
102
RTVSPropertyOp11
 70
     1
102
RTVSPropertyOp12
 70
     1
102
RTVSPropertyOp13
 70
     1
102
RTVSPropertyOp14
 70
     1
102
RTVSPropertyOp15
 70
     1
102
RTVSPropertyOp16
 70
     1
102
RTVSPropertyOp17
 70
     1
102
RTVSPropertyOp18
 70
     1
102
RTVSPropertyOp19
 70
     1
102
RTVSPropertyOp20
 70
     1
102
RTVSPropertyOp21
 70
     1
102
RTVSPropertyOp22
 70
     1
102
RTVSPropertyOp23
 70
     1
102
RTVSPropertyOp24
 70
     1
102
RTVSPropertyOp25
 70
     1
102
RTVSPropertyOp26
 70
     1
102
RTVSPropertyOp27
 70
     1
102
RTVSPropertyOp28
 70
     1
102
RTVSPropertyOp29
 70
     1
102
RTVSPropertyOp30
 70
     1
102
RTVSPropertyOp31
 70
     1
102
RTVSPropertyOp32
 70
     1
  0
XRECORD
  5
5CB
102
{ACAD_REACTORS
330
5CA
102
}
330
5CA
100
AcDbXrecord
280
     1
102
RTVSPropertyOp0
 70
     1
102
RTVSPropertyOp1
 70
     1
102
RTVSPropertyOp2
 70
     1
102
RTVSPropertyOp3
 70
     1
102
RTVSPropertyOp4
 70
     1
102
RTVSPropertyOp5
 70
     1
102
RTVSPropertyOp6
 70
     1
102
RTVSPropertyOp7
 70
     1
102
RTVSPropertyOp8
 70
     1
102
RTVSPropertyOp9
 70
     1
102
RTVSPropertyOp10
 70
     1
102
RTVSPropertyOp11
 70
     1
102
RTVSPropertyOp12
 70
     1
102
RTVSPropertyOp13
 70
     1
102
RTVSPropertyOp14
 70
     1
102
RTVSPropertyOp15
 70
     1
102
RTVSPropertyOp16
 70
     1
102
RTVSPropertyOp17
 70
     1
102
RTVSPropertyOp18
 70
     1
102
RTVSPropertyOp19
 70
     1
102
RTVSPropertyOp20
 70
     1
102
RTVSPropertyOp21
 70
     1
102
RTVSPropertyOp22
 70
     1
102
RTVSPropertyOp23
 70
     1
102
RTVSPropertyOp24
 70
     1
102
RTVSPropertyOp25
 70
     1
102
RTVSPropertyOp26
 70
     1
102
RTVSPropertyOp27
 70
     1
102
RTVSPropertyOp28
 70
     1
102
RTVSPropertyOp29
 70
     1
102
RTVSPropertyOp30
 70
     1
102
RTVSPropertyOp31
 70
     1
102
RTVSPropertyOp32
 70
     1
  0
XRECORD
  5
5AF
102
{ACAD_REACTORS
330
5AE
102
}
330
5AE
100
AcDbXrecord
280
     1
102
RTVSPropertyOp0
 70
     1
102
RTVSPropertyOp1
 70
     1
102
RTVSPropertyOp2
 70
     1
102
RTVSPropertyOp3
 70
     1
102
RTVSPropertyOp4
 70
     1
102
RTVSPropertyOp5
 70
     1
102
RTVSPropertyOp6
 70
     1
102
RTVSPropertyOp7
 70
     1
102
RTVSPropertyOp8
 70
     1
102
RTVSPropertyOp9
 70
     1
102
RTVSPropertyOp10
 70
     1
102
RTVSPropertyOp11
 70
     1
102
RTVSPropertyOp12
 70
     1
102
RTVSPropertyOp13
 70
     1
102
RTVSPropertyOp14
 70
     1
102
RTVSPropertyOp15
 70
     1
102
RTVSPropertyOp16
 70
     1
102
RTVSPropertyOp17
 70
     1
102
RTVSPropertyOp18
 70
     1
102
RTVSPropertyOp19
 70
     1
102
RTVSPropertyOp20
 70
     1
102
RTVSPropertyOp21
 70
     1
102
RTVSPropertyOp22
 70
     1
102
RTVSPropertyOp23
 70
     1
102
RTVSPropertyOp24
 70
     1
102
RTVSPropertyOp25
 70
     1
102
RTVSPropertyOp26
 70
     1
102
RTVSPropertyOp27
 70
     1
102
RTVSPropertyOp28
 70
     1
102
RTVSPropertyOp29
 70
     1
102
RTVSPropertyOp30
 70
     1
102
RTVSPropertyOp31
 70
     1
102
RTVSPropertyOp32
 70
     1
  0
XRECORD
  5
5B1
102
{ACAD_REACTORS
330
5B0
102
}
330
5B0
100
AcDbXrecord
280
     1
102
RTVSPropertyOp0
 70
     1
102
RTVSPropertyOp1
 70
     1
102
RTVSPropertyOp2
 70
     1
102
RTVSPropertyOp3
 70
     1
102
RTVSPropertyOp4
 70
     1
102
RTVSPropertyOp5
 70
     1
102
RTVSPropertyOp6
 70
     1
102
RTVSPropertyOp7
 70
     1
102
RTVSPropertyOp8
 70
     1
102
RTVSPropertyOp9
 70
     1
102
RTVSPropertyOp10
 70
     1
102
RTVSPropertyOp11
 70
     1
102
RTVSPropertyOp12
 70
     1
102
RTVSPropertyOp13
 70
     1
102
RTVSPropertyOp14
 70
     1
102
RTVSPropertyOp15
 70
     1
102
RTVSPropertyOp16
 70
     1
102
RTVSPropertyOp17
 70
     1
102
RTVSPropertyOp18
 70
     1
102
RTVSPropertyOp19
 70
     1
102
RTVSPropertyOp20
 70
     1
102
RTVSPropertyOp21
 70
     1
102
RTVSPropertyOp22
 70
     1
102
RTVSPropertyOp23
 70
     1
102
RTVSPropertyOp24
 70
     1
102
RTVSPropertyOp25
 70
     1
102
RTVSPropertyOp26
 70
     1
102
RTVSPropertyOp27
 70
     1
102
RTVSPropertyOp28
 70
     1
102
RTVSPropertyOp29
 70
     1
102
RTVSPropertyOp30
 70
     1
102
RTVSPropertyOp31
 70
     1
102
RTVSPropertyOp32
 70
     1
  0
XRECORD
  5
5B3
102
{ACAD_REACTORS
330
5B2
102
}
330
5B2
100
AcDbXrecord
280
     1
102
RTVSPropertyOp0
 70
     1
102
RTVSPropertyOp1
 70
     1
102
RTVSPropertyOp2
 70
     1
102
RTVSPropertyOp3
 70
     1
102
RTVSPropertyOp4
 70
     1
102
RTVSPropertyOp5
 70
     1
102
RTVSPropertyOp6
 70
     1
102
RTVSPropertyOp7
 70
     1
102
RTVSPropertyOp8
 70
     1
102
RTVSPropertyOp9
 70
     1
102
RTVSPropertyOp10
 70
     1
102
RTVSPropertyOp11
 70
     1
102
RTVSPropertyOp12
 70
     1
102
RTVSPropertyOp13
 70
     1
102
RTVSPropertyOp14
 70
     1
102
RTVSPropertyOp15
 70
     1
102
RTVSPropertyOp16
 70
     1
102
RTVSPropertyOp17
 70
     1
102
RTVSPropertyOp18
 70
     1
102
RTVSPropertyOp19
 70
     1
102
RTVSPropertyOp20
 70
     1
102
RTVSPropertyOp21
 70
     1
102
RTVSPropertyOp22
 70
     1
102
RTVSPropertyOp23
 70
     1
102
RTVSPropertyOp24
 70
     1
102
RTVSPropertyOp25
 70
     1
102
RTVSPropertyOp26
 70
     1
102
RTVSPropertyOp27
 70
     1
102
RTVSPropertyOp28
 70
     1
102
RTVSPropertyOp29
 70
     1
102
RTVSPropertyOp30
 70
     1
102
RTVSPropertyOp31
 70
     1
102
RTVSPropertyOp32
 70
     1
  0
XRECORD
  5
5B5
102
{ACAD_REACTORS
330
5B4
102
}
330
5B4
100
AcDbXrecord
280
     1
102
RTVSPropertyOp0
 70
     1
102
RTVSPropertyOp1
 70
     1
102
RTVSPropertyOp2
 70
     1
102
RTVSPropertyOp3
 70
     1
102
RTVSPropertyOp4
 70
     1
102
RTVSPropertyOp5
 70
     1
102
RTVSPropertyOp6
 70
     1
102
RTVSPropertyOp7
 70
     1
102
RTVSPropertyOp8
 70
     1
102
RTVSPropertyOp9
 70
     1
102
RTVSPropertyOp10
 70
     1
102
RTVSPropertyOp11
 70
     1
102
RTVSPropertyOp12
 70
     1
102
RTVSPropertyOp13
 70
     1
102
RTVSPropertyOp14
 70
     1
102
RTVSPropertyOp15
 70
     1
102
RTVSPropertyOp16
 70
     1
102
RTVSPropertyOp17
 70
     1
102
RTVSPropertyOp18
 70
     1
102
RTVSPropertyOp19
 70
     1
102
RTVSPropertyOp20
 70
     1
102
RTVSPropertyOp21
 70
     1
102
RTVSPropertyOp22
 70
     1
102
RTVSPropertyOp23
 70
     1
102
RTVSPropertyOp24
 70
     1
102
RTVSPropertyOp25
 70
     1
102
RTVSPropertyOp26
 70
     1
102
RTVSPropertyOp27
 70
     1
102
RTVSPropertyOp28
 70
     1
102
RTVSPropertyOp29
 70
     1
102
RTVSPropertyOp30
 70
     1
102
RTVSPropertyOp31
 70
     1
102
RTVSPropertyOp32
 70
     1
  0
XRECORD
  5
5C9
102
{ACAD_REACTORS
330
5C8
102
}
330
5C8
100
AcDbXrecord
280
     1
102
RTVSPropertyOp0
 70
     1
102
RTVSPropertyOp1
 70
     1
102
RTVSPropertyOp2
 70
     1
102
RTVSPropertyOp3
 70
     1
102
RTVSPropertyOp4
 70
     1
102
RTVSPropertyOp5
 70
     1
102
RTVSPropertyOp6
 70
     1
102
RTVSPropertyOp7
 70
     1
102
RTVSPropertyOp8
 70
     1
102
RTVSPropertyOp9
 70
     1
102
RTVSPropertyOp10
 70
     1
102
RTVSPropertyOp11
 70
     1
102
RTVSPropertyOp12
 70
     1
102
RTVSPropertyOp13
 70
     1
102
RTVSPropertyOp14
 70
     1
102
RTVSPropertyOp15
 70
     1
102
RTVSPropertyOp16
 70
     1
102
RTVSPropertyOp17
 70
     1
102
RTVSPropertyOp18
 70
     1
102
RTVSPropertyOp19
 70
     1
102
RTVSPropertyOp20
 70
     1
102
RTVSPropertyOp21
 70
     1
102
RTVSPropertyOp22
 70
     1
102
RTVSPropertyOp23
 70
     1
102
RTVSPropertyOp24
 70
     1
102
RTVSPropertyOp25
 70
     1
102
RTVSPropertyOp26
 70
     1
102
RTVSPropertyOp27
 70
     1
102
RTVSPropertyOp28
 70
     1
102
RTVSPropertyOp29
 70
     1
102
RTVSPropertyOp30
 70
     1
102
RTVSPropertyOp31
 70
     1
102
RTVSPropertyOp32
 70
     1
  0
XRECORD
  5
5BF
102
{ACAD_REACTORS
330
5BE
102
}
330
5BE
100
AcDbXrecord
280
     1
102
RTVSPropertyOp0
 70
     1
102
RTVSPropertyOp1
 70
     1
102
RTVSPropertyOp2
 70
     1
102
RTVSPropertyOp3
 70
     1
102
RTVSPropertyOp4
 70
     1
102
RTVSPropertyOp5
 70
     1
102
RTVSPropertyOp6
 70
     1
102
RTVSPropertyOp7
 70
     1
102
RTVSPropertyOp8
 70
     1
102
RTVSPropertyOp9
 70
     1
102
RTVSPropertyOp10
 70
     1
102
RTVSPropertyOp11
 70
     1
102
RTVSPropertyOp12
 70
     1
102
RTVSPropertyOp13
 70
     1
102
RTVSPropertyOp14
 70
     1
102
RTVSPropertyOp15
 70
     1
102
RTVSPropertyOp16
 70
     1
102
RTVSPropertyOp17
 70
     1
102
RTVSPropertyOp18
 70
     1
102
RTVSPropertyOp19
 70
     1
102
RTVSPropertyOp20
 70
     1
102
RTVSPropertyOp21
 70
     1
102
RTVSPropertyOp22
 70
     1
102
RTVSPropertyOp23
 70
     1
102
RTVSPropertyOp24
 70
     1
102
RTVSPropertyOp25
 70
     1
102
RTVSPropertyOp26
 70
     1
102
RTVSPropertyOp27
 70
     1
102
RTVSPropertyOp28
 70
     1
102
RTVSPropertyOp29
 70
     1
102
RTVSPropertyOp30
 70
     1
102
RTVSPropertyOp31
 70
     1
102
RTVSPropertyOp32
 70
     1
  0
XRECORD
  5
5C7
102
{ACAD_REACTORS
330
5C6
102
}
330
5C6
100
AcDbXrecord
280
     1
102
RTVSPropertyOp0
 70
     1
102
RTVSPropertyOp1
 70
     1
102
RTVSPropertyOp2
 70
     1
102
RTVSPropertyOp3
 70
     1
102
RTVSPropertyOp4
 70
     1
102
RTVSPropertyOp5
 70
     1
102
RTVSPropertyOp6
 70
     1
102
RTVSPropertyOp7
 70
     1
102
RTVSPropertyOp8
 70
     1
102
RTVSPropertyOp9
 70
     1
102
RTVSPropertyOp10
 70
     1
102
RTVSPropertyOp11
 70
     1
102
RTVSPropertyOp12
 70
     1
102
RTVSPropertyOp13
 70
     1
102
RTVSPropertyOp14
 70
     1
102
RTVSPropertyOp15
 70
     1
102
RTVSPropertyOp16
 70
     1
102
RTVSPropertyOp17
 70
     1
102
RTVSPropertyOp18
 70
     1
102
RTVSPropertyOp19
 70
     1
102
RTVSPropertyOp20
 70
     1
102
RTVSPropertyOp21
 70
     1
102
RTVSPropertyOp22
 70
     1
102
RTVSPropertyOp23
 70
     1
102
RTVSPropertyOp24
 70
     1
102
RTVSPropertyOp25
 70
     1
102
RTVSPropertyOp26
 70
     1
102
RTVSPropertyOp27
 70
     1
102
RTVSPropertyOp28
 70
     1
102
RTVSPropertyOp29
 70
     1
102
RTVSPropertyOp30
 70
     1
102
RTVSPropertyOp31
 70
     1
102
RTVSPropertyOp32
 70
     1
  0
ENDSEC
  0
EOF
