  0
SECTION
  2
HEADER
  9
$ACADVER
  1
AC1015
  9
$ACADMAINTVER
 70
     6
  9
$DWGCODEPAGE
  3
ANSI_949
  9
$INSBASE
 10
0.0
 20
0.0
 30
0.0
  9
$EXTMIN
 10
1.000000000000000E+20
 20
1.000000000000000E+20
 30
1.000000000000000E+20
  9
$EXTMAX
 10
-1.000000000000000E+20
 20
-1.000000000000000E+20
 30
-1.000000000000000E+20
  9
$LIMMIN
 10
0.0
 20
0.0
  9
$LIMMAX
 10
12.0
 20
9.0
  9
$ORTHOMODE
 70
     0
  9
$REGENMODE
 70
     1
  9
$FILLMODE
 70
     1
  9
$QTEXTMODE
 70
     0
  9
$MIRRTEXT
 70
     1
  9
$LTSCALE
 40
1.0
  9
$ATTMODE
 70
     1
  9
$TEXTSIZE
 40
0.2
  9
$TRACEWID
 40
0.05
  9
$TEXTSTYLE
  7
Standard
  9
$CLAYER
  8
0
  9
$CELTYPE
  6
ByLayer
  9
$CECOLOR
 62
   256
  9
$CELTSCALE
 40
1.0
  9
$DISPSILH
 70
     0
  9
$DIMSCALE
 40
1.0
  9
$DIMASZ
 40
0.18
  9
$DIMEXO
 40
0.0625
  9
$DIMDLI
 40
0.38
  9
$DIMRND
 40
0.0
  9
$DIMDLE
 40
0.0
  9
$DIMEXE
 40
0.18
  9
$DIMTP
 40
0.0
  9
$DIMTM
 40
0.0
  9
$DIMTXT
 40
0.18
  9
$DIMCEN
 40
0.09
  9
$DIMTSZ
 40
0.0
  9
$DIMTOL
 70
     0
  9
$DIMLIM
 70
     0
  9
$DIMTIH
 70
     1
  9
$DIMTOH
 70
     1
  9
$DIMSE1
 70
     0
  9
$DIMSE2
 70
     0
  9
$DIMTAD
 70
     0
  9
$DIMZIN
 70
     0
  9
$DIMBLK
  1

  9
$DIMASO
 70
     1
  9
$DIMSHO
 70
     1
  9
$DIMPOST
  1

  9
$DIMAPOST
  1

  9
$DIMALT
 70
     0
  9
$DIMALTD
 70
     2
  9
$DIMALTF
 40
25.4
  9
$DIMLFAC
 40
1.0
  9
$DIMTOFL
 70
     0
  9
$DIMTVP
 40
0.0
  9
$DIMTIX
 70
     0
  9
$DIMSOXD
 70
     0
  9
$DIMSAH
 70
     0
  9
$DIMBLK1
  1

  9
$DIMBLK2
  1

  9
$DIMSTYLE
  2
Standard
  9
$DIMCLRD
 70
     0
  9
$DIMCLRE
 70
     0
  9
$DIMCLRT
 70
     0
  9
$DIMTFAC
 40
1.0
  9
$DIMGAP
 40
0.09
  9
$DIMJUST
 70
     0
  9
$DIMSD1
 70
     0
  9
$DIMSD2
 70
     0
  9
$DIMTOLJ
 70
     1
  9
$DIMTZIN
 70
     0
  9
$DIMALTZ
 70
     0
  9
$DIMALTTZ
 70
     0
  9
$DIMUPT
 70
     0
  9
$DIMDEC
 70
     4
  9
$DIMTDEC
 70
     4
  9
$DIMALTU
 70
     2
  9
$DIMALTTD
 70
     2
  9
$DIMTXSTY
  7
Standard
  9
$DIMAUNIT
 70
     0
  9
$DIMADEC
 70
     0
  9
$DIMALTRND
 40
0.0
  9
$DIMAZIN
 70
     0
  9
$DIMDSEP
 70
    46
  9
$DIMATFIT
 70
     3
  9
$DIMFRAC
 70
     0
  9
$DIMLDRBLK
  1

  9
$DIMLUNIT
 70
     2
  9
$DIMLWD
 70
    -2
  9
$DIMLWE
 70
    -2
  9
$DIMTMOVE
 70
     0
  9
$LUNITS
 70
     2
  9
$LUPREC
 70
     4
  9
$SKETCHINC
 40
0.1
  9
$FILLETRAD
 40
0.5
  9
$AUNITS
 70
     0
  9
$AUPREC
 70
     0
  9
$MENU
  1
.
  9
$ELEVATION
 40
0.0
  9
$PELEVATION
 40
0.0
  9
$THICKNESS
 40
0.0
  9
$LIMCHECK
 70
     0
  9
$CHAMFERA
 40
0.5
  9
$CHAMFERB
 40
0.5
  9
$CHAMFERC
 40
1.0
  9
$CHAMFERD
 40
0.0
  9
$SKPOLY
 70
     0
  9
$TDCREATE
 40
2456522.580890648
  9
$TDUCREATE
 40
2456522.080890648
  9
$TDUPDATE
 40
2456522.58091934
  9
$TDUUPDATE
 40
2456522.08091934
  9
$TDINDWG
 40
0.0000000116
  9
$TDUSRTIMER
 40
0.0000000116
  9
$USRTIMER
 70
     1
  9
$ANGBASE
 50
0.0
  9
$ANGDIR
 70
     0
  9
$PDMODE
 70
     0
  9
$PDSIZE
 40
0.0
  9
$PLINEWID
 40
0.0
  9
$SPLFRAME
 70
     0
  9
$SPLINETYPE
 70
     6
  9
$SPLINESEGS
 70
     8
  9
$HANDSEED
  5
5B2
  9
$SURFTAB1
 70
     6
  9
$SURFTAB2
 70
     6
  9
$SURFTYPE
 70
     6
  9
$SURFU
 70
     6
  9
$SURFV
 70
     6
  9
$UCSBASE
  2

  9
$UCSNAME
  2

  9
$UCSORG
 10
0.0
 20
0.0
 30
0.0
  9
$UCSXDIR
 10
1.0
 20
0.0
 30
0.0
  9
$UCSYDIR
 10
0.0
 20
1.0
 30
0.0
  9
$UCSORTHOREF
  2

  9
$UCSORTHOVIEW
 70
     0
  9
$UCSORGTOP
 10
0.0
 20
0.0
 30
0.0
  9
$UCSORGBOTTOM
 10
0.0
 20
0.0
 30
0.0
  9
$UCSORGLEFT
 10
0.0
 20
0.0
 30
0.0
  9
$UCSORGRIGHT
 10
0.0
 20
0.0
 30
0.0
  9
$UCSORGFRONT
 10
0.0
 20
0.0
 30
0.0
  9
$UCSORGBACK
 10
0.0
 20
0.0
 30
0.0
  9
$PUCSBASE
  2

  9
$PUCSNAME
  2

  9
$PUCSORG
 10
0.0
 20
0.0
 30
0.0
  9
$PUCSXDIR
 10
1.0
 20
0.0
 30
0.0
  9
$PUCSYDIR
 10
0.0
 20
1.0
 30
0.0
  9
$PUCSORTHOREF
  2

  9
$PUCSORTHOVIEW
 70
     0
  9
$PUCSORGTOP
 10
0.0
 20
0.0
 30
0.0
  9
$PUCSORGBOTTOM
 10
0.0
 20
0.0
 30
0.0
  9
$PUCSORGLEFT
 10
0.0
 20
0.0
 30
0.0
  9
$PUCSORGRIGHT
 10
0.0
 20
0.0
 30
0.0
  9
$PUCSORGFRONT
 10
0.0
 20
0.0
 30
0.0
  9
$PUCSORGBACK
 10
0.0
 20
0.0
 30
0.0
  9
$USERI1
 70
     0
  9
$USERI2
 70
     0
  9
$USERI3
 70
     0
  9
$USERI4
 70
     0
  9
$USERI5
 70
     0
  9
$USERR1
 40
0.0
  9
$USERR2
 40
0.0
  9
$USERR3
 40
0.0
  9
$USERR4
 40
0.0
  9
$USERR5
 40
0.0
  9
$WORLDVIEW
 70
     1
  9
$SHADEDGE
 70
     3
  9
$SHADEDIF
 70
    70
  9
$TILEMODE
 70
     1
  9
$MAXACTVP
 70
    64
  9
$PINSBASE
 10
0.0
 20
0.0
 30
0.0
  9
$PLIMCHECK
 70
     0
  9
$PEXTMIN
 10
1.000000000000000E+20
 20
1.000000000000000E+20
 30
1.000000000000000E+20
  9
$PEXTMAX
 10
-1.000000000000000E+20
 20
-1.000000000000000E+20
 30
-1.000000000000000E+20
  9
$PLIMMIN
 10
0.0
 20
0.0
  9
$PLIMMAX
 10
12.0
 20
9.0
  9
$UNITMODE
 70
     0
  9
$VISRETAIN
 70
     1
  9
$PLINEGEN
 70
     0
  9
$PSLTSCALE
 70
     1
  9
$TREEDEPTH
 70
  3020
  9
$CMLSTYLE
  2
Standard
  9
$CMLJUST
 70
     0
  9
$CMLSCALE
 40
1.0
  9
$PROXYGRAPHICS
 70
     1
  9
$MEASUREMENT
 70
     0
  9
$CELWEIGHT
370
    -1
  9
$ENDCAPS
280
     0
  9
$JOINSTYLE
280
     0
  9
$LWDISPLAY
290
     1
  9
$INSUNITS
 70
     4
  9
$HYPERLINKBASE
  1

  9
$STYLESHEET
  1

  9
$XEDIT
290
     1
  9
$CEPSNTYPE
380
     0
  9
$PSTYLEMODE
290
     1
  9
$FINGERPRINTGUID
  2
{3DB14768-CB1A-4EE1-A40F-94A7BAB2D549}
  9
$VERSIONGUID
  2
{FAEB1C32-E019-11D5-929B-00C0DF256EC4}
  9
$EXTNAMES
290
     1
  9
$PSVPSCALE
 40
0.0
  9
$OLESTARTUP
290
     0
  0
ENDSEC
  0
SECTION
  2
CLASSES
  0
CLASS
  1
ACDBDICTIONARYWDFLT
  2
AcDbDictionaryWithDefault
  3
ObjectDBX Classes
 90
        0
280
     0
281
     0
  0
CLASS
  1
VISUALSTYLE
  2
AcDbVisualStyle
  3
ObjectDBX Classes
 90
     4095
280
     0
281
     0
  0
CLASS
  1
MATERIAL
  2
AcDbMaterial
  3
ObjectDBX Classes
 90
     1153
280
     0
281
     0
  0
CLASS
  1
SPATIAL_FILTER
  2
AcDbSpatialFilter
  3
ObjectDBX Classes
 90
        0
280
     0
281
     0
  0
CLASS
  1
SCALE
  2
AcDbScale
  3
ObjectDBX Classes
 90
     1153
280
     0
281
     0
  0
CLASS
  1
DICTIONARYVAR
  2
AcDbDictionaryVar
  3
ObjectDBX Classes
 90
        0
280
     0
281
     0
  0
CLASS
  1
ACDBPLACEHOLDER
  2
AcDbPlaceHolder
  3
ObjectDBX Classes
 90
        0
280
     0
281
     0
  0
CLASS
  1
LAYOUT
  2
AcDbLayout
  3
ObjectDBX Classes
 90
        0
280
     0
281
     0
  0
ENDSEC
  0
SECTION
  2
TABLES
  0
TABLE
  2
VPORT
  5
8
330
0
100
AcDbSymbolTable
 70
     1
  0
VPORT
  5
29
330
8
100
AcDbSymbolTableRecord
100
AcDbViewportTableRecord
  2
*Active
 70
     0
 10
0.0
 20
0.0
 11
1.0
 21
1.0
 12
148.6203422501967
 22
91.4867473994008
 13
0.0
 23
0.0
 14
0.5
 24
0.5
 15
0.5
 25
0.5
 16
0.0
 26
0.0
 36
1.0
 17
0.0
 27
0.0
 37
0.0
 40
182.4980525813891
 41
1.583060712707662
 42
50.0
 43
0.0
 44
0.0
 50
0.0
 51
0.0
 71
     0
 72
   100
 73
     1
 74
     3
 75
     0
 76
     0
 77
     0
 78
     0
281
     0
 65
     1
110
0.0
120
0.0
130
0.0
111
1.0
121
0.0
131
0.0
112
0.0
122
1.0
132
0.0
 79
     0
146
0.0
  0
ENDTAB
  0
TABLE
  2
LTYPE
  5
5
330
0
100
AcDbSymbolTable
 70
     2
  0
LTYPE
  5
14
330
5
100
AcDbSymbolTableRecord
100
AcDbLinetypeTableRecord
  2
ByBlock
 70
     0
  3

 72
    65
 73
     0
 40
0.0
  0
LTYPE
  5
15
330
5
100
AcDbSymbolTableRecord
100
AcDbLinetypeTableRecord
  2
ByLayer
 70
     0
  3

 72
    65
 73
     0
 40
0.0
  0
LTYPE
  5
16
330
5
100
AcDbSymbolTableRecord
100
AcDbLinetypeTableRecord
  2
Continuous
 70
     0
  3
Solid line
 72
    65
 73
     0
 40
0.0
  0
LTYPE
  5
10B
330
5
100
AcDbSymbolTableRecord
100
AcDbLinetypeTableRecord
  2
Dashed
 70
     0
  3
- - - - - 
 72
    65
 73
     2
 40
5.644444465637207
 49
2.822222232818604
 74
     0
 49
-2.822222232818603
 74
     0
  0
ENDTAB
  0
TABLE
  2
LAYER
  5
2
330
0
100
AcDbSymbolTable
 70
     3
  0
LAYER
  5
10
330
2
100
AcDbSymbolTableRecord
100
AcDbLayerTableRecord
  2
0
 70
     0
 62
     7
  6
Continuous
370
    -3
390
F
  0
LAYER
  5
40
330
2
100
AcDbSymbolTableRecord
100
AcDbLayerTableRecord
  2
Doc_ Finishes
 70
     0
 62
     7
  6
Continuous
370
    -3
390
F
  0
LAYER
  5
DB
330
2
100
AcDbSymbolTableRecord
100
AcDbLayerTableRecord
  2
Doc_ Floor
 70
     0
 62
     7
  6
Continuous
370
    -3
390
F
  0
ENDTAB
  0
TABLE
  2
STYLE
  5
3
330
0
100
AcDbSymbolTable
 70
     4
  0
STYLE
  5
11
330
3
100
AcDbSymbolTableRecord
100
AcDbTextStyleTableRecord
  2
Standard
 70
     0
 40
0.0
 41
1.0
 50
0.0
 71
     0
 42
0.2
  3
txt
  4

  0
STYLE
  5
D6
330
3
100
AcDbSymbolTableRecord
100
AcDbTextStyleTableRecord
  2
GENERATED_STYLE_1
 70
     0
 40
0.0
 41
1.0
 50
0.0
 71
     0
 42
0.2
  3

  4

1001
ACAD
1000
Century Gothic
1071
       34
  0
STYLE
  5
D9
330
3
100
AcDbSymbolTableRecord
100
AcDbTextStyleTableRecord
  2
GENERATED_STYLE_2
 70
     0
 40
0.0
 41
1.0
 50
0.0
 71
     0
 42
0.2
  3

  4

1001
ACAD
1000
DilleniaUPC
1071
 33554450
  0
STYLE
  5
121
330
3
100
AcDbSymbolTableRecord
100
AcDbTextStyleTableRecord
  2
GENERATED_STYLE_3
 70
     0
 40
0.0
 41
1.0
 50
0.0
 71
     0
 42
0.2
  3

  4

1001
ACAD
1000
Arial
1071
       34
  0
ENDTAB
  0
TABLE
  2
VIEW
  5
6
330
0
100
AcDbSymbolTable
 70
     0
  0
ENDTAB
  0
TABLE
  2
UCS
  5
7
330
0
100
AcDbSymbolTable
 70
     0
  0
ENDTAB
  0
TABLE
  2
APPID
  5
9
330
0
100
AcDbSymbolTable
 70
     1
  0
APPID
  5
12
330
9
100
AcDbSymbolTableRecord
100
AcDbRegAppTableRecord
  2
ACAD
 70
     0
  0
ENDTAB
  0
TABLE
  2
DIMSTYLE
  5
A
330
0
100
AcDbSymbolTable
 70
     1
100
AcDbDimStyleTable
  0
DIMSTYLE
105
27
330
A
100
AcDbSymbolTableRecord
100
AcDbDimStyleTableRecord
  2
Standard
 70
     0
178
     0
340
11
  0
ENDTAB
  0
TABLE
  2
BLOCK_RECORD
  5
1
330
0
100
AcDbSymbolTable
 70
     3
  0
BLOCK_RECORD
  5
1F
330
1
100
AcDbSymbolTableRecord
100
AcDbBlockTableRecord
  2
*Model_Space
340
22
  0
BLOCK_RECORD
  5
1B
330
1
100
AcDbSymbolTableRecord
100
AcDbBlockTableRecord
  2
*Paper_Space
340
1E
  0
BLOCK_RECORD
  5
E3
330
1
100
AcDbSymbolTableRecord
100
AcDbBlockTableRecord
  2
Drawing_1_2
340
0
102
{BLKREFS
331
558
102
}
  0
BLOCK_RECORD
  5
55C
330
1
100
AcDbSymbolTableRecord
100
AcDbBlockTableRecord
  2
R-TRS6-07 BARGE DETAIL - SIDE_STORY_MARKER
340
0
  0
ENDTAB
  0
ENDSEC
  0
SECTION
  2
BLOCKS
  0
BLOCK
  5
20
330
1F
100
AcDbEntity
  8
0
100
AcDbBlockBegin
  2
*Model_Space
 70
     0
 10
0.0
 20
0.0
 30
0.0
  3
*Model_Space
  1

  0
ENDBLK
  5
21
330
1F
100
AcDbEntity
  8
0
100
AcDbBlockEnd
  0
BLOCK
  5
1C
330
1B
100
AcDbEntity
 67
     1
  8
0
100
AcDbBlockBegin
  2
*Paper_Space
 70
     0
 10
0.0
 20
0.0
 30
0.0
  3
*Paper_Space
  1

  0
ENDBLK
  5
1D
330
1B
100
AcDbEntity
 67
     1
  8
0
100
AcDbBlockEnd
  0
BLOCK
  5
E4
330
E3
100
AcDbEntity
  8
0
100
AcDbBlockBegin
  2
Drawing_1_2
 70
     0
 10
156.5565397722182
 20
110.7696525037415
 30
0.0
  3
Drawing_1_2
  1

  0
HATCH
  5
E6
330
E3
100
AcDbEntity
  8
0
  6
Continuous
 62
   255
370
     0
100
AcDbHatch
 10
0.0
 20
0.0
 30
0.0
210
0.0
220
0.0
230
1.0
  2
SOLID
 70
     1
 71
     0
 91
        1
 92
        3
 72
     0
 73
     1
 93
        4
 10
102.5695893287255
 20
136.2233875856668
 10
191.2473488359454
 20
136.2233875856667
 10
191.2473488359454
 20
145.2233875856667
 10
102.5695893287255
 20
145.2233875856668
 97
        0
 75
     0
 76
     1
 98
        0
  0
LINE
  5
E7
330
E3
100
AcDbEntity
  8
0
  6
Continuous
100
AcDbLine
 10
102.5695892766659
 20
136.2233888534747
 30
0.0
 11
191.2473491412408
 21
136.2233888534747
 31
0.0
  0
LINE
  5
E8
330
E3
100
AcDbEntity
  8
0
  6
Continuous
100
AcDbLine
 10
191.2473491412408
 20
136.2233888534747
 30
0.0
 11
191.2473491412408
 21
145.2233879475764
 31
0.0
  0
LINE
  5
E9
330
E3
100
AcDbEntity
  8
0
  6
Continuous
100
AcDbLine
 10
191.2473491412408
 20
145.2233879475764
 30
0.0
 11
102.5695892766659
 21
145.2233879475764
 31
0.0
  0
LINE
  5
EA
330
E3
100
AcDbEntity
  8
0
  6
Continuous
100
AcDbLine
 10
102.5695892766659
 20
145.2233879475764
 30
0.0
 11
102.5695892766659
 21
136.2233888534747
 31
0.0
  0
HATCH
  5
EB
330
E3
100
AcDbEntity
  8
0
  6
Continuous
 62
   255
370
     0
100
AcDbHatch
 10
0.0
 20
0.0
 30
0.0
210
0.0
220
0.0
230
1.0
  2
SOLID
 70
     1
 71
     0
 91
        1
 92
        3
 72
     0
 73
     1
 93
        4
 10
102.5695893287255
 20
145.2233875856668
 10
102.5695893287255
 20
136.2233875856668
 10
116.5695893287255
 20
136.2233875856668
 10
116.5695893287255
 20
145.2233875856668
 97
        0
 75
     0
 76
     1
 98
        0
  0
LINE
  5
EC
330
E3
100
AcDbEntity
  8
0
  6
Continuous
100
AcDbLine
 10
102.5695892766659
 20
145.2233879475764
 30
0.0
 11
116.5695895182208
 21
136.2233888534747
 31
0.0
  0
LINE
  5
ED
330
E3
100
AcDbEntity
  8
0
  6
Continuous
100
AcDbLine
 10
102.5695892766659
 20
145.2233879475764
 30
0.0
 11
102.5695892766659
 21
136.2233888534747
 31
0.0
  0
LINE
  5
EE
330
E3
100
AcDbEntity
  8
0
  6
Continuous
100
AcDbLine
 10
102.5695892766659
 20
136.2233888534747
 30
0.0
 11
116.5695895182208
 21
136.2233888534747
 31
0.0
  0
LINE
  5
EF
330
E3
100
AcDbEntity
  8
0
  6
Continuous
100
AcDbLine
 10
116.5695895182208
 20
136.2233888534747
 30
0.0
 11
116.5695895182208
 21
145.2233879475764
 31
0.0
  0
LINE
  5
F0
330
E3
100
AcDbEntity
  8
0
  6
Continuous
100
AcDbLine
 10
116.5695895182208
 20
145.2233879475764
 30
0.0
 11
102.5695892766659
 21
145.2233879475764
 31
0.0
  0
HATCH
  5
F1
330
E3
100
AcDbEntity
  8
0
  6
Continuous
 62
   255
370
     0
100
AcDbHatch
 10
0.0
 20
0.0
 30
0.0
210
0.0
220
0.0
230
1.0
  2
SOLID
 70
     1
 71
     0
 91
        1
 92
        3
 72
     0
 73
     1
 93
        4
 10
102.5695893287255
 20
118.2233875856668
 10
191.2473488359454
 20
118.2233875856667
 10
191.2473488359454
 20
136.2233875856667
 10
102.5695893287255
 20
136.2233875856668
 97
        0
 75
     0
 76
     1
 98
        0
  0
LINE
  5
F2
330
E3
100
AcDbEntity
  8
0
  6
Continuous
100
AcDbLine
 10
102.5695892766659
 20
118.2233869511288
 30
0.0
 11
191.2473491412408
 21
118.2233869511288
 31
0.0
  0
LINE
  5
F3
330
E3
100
AcDbEntity
  8
0
  6
Continuous
100
AcDbLine
 10
191.2473491412408
 20
118.2233869511288
 30
0.0
 11
191.2473491412408
 21
136.2233888534747
 31
0.0
  0
LINE
  5
F4
330
E3
100
AcDbEntity
  8
0
  6
Continuous
100
AcDbLine
 10
191.2473491412408
 20
136.2233888534747
 30
0.0
 11
102.5695892766659
 21
136.2233888534747
 31
0.0
  0
LINE
  5
F5
330
E3
100
AcDbEntity
  8
0
  6
Continuous
100
AcDbLine
 10
102.5695892766659
 20
136.2233888534747
 30
0.0
 11
102.5695892766659
 21
118.2233869511288
 31
0.0
  0
HATCH
  5
F6
330
E3
100
AcDbEntity
  8
0
  6
Continuous
 62
   255
370
     0
100
AcDbHatch
 10
0.0
 20
0.0
 30
0.0
210
0.0
220
0.0
230
1.0
  2
SOLID
 70
     1
 71
     0
 91
        1
 92
        3
 72
     0
 73
     1
 93
       12
 10
102.5695893287255
 20
114.7187869893975
 10
102.5695893287255
 20
116.7187869893975
 10
100.9695893287254
 20
116.7187869893975
 10
100.9695893287254
 20
117.7187869893975
 10
102.5695893287255
 20
117.7187869893975
 10
102.5695893287255
 20
147.7187869893975
 10
100.9695893287255
 20
147.7187869893975
 10
100.9695893287255
 20
148.7187869893975
 10
102.5695893287255
 20
148.7187869893975
 10
102.5695893287255
 20
150.7187869893975
 10
98.56958932872544
 20
150.7187869893975
 10
98.56958932872544
 20
114.7187869893975
 97
        0
 75
     0
 76
     1
 98
        0
  0
HATCH
  5
F7
330
E3
100
AcDbEntity
  8
0
  6
Continuous
100
AcDbHatch
 10
0.0
 20
0.0
 30
0.0
210
0.0
220
0.0
230
1.0
  2
Wood_0002
 70
     0
 71
     0
 91
        1
 92
        3
 72
     0
 73
     1
 93
       12
 10
102.5695893287255
 20
114.7187869893975
 10
102.5695893287255
 20
116.7187869893975
 10
100.9695893287254
 20
116.7187869893975
 10
100.9695893287254
 20
117.7187869893975
 10
102.5695893287255
 20
117.7187869893975
 10
102.5695893287255
 20
147.7187869893975
 10
100.9695893287255
 20
147.7187869893975
 10
100.9695893287255
 20
148.7187869893975
 10
102.5695893287255
 20
148.7187869893975
 10
102.5695893287255
 20
150.7187869893975
 10
98.56958932872544
 20
150.7187869893975
 10
98.56958932872544
 20
114.7187869893975
 97
        0
 75
     0
 76
     2
 52
0.0
 41
1.0
 77
     0
 78
     1
 53
9.999999999999996
 43
88.58221535909416
 44
77.92816204534589
 45
-0.1562833557601421
 46
0.8863269542313407
 79
     0
 98
        0
  0
LINE
  5
F8
330
E3
100
AcDbEntity
  8
0
  6
Continuous
100
AcDbLine
 10
102.5695892766659
 20
114.7187887821144
 30
0.0
 11
102.5695892766659
 21
116.7187877554386
 31
0.0
  0
LINE
  5
F9
330
E3
100
AcDbEntity
  8
0
  6
Continuous
100
AcDbLine
 10
102.5695892766659
 20
116.7187877554386
 30
0.0
 11
100.9695886123495
 21
116.7187877554386
 31
0.0
  0
LINE
  5
FA
330
E3
100
AcDbEntity
  8
0
  6
Continuous
100
AcDbLine
 10
100.9695886123495
 20
116.7187877554386
 30
0.0
 11
100.9695886123495
 21
117.7187872421007
 31
0.0
  0
LINE
  5
FB
330
E3
100
AcDbEntity
  8
0
  6
Continuous
100
AcDbLine
 10
100.9695886123495
 20
117.7187872421007
 30
0.0
 11
102.5695892766659
 21
117.7187872421007
 31
0.0
  0
LINE
  5
FC
330
E3
100
AcDbEntity
  8
0
  6
Continuous
100
AcDbLine
 10
102.5695892766659
 20
117.7187872421007
 30
0.0
 11
102.5695892766659
 21
147.7187866985347
 31
0.0
  0
LINE
  5
FD
330
E3
100
AcDbEntity
  8
0
  6
Continuous
100
AcDbLine
 10
102.5695892766659
 20
147.7187866985347
 30
0.0
 11
100.9695886123495
 21
147.7187866985347
 31
0.0
  0
LINE
  5
FE
330
E3
100
AcDbEntity
  8
0
  6
Continuous
100
AcDbLine
 10
100.9695886123495
 20
147.7187866985347
 30
0.0
 11
100.9695886123495
 21
148.7187861851967
 31
0.0
  0
LINE
  5
FF
330
E3
100
AcDbEntity
  8
0
  6
Continuous
100
AcDbLine
 10
100.9695886123495
 20
148.7187861851967
 30
0.0
 11
102.5695892766659
 21
148.7187861851967
 31
0.0
  0
LINE
  5
100
330
E3
100
AcDbEntity
  8
0
  6
Continuous
100
AcDbLine
 10
102.5695892766659
 20
148.7187861851967
 30
0.0
 11
102.5695892766659
 21
150.718785158521
 31
0.0
  0
LINE
  5
101
330
E3
100
AcDbEntity
  8
0
  6
Continuous
100
AcDbLine
 10
102.5695892766659
 20
150.718785158521
 30
0.0
 11
98.56958761587481
 21
150.718785158521
 31
0.0
  0
LINE
  5
102
330
E3
100
AcDbEntity
  8
0
  6
Continuous
100
AcDbLine
 10
98.56958761587481
 20
150.718785158521
 30
0.0
 11
98.56958761587481
 21
114.7187887821144
 31
0.0
  0
LINE
  5
103
330
E3
100
AcDbEntity
  8
0
  6
Continuous
100
AcDbLine
 10
98.56958761587481
 20
114.7187887821144
 30
0.0
 11
102.5695892766659
 21
114.7187887821144
 31
0.0
  0
HATCH
  5
104
330
E3
100
AcDbEntity
  8
0
  6
Continuous
 62
   255
370
     0
100
AcDbHatch
 10
0.0
 20
0.0
 30
0.0
210
0.0
220
0.0
230
1.0
  2
SOLID
 70
     1
 71
     0
 91
        1
 92
        3
 72
     0
 73
     1
 93
        4
 10
111.5695893287254
 20
136.2233875856668
 10
102.5695893287255
 20
136.2233875856668
 10
102.5695893287255
 20
118.2233875856668
 10
111.5695893287254
 20
118.2233875856668
 97
        0
 75
     0
 76
     1
 98
        0
  0
LINE
  5
105
330
E3
100
AcDbEntity
  8
0
  6
Continuous
100
AcDbLine
 10
102.5695892766659
 20
136.2233888534747
 30
0.0
 11
111.5695883707676
 21
118.2233869511288
 31
0.0
  0
LINE
  5
106
330
E3
100
AcDbEntity
  8
0
  6
Continuous
100
AcDbLine
 10
111.5695883707676
 20
136.2233888534747
 30
0.0
 11
102.5695892766659
 21
118.2233869511288
 31
0.0
  0
LINE
  5
107
330
E3
100
AcDbEntity
  8
0
  6
Continuous
100
AcDbLine
 10
111.5695883707676
 20
136.2233888534747
 30
0.0
 11
102.5695892766659
 21
136.2233888534747
 31
0.0
  0
LINE
  5
108
330
E3
100
AcDbEntity
  8
0
  6
Continuous
100
AcDbLine
 10
102.5695892766659
 20
136.2233888534747
 30
0.0
 11
102.5695892766659
 21
118.2233869511288
 31
0.0
  0
LINE
  5
109
330
E3
100
AcDbEntity
  8
0
  6
Continuous
100
AcDbLine
 10
102.5695892766659
 20
118.2233869511288
 30
0.0
 11
111.5695883707676
 21
118.2233869511288
 31
0.0
  0
LINE
  5
10A
330
E3
100
AcDbEntity
  8
0
  6
Continuous
100
AcDbLine
 10
111.5695883707676
 20
118.2233869511288
 30
0.0
 11
111.5695883707676
 21
136.2233888534747
 31
0.0
  0
LINE
  5
10C
330
E3
100
AcDbEntity
  8
0
  6
Dashed
100
AcDbLine
 10
103.2177405998965
 20
146.1754304240812
 30
0.0
 11
191.9273975217229
 21
146.1754304240812
 31
0.0
  0
LINE
  5
10D
330
E3
100
AcDbEntity
  8
0
  6
Dashed
100
AcDbLine
 10
103.2177405998965
 20
146.1754304240812
 30
0.0
 11
103.2177405998965
 21
150.718785158521
 31
0.0
  0
LWPOLYLINE
  5
10E
330
E3
100
AcDbEntity
  8
0
  6
Continuous
100
AcDbPolyline
 90
        6
 70
   128
 43
0.0
 10
148.437024703438
 20
148.7219257486058
 10
144.5412540885773
 20
152.7619402202655
 10
97.81299334646921
 20
152.7619402202655
 10
97.81299334646921
 20
135.373636710085
 10
95.8121979669974
 20
134.0627707718103
 10
97.77849687440936
 20
132.0964718643984
  0
LWPOLYLINE
  5
10F
330
E3
100
AcDbEntity
  8
0
  6
Continuous
100
AcDbPolyline
 90
        3
 70
   128
 43
0.0
 10
178.6219416695376
 20
148.7128320392932
 42
-0.5012060838038215
 10
170.9671658819034
 20
148.9351567102603
 42
0.4736328287552234
 10
163.6468647499632
 20
148.8300379651829
  0
LWPOLYLINE
  5
110
330
E3
100
AcDbEntity
  8
0
  6
Continuous
100
AcDbPolyline
 90
       46
 70
   128
 43
0.0
 10
273.0555211455219
 20
146.9431885190353
 10
272.0555211455219
 20
146.9431885190353
 10
267.3555211455218
 20
152.1431885190352
 10
262.7555211455219
 20
152.1431885190352
 10
258.0555211455219
 20
146.9431885190353
 10
251.6555211455219
 20
146.9431885190353
 10
251.0217221250488
 20
147.6444129672182
 10
248.2893201659951
 20
147.6444129672182
 10
247.655521145522
 20
146.9431885190353
 10
241.255521145522
 20
146.9431885190353
 10
236.5555211455219
 20
152.1431885190352
 10
231.9555211455219
 20
152.1431885190352
 10
227.2555211455219
 20
146.9431885190353
 10
220.8555211455219
 20
146.9431885190353
 10
220.2217221250488
 20
147.6444129672182
 10
217.4893201659951
 20
147.6444129672182
 10
216.855521145522
 20
146.9431885190353
 10
210.455521145522
 20
146.9431885190353
 10
205.7555211455219
 20
152.1431885190352
 10
201.155521145522
 20
152.1431885190352
 10
196.4555211455219
 20
146.9431885190353
 10
190.0555211455219
 20
146.9431885190353
 10
189.4217221250488
 20
147.6444129672182
 10
186.6893201659951
 20
147.6444129672182
 10
186.055521145522
 20
146.9431885190353
 10
179.655521145522
 20
146.9431885190353
 10
174.9555211455219
 20
152.1431885190352
 10
170.355521145522
 20
152.1431885190352
 10
165.655521145522
 20
146.9431885190353
 10
159.2555211455219
 20
146.9431885190353
 10
158.6217221250488
 20
147.6444129672182
 10
155.8893201659951
 20
147.6444129672182
 10
155.255521145522
 20
146.9431885190353
 10
148.855521145522
 20
146.9431885190353
 10
144.155521145522
 20
152.1431885190352
 10
139.555521145522
 20
152.1431885190352
 10
134.8555211455219
 20
146.9431885190353
 10
128.4555211455219
 20
146.9431885190353
 10
127.8217221250489
 20
147.6444129672182
 10
125.0893201659951
 20
147.6444129672182
 10
124.4555211455221
 20
146.9431885190353
 10
118.055521145522
 20
146.9431885190353
 10
113.355521145522
 20
152.1431885190352
 10
111.0039036329902
 20
152.1431885190352
 10
108.755521145522
 20
152.1431885190352
 10
104.055521145522
 20
146.9431885190353
  0
LINE
  5
111
330
E3
100
AcDbEntity
  8
Doc_ Floor
  6
Continuous
100
AcDbLine
 10
90.70058210626985
 20
134.3956369606229
 30
0.0
 11
90.70058210626985
 21
135.3736375802495
 31
0.0
  0
LINE
  5
112
330
E3
100
AcDbEntity
  8
Doc_ Floor
  6
Continuous
100
AcDbLine
 10
90.70058210626985
 20
135.3736375802495
 30
0.0
 11
90.70058210626985
 21
150.718785158521
 31
0.0
  0
LINE
  5
113
330
E3
100
AcDbEntity
  8
Doc_ Floor
  6
Continuous
100
AcDbLine
 10
89.7005789054651
 20
135.9509862017584
 30
0.0
 11
91.70058159293198
 21
134.7962852445979
 31
0.0
  0
LINE
  5
114
330
E3
100
AcDbEntity
  8
Doc_ Floor
  6
Continuous
100
AcDbLine
 10
91.70058159293198
 20
150.1414365370121
 30
0.0
 11
89.7005789054651
 21
151.2961374941726
 31
0.0
  0
LINE
  5
115
330
E3
100
AcDbEntity
  8
Doc_ Floor
  6
Continuous
100
AcDbLine
 10
90.70058210626985
 20
150.718785158521
 30
0.0
 11
90.70058210626985
 21
151.6967857781476
 31
0.0
  0
LINE
  5
116
330
E3
100
AcDbEntity
  8
Doc_ Floor
  6
Continuous
100
AcDbLine
 10
92.20057947919169
 20
135.3736375802495
 30
0.0
 11
89.20058101920536
 21
135.3736375802495
 31
0.0
  0
LINE
  5
117
330
E3
100
AcDbEntity
  8
Doc_ Floor
  6
Continuous
100
AcDbLine
 10
92.20057947919169
 20
150.718785158521
 30
0.0
 11
89.20058101920536
 21
150.718785158521
 31
0.0
  0
MTEXT
  5
118
330
E3
100
AcDbEntity
  8
Doc_ Floor
  6
Continuous
100
AcDbMText
 10
90.20058037583867
 20
141.7167993521612
 30
0.0
 40
2.5
 41
0.0
 71
     7
 72
     1
  1
{A}
  7
GENERATED_STYLE_1
 11
6.123233995736766E-17
 21
1.0
 31
0.0
 73
     1
 44
1.0
  0
LINE
  5
119
330
E3
100
AcDbEntity
  8
Doc_ Floor
  6
Continuous
100
AcDbLine
 10
96.83499384947636
 20
160.2459882339414
 30
0.0
 11
97.81299446910299
 21
160.2459882339414
 31
0.0
  0
LINE
  5
11A
330
E3
100
AcDbEntity
  8
Doc_ Floor
  6
Continuous
100
AcDbLine
 10
97.81299446910299
 20
160.2459882339414
 30
0.0
 11
144.5412548068997
 21
160.2459882339414
 31
0.0
  0
LINE
  5
11B
330
E3
100
AcDbEntity
  8
Doc_ Floor
  6
Continuous
100
AcDbLine
 10
98.39034309061189
 20
161.2459877206036
 30
0.0
 11
97.23564213345142
 21
159.2459850331366
 31
0.0
  0
LINE
  5
11C
330
E3
100
AcDbEntity
  8
Doc_ Floor
  6
Continuous
100
AcDbLine
 10
143.9639024712482
 20
159.2459850331366
 30
0.0
 11
145.1186034284086
 21
161.2459877206036
 31
0.0
  0
LINE
  5
11D
330
E3
100
AcDbEntity
  8
Doc_ Floor
  6
Continuous
100
AcDbLine
 10
144.5412548068997
 20
160.2459882339414
 30
0.0
 11
145.5192554265263
 21
160.2459882339414
 31
0.0
  0
LINE
  5
11E
330
E3
100
AcDbEntity
  8
Doc_ Floor
  6
Continuous
100
AcDbLine
 10
97.81299446910299
 20
158.7459871468769
 30
0.0
 11
97.81299446910299
 21
161.7459856068633
 31
0.0
  0
LINE
  5
11F
330
E3
100
AcDbEntity
  8
Doc_ Floor
  6
Continuous
100
AcDbLine
 10
144.5412548068997
 20
158.7459871468769
 30
0.0
 11
144.5412548068997
 21
161.7459856068633
 31
0.0
  0
MTEXT
  5
120
330
E3
100
AcDbEntity
  8
Doc_ Floor
  6
Continuous
100
AcDbMText
 10
120.1653587143189
 20
160.7459864166554
 30
0.0
 40
2.5
 41
0.0
 71
     7
 72
     1
  1
{B}
  7
GENERATED_STYLE_1
 73
     1
 44
1.0
  0
MTEXT
  5
122
330
E3
100
AcDbEntity
  8
Doc_ Floor
  6
Continuous
100
AcDbMText
 10
120.9826250943956
 20
175.4424594491013
 30
0.0
 40
2.5
 41
56.6835322004004
 71
     6
 72
     1
  1
\A1;{\fCentury Gothic|b0|i0|c0|p34;TRS 6\PMIN. ROOF PITCH 4\fArial|b0|i0|c0|p34;\H1.029412x;\U+00B0}
  7
GENERATED_STYLE_1
 73
     1
 44
1.056356172275314
  0
LINE
  5
123
330
E3
100
AcDbEntity
  8
Doc_ Floor
  6
Continuous
100
AcDbLine
 10
137.2200259148637
 20
149.5592335310333
 30
0.0
 11
136.7679033276226
 21
153.396392320593
 31
0.0
  0
LINE
  5
124
330
E3
100
AcDbEntity
  8
Doc_ Floor
  6
Continuous
100
AcDbLine
 10
137.2200259148637
 20
149.5592335310333
 30
0.0
 11
138.7470548181391
 21
153.1083716989485
 31
0.0
  0
LINE
  5
125
330
E3
100
AcDbEntity
  8
Doc_ Floor
  6
Continuous
100
AcDbLine
 10
136.7679033276226
 20
153.396392320593
 30
0.0
 11
138.7470548181391
 21
153.1083716989485
 31
0.0
  0
LWPOLYLINE
  5
126
330
E3
100
AcDbEntity
  8
Doc_ Floor
  6
Continuous
100
AcDbPolyline
 90
       17
 70
   128
 43
0.0
 10
137.757478474123
 20
153.2523832358712
 10
138.073203381692
 20
156.231321249308
 10
138.2365737786304
 20
158.9621050492059
 10
138.2430469673934
 20
161.4524567628326
 10
138.088080250436
 20
163.7100985174561
 10
137.7671309302132
 20
165.7427524403442
 10
137.2756563091801
 20
167.5581406587645
 10
136.6091136897918
 20
169.1639852999849
 10
135.7629603745034
 20
170.5680084912733
 10
134.7326536657698
 20
171.7779323598973
 10
133.5136508660461
 20
172.8014790331248
 10
132.1014092777874
 20
173.6463706382237
 10
130.4913862034488
 20
174.3203293024616
 10
128.6790389454852
 20
174.8310771531064
 10
126.6598248063518
 20
175.1863363174259
 10
124.4292010885035
 20
175.3938289226879
 10
121.9826250943956
 20
175.4612770961602
  0
MTEXT
  5
127
330
E3
100
AcDbEntity
  8
Doc_ Floor
  6
Continuous
100
AcDbMText
 10
163.2824844036134
 20
158.3755513063321
 30
0.0
 40
2.5
 41
0.0
 71
     4
 72
     1
  1
{UNDERLAY}
  7
GENERATED_STYLE_1
 73
     1
 44
1.0
  0
LINE
  5
128
330
E3
100
AcDbEntity
  8
Doc_ Floor
  6
Continuous
100
AcDbLine
 10
154.684084458188
 20
146.1754304240812
 30
0.0
 11
153.4756212858766
 21
149.8452819429199
 31
0.0
  0
LINE
  5
129
330
E3
100
AcDbEntity
  8
Doc_ Floor
  6
Continuous
100
AcDbLine
 10
154.684084458188
 20
146.1754304240812
 30
0.0
 11
155.4724520955032
 21
149.9578464648251
 31
0.0
  0
LINE
  5
12A
330
E3
100
AcDbEntity
  8
Doc_ Floor
  6
Continuous
100
AcDbLine
 10
153.4756212858766
 20
149.8452819429199
 30
0.0
 11
155.4724520955032
 21
149.9578464648251
 31
0.0
  0
LWPOLYLINE
  5
12B
330
E3
100
AcDbEntity
  8
Doc_ Floor
  6
Continuous
100
AcDbPolyline
 90
        9
 70
   128
 43
0.0
 10
154.4740375884979
 20
149.9015639888482
 10
154.5745931644255
 20
152.0796554404201
 10
154.8979265295598
 20
153.89576233433
 10
155.4577202572921
 20
155.3719446458201
 10
156.2676569210134
 20
156.5302623501326
 10
157.3414190941151
 20
157.3927754225096
 10
158.6926893499881
 20
157.9815438381933
 10
160.3351502620239
 20
158.318627572426
 10
162.2824844036134
 20
158.4260866004497
  0
MTEXT
  5
12C
330
E3
100
AcDbEntity
  8
Doc_ Floor
  6
Continuous
100
AcDbMText
 10
72.07917622905462
 20
165.1470822058679
 30
0.0
 40
2.499999999999999
 41
0.0
 71
     6
 72
     1
  1
{PURLIN}
  7
GENERATED_STYLE_1
 73
     1
 44
1.0
  0
LINE
  5
12D
330
E3
100
AcDbEntity
  8
Doc_ Floor
  6
Continuous
100
AcDbLine
 10
109.2442602126769
 20
142.0556662328901
 30
0.0
 11
106.1278345224084
 21
144.3395445587815
 31
0.0
  0
LINE
  5
12E
330
E3
100
AcDbEntity
  8
Doc_ Floor
  6
Continuous
100
AcDbLine
 10
109.2442602126769
 20
142.0556662328901
 30
0.0
 11
107.6872953194798
 21
145.5917751883183
 31
0.0
  0
LINE
  5
12F
330
E3
100
AcDbEntity
  8
Doc_ Floor
  6
Continuous
100
AcDbLine
 10
106.1278345224084
 20
144.3395445587815
 30
0.0
 11
107.6872953194798
 21
145.5917751883183
 31
0.0
  0
LWPOLYLINE
  5
130
330
E3
100
AcDbEntity
  8
Doc_ Floor
  6
Continuous
100
AcDbPolyline
 90
       16
 70
   128
 43
0.0
 10
106.907564909342
 20
144.9656604748258
 10
102.4169069721508
 20
150.1701804850505
 10
100.2715936854066
 20
152.4397475966348
 10
98.17820212769604
 20
154.4969613863253
 10
96.12566575486883
 20
156.3489033094655
 10
94.10291802277453
 20
158.0026548213993
 10
92.09889238726274
 20
159.4652973774702
 10
90.10252230418307
 20
160.7439124330219
 10
88.10274122938513
 20
161.8455814433981
 10
86.08848261871852
 20
162.7773858639425
 10
84.04867992803284
 20
163.5464071499987
 10
81.97226661317771
 20
164.1597267569104
 10
79.84817613000271
 20
164.6244261400213
 10
77.66534193435747
 20
164.947586754675
 10
75.41269748209156
 20
165.1362900562152
 10
73.07917622905464
 20
165.1976174999855
  0
MTEXT
  5
131
330
E3
100
AcDbEntity
  8
Doc_ Floor
  6
Continuous
100
AcDbMText
 10
54.80453386580181
 20
104.8149940864735
 30
0.0
 40
2.5
 41
0.0
 71
     4
 72
     1
  1
{FASCIA}
  7
GENERATED_STYLE_1
 73
     1
 44
1.0
  0
LINE
  5
132
330
E3
100
AcDbEntity
  8
Doc_ Floor
  6
Continuous
100
AcDbLine
 10
100.0367631100203
 20
123.1124132297396
 30
0.0
 11
98.49506705734031
 21
119.5696225316478
 31
0.0
  0
LINE
  5
133
330
E3
100
AcDbEntity
  8
Doc_ Floor
  6
Continuous
100
AcDbLine
 10
100.0367631100203
 20
123.1124132297396
 30
0.0
 11
96.93022075339714
 21
120.8151119922381
 31
0.0
  0
LINE
  5
134
330
E3
100
AcDbEntity
  8
Doc_ Floor
  6
Continuous
100
AcDbLine
 10
98.49506705734031
 20
119.5696225316478
 30
0.0
 11
96.93022075339714
 21
120.8151119922381
 31
0.0
  0
LWPOLYLINE
  5
135
330
E3
100
AcDbEntity
  8
Doc_ Floor
  6
Continuous
100
AcDbPolyline
 90
       13
 70
   128
 43
0.0
 10
97.71264383240221
 20
120.1923680432735
 10
94.3318714532911
 20
116.2461998141194
 10
91.16241413546662
 20
112.9638427296374
 10
88.14169848095585
 20
110.3028687615033
 10
86.66756459057655
 20
109.1921416872155
 10
85.20715109178582
 20
108.2208498813931
 10
83.75263630983706
 20
107.3836898404956
 10
82.29619856998363
 20
106.6753580609826
 10
80.83001619747893
 20
106.0905510393135
 10
79.34626751757632
 20
105.6239652719478
 10
77.83713085552921
 20
105.270297255345
 10
76.29478453659097
 20
105.0242434859646
 10
73.07917622905464
 20
104.8337646747088
  0
MTEXT
  5
136
330
E3
100
AcDbEntity
  8
Doc_ Floor
  6
Continuous
100
AcDbMText
 10
72.07917622905462
 20
155.2824747860974
 30
0.0
 40
2.5
 41
0.0
 71
     6
 72
     1
  1
{METAL FLASHING}
  7
GENERATED_STYLE_1
 73
     1
 44
1.0
  0
LINE
  5
137
330
E3
100
AcDbEntity
  8
Doc_ Floor
  6
Continuous
100
AcDbLine
 10
97.81299446910299
 20
149.5997808265636
 30
0.0
 11
93.97037217567544
 21
150.0028395891316
 31
0.0
  0
LINE
  5
138
330
E3
100
AcDbEntity
  8
Doc_ Floor
  6
Continuous
100
AcDbLine
 10
97.81299446910299
 20
149.5997808265636
 30
0.0
 11
94.68671515833051
 21
151.8701508155636
 31
0.0
  0
LINE
  5
139
330
E3
100
AcDbEntity
  8
Doc_ Floor
  6
Continuous
100
AcDbLine
 10
93.97037217567544
 20
150.0028395891316
 30
0.0
 11
94.68671515833051
 21
151.8701508155636
 31
0.0
  0
LWPOLYLINE
  5
13A
330
E3
100
AcDbEntity
  8
Doc_ Floor
  6
Continuous
100
AcDbPolyline
 90
        8
 70
   128
 43
0.0
 10
94.32854256511091
 20
150.9364950908936
 10
88.28221316522433
 20
152.98620262118
 10
85.56919172185361
 20
153.7422327961995
 10
82.9953877548089
 20
154.3346171646123
 10
80.51014274304842
 20
154.7750331665252
 10
78.0627981655304
 20
155.075158242045
 10
75.60269550121306
 20
155.2466698312786
 10
73.07917622905464
 20
155.3012453743327
  0
MTEXT
  5
13B
330
E3
100
AcDbEntity
  8
Doc_ Floor
  6
Continuous
100
AcDbMText
 10
72.07917622905462
 20
126.0402024897168
 30
0.0
 40
2.5
 41
39.1484652691462
 71
     6
 72
     1
  1
{BIRD'S BEAK AT BOTTOM EDGE}
  7
GENERATED_STYLE_1
 73
     1
 44
1.070162922071087
  0
LINE
  5
13C
330
E3
100
AcDbEntity
  8
Doc_ Floor
  6
Continuous
100
AcDbLine
 10
96.57953140247866
 20
132.0954349776959
 30
0.0
 11
93.56989845640588
 21
129.6725660048009
 31
0.0
  0
LINE
  5
13D
330
E3
100
AcDbEntity
  8
Doc_ Floor
  6
Continuous
100
AcDbLine
 10
96.57953140247866
 20
132.0954349776959
 30
0.0
 11
92.76167872651855
 21
131.5019855477118
 31
0.0
  0
LINE
  5
13E
330
E3
100
AcDbEntity
  8
Doc_ Floor
  6
Continuous
100
AcDbLine
 10
93.56989845640588
 20
129.6725660048009
 30
0.0
 11
92.76167872651855
 21
131.5019855477118
 31
0.0
  0
LWPOLYLINE
  5
13F
330
E3
100
AcDbEntity
  8
Doc_ Floor
  6
Continuous
100
AcDbPolyline
 90
        9
 70
   128
 43
0.0
 10
93.16578875449653
 20
130.5872752668234
 10
90.30568684265508
 20
129.4277217743254
 10
87.63904457666244
 20
128.4618055629317
 10
85.11902861161722
 20
127.6774967922674
 10
82.6988056026181
 20
127.062765621958
 10
80.33154220476362
 20
126.6055822116287
 10
77.97040507315249
 20
126.293916720905
 10
75.56856086288329
 20
126.1157393094122
 10
73.07917622905464
 20
126.0590201367757
  0
LINE
  5
140
330
E3
100
AcDbEntity
  8
0
  6
Continuous
100
AcDbLine
 10
66.21013445849655
 20
72.87450720303973
 30
0.0
 11
190.5732359607457
 21
72.87450720303973
 31
0.0
  0
LINE
  5
141
330
E3
100
AcDbEntity
  8
0
  6
Continuous
100
AcDbLine
 10
166.6032176980608
 20
80.96087548413165
 30
0.0
 11
166.6032176980608
 21
40.59272791132295
 31
0.0
  0
LINE
  5
142
330
E3
100
AcDbEntity
  8
0
  6
Continuous
100
AcDbLine
 10
66.21013445849655
 20
40.59272791132295
 30
0.0
 11
66.21013445849655
 21
72.87450720303973
 31
0.0
  0
LINE
  5
143
330
E3
100
AcDbEntity
  8
0
  6
Continuous
100
AcDbLine
 10
142.6332031495185
 20
80.96087548413165
 30
0.0
 11
142.6332031495185
 21
40.59272791132295
 31
0.0
  0
LINE
  5
144
330
E3
100
AcDbEntity
  8
0
  6
Continuous
100
AcDbLine
 10
66.21013445849655
 20
62.11391534384836
 30
0.0
 11
190.5732359607457
 21
62.11391534384836
 31
0.0
  0
LINE
  5
145
330
E3
100
AcDbEntity
  8
0
  6
Continuous
100
AcDbLine
 10
66.21013445849655
 20
51.35331977051431
 30
0.0
 11
190.5732359607457
 21
51.35331977051431
 31
0.0
  0
LINE
  5
146
330
E3
100
AcDbEntity
  8
0
  6
Continuous
100
AcDbLine
 10
142.6332031495185
 20
80.96087548413165
 30
0.0
 11
166.6032176980608
 21
80.96087548413165
 31
0.0
  0
LINE
  5
147
330
E3
100
AcDbEntity
  8
0
  6
Continuous
100
AcDbLine
 10
66.21013445849655
 20
40.59272791132295
 30
0.0
 11
190.5732359607457
 21
40.59272791132295
 31
0.0
  0
LINE
  5
148
330
E3
100
AcDbEntity
  8
0
  6
Continuous
100
AcDbLine
 10
190.5732359607457
 20
80.96087548413165
 30
0.0
 11
190.5732359607457
 21
40.59272791132295
 31
0.0
  0
LINE
  5
149
330
E3
100
AcDbEntity
  8
0
  6
Continuous
100
AcDbLine
 10
166.6032176980608
 20
80.96087548413165
 30
0.0
 11
190.5732359607457
 21
80.96087548413165
 31
0.0
  0
MTEXT
  5
14A
330
E3
100
AcDbEntity
  8
0
  6
Continuous
100
AcDbMText
 10
69.76606136219841
 20
64.03086577999713
 30
0.0
 40
2.499999999999999
 41
69.01187578516154
 71
     7
 72
     1
  1
\A1;{\fCentury Gothic|b0|i0|c0|p34;LOW, MEDIUM OR HIGH WIND ZONE.\P ROOF PITCH \fArial|b0|i0|c0|p34;\H1.029412x;\U+2265\fCentury Gothic|b0|i0|c0|p34;\H0.971429x; 10\fArial|b0|i0|c0|p34;\H1.029412x;\U+00B0}
  7
GENERATED_STYLE_1
 73
     1
 44
1.056355725756043
  0
MTEXT
  5
14B
330
E3
100
AcDbEntity
  8
0
  6
Continuous
100
AcDbMText
 10
69.76606136219841
 20
53.60802117200781
 30
0.0
 40
2.5
 41
69.01187578516154
 71
     7
 72
     1
  1
\A1;{\fCentury Gothic|b0|i0|c0|p34;VERY HIGH WIND ZONE.\P ROOF PITCH \fArial|b0|i0|c0|p34;\H1.029412x;<\fCentury Gothic|b0|i0|c0|p34;\H0.971429x; 10\fArial|b0|i0|c0|p34;\H1.029412x;\U+00B0}
  7
GENERATED_STYLE_1
 73
     1
 44
1.056355725756043
  0
MTEXT
  5
14C
330
E3
100
AcDbEntity
  8
0
  6
Continuous
100
AcDbMText
 10
154.2653954187865
 20
66.07069325365727
 30
0.0
 40
2.499999999999999
 41
0.0
 71
     8
 72
     1
  1
{50MM}
  7
GENERATED_STYLE_1
 73
     1
 44
1.0
  0
MTEXT
  5
14D
330
E3
100
AcDbEntity
  8
0
  6
Continuous
100
AcDbMText
 10
154.2653954187865
 20
54.83191373219951
 30
0.0
 40
2.499999999999999
 41
0.0
 71
     8
 72
     1
  1
{75MM}
  7
GENERATED_STYLE_1
 73
     1
 44
1.0
  0
MTEXT
  5
14E
330
E3
100
AcDbEntity
  8
0
  6
Continuous
100
AcDbMText
 10
154.2653954187865
 20
75.95275757685893
 30
0.0
 40
2.499999999999999
 41
0.0
 71
     8
 72
     1
  1
{A}
  7
GENERATED_STYLE_1
 73
     1
 44
1.0
  0
MTEXT
  5
14F
330
E3
100
AcDbEntity
  8
0
  6
Continuous
100
AcDbMText
 10
69.76606136219841
 20
45.13644986274809
 30
0.0
 40
2.5
 41
0.0
 71
     7
 72
     1
  1
{EXTRA WIND ZONE.}
  7
GENERATED_STYLE_1
 73
     1
 44
1.0
  0
MTEXT
  5
150
330
E3
100
AcDbEntity
  8
0
  6
Continuous
100
AcDbMText
 10
154.2653954187865
 20
44.07132036672397
 30
0.0
 40
2.499999999999999
 41
0.0
 71
     8
 72
     1
  1
{90MM}
  7
GENERATED_STYLE_1
 73
     1
 44
1.0
  0
MTEXT
  5
151
330
E3
100
AcDbEntity
  8
0
  6
Continuous
100
AcDbMText
 10
178.2354122555745
 20
66.07069065932116
 30
0.0
 40
2.499999999999999
 41
0.0
 71
     8
 72
     1
  1
{2 CRESTS}
  7
GENERATED_STYLE_1
 73
     1
 44
1.0
  0
MTEXT
  5
152
330
E3
100
AcDbEntity
  8
0
  6
Continuous
100
AcDbMText
 10
178.2354122555745
 20
54.83191065154158
 30
0.0
 40
2.499999999999999
 41
0.0
 71
     8
 72
     1
  1
{2 CRESTS}
  7
GENERATED_STYLE_1
 73
     1
 44
1.0
  0
MTEXT
  5
153
330
E3
100
AcDbEntity
  8
0
  6
Continuous
100
AcDbMText
 10
178.2354122555745
 20
75.9527580917946
 30
0.0
 40
2.499999999999999
 41
0.0
 71
     8
 72
     1
  1
{B}
  7
GENERATED_STYLE_1
 73
     1
 44
1.0
  0
MTEXT
  5
154
330
E3
100
AcDbEntity
  8
0
  6
Continuous
100
AcDbMText
 10
178.2354122555745
 20
44.07131728606605
 30
0.0
 40
2.499999999999999
 41
0.0
 71
     8
 72
     1
  1
{2 CRESTS}
  7
GENERATED_STYLE_1
 73
     1
 44
1.0
  0
HATCH
  5
155
330
E3
100
AcDbEntity
  8
0
  6
Continuous
 62
   255
370
     0
100
AcDbHatch
 10
0.0
 20
0.0
 30
0.0
210
0.0
220
0.0
230
1.0
  2
SOLID
 70
     1
 71
     0
 91
        1
 92
        3
 72
     0
 73
     1
 93
        4
 10
100.9695893287254
 20
116.7187869893975
 10
191.2473488359454
 20
116.7187869893975
 10
191.2473488359454
 20
117.6187869893975
 10
100.9695893287254
 20
117.6187869893975
 97
        0
 75
     0
 76
     1
 98
        0
  0
HATCH
  5
156
330
E3
100
AcDbEntity
  8
0
  6
Continuous
100
AcDbHatch
 10
0.0
 20
0.0
 30
0.0
210
0.0
220
0.0
230
1.0
  2
Plaster_0002
 70
     0
 71
     0
 91
        1
 92
        3
 72
     0
 73
     1
 93
        4
 10
100.9695893287254
 20
116.7187869893975
 10
191.2473488359454
 20
116.7187869893975
 10
191.2473488359454
 20
117.6187869893975
 10
100.9695893287254
 20
117.6187869893975
 97
        0
 75
     0
 76
     2
 52
0.0
 41
1.0
 77
     0
 78
     2
 53
0.0
 43
88.58221535909416
 44
77.92816204534589
 45
0.0
 46
1.732050807568877
 79
     2
 49
0.0
 49
-1.0
 53
0.0
 43
89.08221535909416
 44
78.7941874335867
 45
0.0
 46
1.732050807568877
 79
     2
 49
0.0
 49
-1.0
 98
        0
  0
LINE
  5
157
330
E3
100
AcDbEntity
  8
0
  6
Continuous
100
AcDbLine
 10
100.9695886123495
 20
116.7187877554386
 30
0.0
 11
191.2473491412408
 21
116.7187877554386
 31
0.0
  0
LINE
  5
158
330
E3
100
AcDbEntity
  8
0
  6
Continuous
100
AcDbLine
 10
191.2473491412408
 20
116.7187877554386
 30
0.0
 11
191.2473491412408
 21
117.6187876648487
 31
0.0
  0
LINE
  5
159
330
E3
100
AcDbEntity
  8
0
  6
Continuous
100
AcDbLine
 10
191.2473491412408
 20
117.6187876648487
 30
0.0
 11
100.9695886123495
 21
117.6187876648487
 31
0.0
  0
LINE
  5
15A
330
E3
100
AcDbEntity
  8
0
  6
Continuous
100
AcDbLine
 10
100.9695886123495
 20
117.6187876648487
 30
0.0
 11
100.9695886123495
 21
116.7187877554386
 31
0.0
  0
HATCH
  5
15B
330
E3
100
AcDbEntity
  8
0
  6
Continuous
 62
   255
370
     0
100
AcDbHatch
 10
0.0
 20
0.0
 30
0.0
210
0.0
220
0.0
230
1.0
  2
SOLID
 70
     1
 71
     0
 91
        1
 92
        3
 72
     0
 73
     1
 93
        8
 10
150.6792432694976
 20
132.6355716037923
 10
156.4477116778392
 20
131.32249217489
 10
152.8792116841844
 20
111.0845261783413
 10
273.3507756340397
 20
111.0845261783413
 10
281.1823685845279
 20
155.4996927440029
 10
160.7108046346726
 20
155.4996927440029
 10
157.1423046410177
 20
135.2617267474542
 10
162.9107730493593
 20
133.9486473185519
 97
        0
 75
     0
 76
     1
 98
        0
  0
LINE
  5
15C
330
E3
100
AcDbEntity
  8
0
  6
Continuous
100
AcDbLine
 10
152.8792116841844
 20
111.0845261783413
 30
0.0
 11
156.4477116778392
 21
131.32249217489
 31
0.0
  0
LINE
  5
15D
330
E3
100
AcDbEntity
  8
0
  6
Continuous
100
AcDbLine
 10
157.1423046410177
 20
135.2617267474542
 30
0.0
 11
160.7108046346726
 21
155.4996927440029
 31
0.0
  0
LINE
  5
15E
330
E3
100
AcDbEntity
  8
0
  6
Continuous
100
AcDbLine
 10
157.1423046410177
 20
135.2617267474542
 30
0.0
 11
162.9107730493593
 21
133.9486473185519
 31
0.0
  0
LINE
  5
15F
330
E3
100
AcDbEntity
  8
0
  6
Continuous
100
AcDbLine
 10
162.9107730493593
 20
133.9486473185519
 30
0.0
 11
150.6792432694976
 21
132.6355716037923
 31
0.0
  0
LINE
  5
160
330
E3
100
AcDbEntity
  8
0
  6
Continuous
100
AcDbLine
 10
150.6792432694976
 20
132.6355716037923
 30
0.0
 11
156.4477116778392
 21
131.32249217489
 31
0.0
  0
MTEXT
  5
161
330
E3
100
AcDbEntity
  8
Doc_ Floor
  6
Continuous
100
AcDbMText
 10
161.6253131053287
 20
102.7555189180127
 30
0.0
 40
2.499999999999999
 41
0.0
 71
     4
 72
     1
  1
{ROOF FRAME}
  7
GENERATED_STYLE_1
 73
     1
 44
1.0
  0
LINE
  5
162
330
E3
100
AcDbEntity
  8
Doc_ Floor
  6
Continuous
100
AcDbLine
 10
141.0680968555884
 20
128.3867855245244
 30
0.0
 11
143.2839469443329
 21
125.2216302824232
 31
0.0
  0
LINE
  5
163
330
E3
100
AcDbEntity
  8
Doc_ Floor
  6
Continuous
100
AcDbLine
 10
141.0680968555884
 20
128.3867855245244
 30
0.0
 11
141.4045016137974
 21
124.5377563349909
 31
0.0
  0
LINE
  5
164
330
E3
100
AcDbEntity
  8
Doc_ Floor
  6
Continuous
100
AcDbLine
 10
143.2839469443329
 20
125.2216302824232
 30
0.0
 11
141.4045016137974
 21
124.5377563349909
 31
0.0
  0
LWPOLYLINE
  5
165
330
E3
100
AcDbEntity
  8
Doc_ Floor
  6
Continuous
100
AcDbPolyline
 90
       15
 70
   128
 43
0.0
 10
142.344225010833
 20
124.8796920078072
 10
144.5993053446809
 20
119.1954515383227
 10
146.7688586771466
 20
114.469055013598
 10
147.8362680831648
 20
112.4457898086515
 10
148.8999421772018
 20
110.6388754836518
 10
149.9657631053792
 20
109.0406086698515
 10
151.0396130138182
 20
107.6432859985027
 10
152.1273740486405
 20
106.4392041008578
 10
153.2349283559675
 20
105.4206596081691
 10
154.3681580819206
 20
104.579949151689
 10
155.5329453726212
 20
103.9093693626698
 10
156.7351723741909
 20
103.4012168723637
 10
157.9807212327511
 20
103.0477883120232
 10
159.2754740944232
 20
102.8413803129005
 10
160.6253131053287
 20
102.774289506248
  0
MTEXT
  5
166
330
E3
100
AcDbEntity
  8
Doc_ Floor
  6
Continuous
100
AcDbMText
 10
143.7605745609335
 20
94.02565033232516
 30
0.0
 40
2.5
 41
0.0
 71
     4
 72
     1
  1
{SOFFIT BOARD}
  7
GENERATED_STYLE_1
 73
     1
 44
1.0
  0
LINE
  5
167
330
E3
100
AcDbEntity
  8
Doc_ Floor
  6
Continuous
100
AcDbLine
 10
117.1860703469027
 20
116.7187877554386
 30
0.0
 11
119.9657458636939
 21
114.035208251953
 31
0.0
  0
LINE
  5
168
330
E3
100
AcDbEntity
  8
Doc_ Floor
  6
Continuous
100
AcDbLine
 10
117.1860703469027
 20
116.7187877554386
 30
0.0
 11
118.2515501688401
 21
113.0049013611022
 31
0.0
  0
LINE
  5
169
330
E3
100
AcDbEntity
  8
Doc_ Floor
  6
Continuous
100
AcDbLine
 10
119.9657458636939
 20
114.035208251953
 30
0.0
 11
118.2515501688401
 21
113.0049013611022
 31
0.0
  0
LWPOLYLINE
  5
16A
330
E3
100
AcDbEntity
  8
Doc_ Floor
  6
Continuous
100
AcDbPolyline
 90
       15
 70
   128
 43
0.0
 10
119.108648019235
 20
113.5200545041735
 10
122.3385193947859
 20
108.5127659958592
 10
125.3680024686702
 20
104.348986120013
 10
126.8267045754335
 20
102.566472370012
 10
128.2582370263156
 20
100.9745083190241
 10
129.6702422944949
 20
99.56631814734772
 10
131.07036285315
 20
98.33512603528165
 10
132.4662411754592
 20
97.27415616312449
 10
133.8655197346012
 20
96.3766327111749
 10
135.2758410037542
 20
95.63577985973151
 10
136.7048474560969
 20
95.04482178909299
 10
138.1601815648077
 20
94.59698267955798
 10
139.6494858030651
 20
94.28548671142511
 10
141.1804026440476
 20
94.10355806499305
 10
142.7605745609335
 20
94.04442092056046
  0
HATCH
  5
16B
330
E3
100
AcDbEntity
  8
0
  6
Continuous
 62
   255
370
     0
100
AcDbHatch
 10
0.0
 20
0.0
 30
0.0
210
0.0
220
0.0
230
1.0
  2
SOLID
 70
     1
 71
     0
 91
        1
 92
        3
 72
     0
 73
     1
 93
        4
 10
142.8535490086083
 20
154.1644945445292
 10
141.3535490086083
 20
154.1644945445292
 10
141.3535490086083
 20
153.6644945445292
 10
142.8535490086083
 20
153.6644945445292
 97
        0
 75
     0
 76
     1
 98
        0
  0
HATCH
  5
16C
330
E3
100
AcDbEntity
  8
0
  6
Continuous
 62
   255
370
     0
100
AcDbHatch
 10
0.0
 20
0.0
 30
0.0
210
0.0
220
0.0
230
1.0
  2
SOLID
 70
     1
 71
     0
 91
        1
 92
        3
 72
     1
 73
     1
 93
        4
 10
142.6035490086083
 20
154.0811612111958
 42
0.1666666666666667
 10
141.6035490086083
 20
154.0811612111958
 42
0.0
 10
141.6035490086083
 20
153.7478278778625
 42
0.1666666666666667
 10
142.6035490086083
 20
153.7478278778625
 42
0.0
 97
        0
 75
     0
 76
     1
 98
        0
  0
ARC
  5
16D
330
E3
100
AcDbEntity
  8
0
  6
Continuous
100
AcDbCircle
 10
142.1035490086083
 20
152.6228278778625
 30
0.0
 40
1.541666666666673
100
AcDbArc
 50
71.07535558394882
 51
108.9246444160512
  0
LINE
  5
16E
330
E3
100
AcDbEntity
  8
0
  6
Continuous
100
AcDbLine
 10
141.6035499477777
 20
154.0811613764088
 30
0.0
 11
141.6035499477777
 21
153.7478282141881
 31
0.0
  0
ARC
  5
16F
330
E3
100
AcDbEntity
  8
0
  6
Continuous
100
AcDbCircle
 10
142.1035490086083
 20
155.2061612111958
 30
0.0
 40
1.541666666666673
100
AcDbArc
 50
251.0753555839488
 51
288.9246444160512
  0
LINE
  5
170
330
E3
100
AcDbEntity
  8
0
  6
Continuous
100
AcDbLine
 10
142.6035494344398
 20
153.7478282141881
 30
0.0
 11
142.6035494344398
 21
154.0811613764088
 31
0.0
  0
HATCH
  5
171
330
E3
100
AcDbEntity
  8
0
  6
Continuous
 62
   255
370
     0
100
AcDbHatch
 10
0.0
 20
0.0
 30
0.0
210
0.0
220
0.0
230
1.0
  2
SOLID
 70
     1
 71
     0
 91
        1
 92
        3
 72
     1
 73
     1
 93
        4
 10
143.1035490086083
 20
154.0811612111958
 42
0.3333333333333333
 10
142.6035490086083
 20
154.0811612111958
 42
0.0
 10
142.6035490086083
 20
153.7478278778625
 42
0.3333333333333333
 10
143.1035490086083
 20
153.7478278778625
 42
0.0
 97
        0
 75
     0
 76
     1
 98
        0
  0
ARC
  5
172
330
E3
100
AcDbEntity
  8
0
  6
Continuous
100
AcDbCircle
 10
142.8535490086083
 20
153.7478278778625
 30
0.0
 40
0.4166666666666375
100
AcDbArc
 50
53.13010235415292
 51
126.8698976458448
  0
LINE
  5
173
330
E3
100
AcDbEntity
  8
0
  6
Continuous
100
AcDbLine
 10
142.6035494344398
 20
154.0811613764088
 30
0.0
 11
142.6035494344398
 21
153.7478282141881
 31
0.0
  0
ARC
  5
174
330
E3
100
AcDbEntity
  8
0
  6
Continuous
100
AcDbCircle
 10
142.8535490086083
 20
154.0811612111958
 30
0.0
 40
0.4166666666666596
100
AcDbArc
 50
233.1301023541552
 51
306.8698976458448
  0
LINE
  5
175
330
E3
100
AcDbEntity
  8
0
  6
Continuous
100
AcDbLine
 10
143.1035473206995
 20
153.7478282141881
 30
0.0
 11
143.1035473206995
 21
154.0811613764088
 31
0.0
  0
HATCH
  5
176
330
E3
100
AcDbEntity
  8
0
  6
Continuous
 62
   255
370
     0
100
AcDbHatch
 10
0.0
 20
0.0
 30
0.0
210
0.0
220
0.0
230
1.0
  2
SOLID
 70
     1
 71
     0
 91
        1
 92
        3
 72
     1
 73
     1
 93
        4
 10
141.1035490086083
 20
154.0811612111958
 42
0.0
 10
141.1035490086083
 20
153.7478278778625
 42
0.3333333333333333
 10
141.6035490086083
 20
153.7478278778625
 42
0.0
 10
141.6035490086083
 20
154.0811612111958
 42
0.3333333333333333
 97
        0
 75
     0
 76
     1
 98
        0
  0
LINE
  5
177
330
E3
100
AcDbEntity
  8
0
  6
Continuous
100
AcDbLine
 10
141.1035483473753
 20
153.7478282141881
 30
0.0
 11
141.1035483473753
 21
154.0811613764088
 31
0.0
  0
ARC
  5
178
330
E3
100
AcDbEntity
  8
0
  6
Continuous
100
AcDbCircle
 10
141.3535490086083
 20
154.0811612111958
 30
0.0
 40
0.4166666666666596
100
AcDbArc
 50
233.1301023541552
 51
306.8698976458448
  0
LINE
  5
179
330
E3
100
AcDbEntity
  8
0
  6
Continuous
100
AcDbLine
 10
141.6035499477777
 20
154.0811613764088
 30
0.0
 11
141.6035499477777
 21
153.7478282141881
 31
0.0
  0
ARC
  5
17A
330
E3
100
AcDbEntity
  8
0
  6
Continuous
100
AcDbCircle
 10
141.3535490086083
 20
153.7478278778625
 30
0.0
 40
0.4166666666666596
100
AcDbArc
 50
53.13010235415521
 51
126.8698976458448
  0
HATCH
  5
17B
330
E3
100
AcDbEntity
  8
0
  6
Continuous
 62
   255
370
     0
100
AcDbHatch
 10
0.0
 20
0.0
 30
0.0
210
0.0
220
0.0
230
1.0
  2
SOLID
 70
     1
 71
     0
 91
        1
 92
        3
 72
     0
 73
     1
 93
        4
 10
141.7702160086083
 20
153.6644945445292
 10
141.7702160086083
 20
152.0644945445292
 10
142.4368820086083
 20
152.0644945445292
 10
142.4368820086083
 20
153.6644945445292
 97
        0
 75
     0
 76
     1
 98
        0
  0
LINE
  5
17C
330
E3
100
AcDbEntity
  8
0
  6
Continuous
100
AcDbLine
 10
141.7702146718167
 20
153.6644939950973
 30
0.0
 11
141.7702146718167
 21
152.0644933307808
 31
0.0
  0
LINE
  5
17D
330
E3
100
AcDbEntity
  8
0
  6
Continuous
100
AcDbLine
 10
141.7702146718167
 20
152.0644933307808
 30
0.0
 11
142.4368809962581
 21
152.0644933307808
 31
0.0
  0
LINE
  5
17E
330
E3
100
AcDbEntity
  8
0
  6
Continuous
100
AcDbLine
 10
142.4368809962581
 20
152.0644933307808
 30
0.0
 11
142.4368809962581
 21
153.6644939950973
 31
0.0
  0
LINE
  5
17F
330
E3
100
AcDbEntity
  8
0
  6
Continuous
100
AcDbLine
 10
142.4368809962581
 20
153.6644939950973
 30
0.0
 11
141.7702146718167
 21
153.6644939950973
 31
0.0
  0
HATCH
  5
180
330
E3
100
AcDbEntity
  8
0
  6
Continuous
 62
   255
370
     0
100
AcDbHatch
 10
0.0
 20
0.0
 30
0.0
210
0.0
220
0.0
230
1.0
  2
SOLID
 70
     1
 71
     0
 91
        1
 92
        3
 72
     0
 73
     1
 93
        5
 10
141.8035490086083
 20
152.0644945445292
 10
141.8035490086082
 20
141.6644945445292
 10
142.1035490086082
 20
141.0644945445292
 10
142.4035490086082
 20
141.6644945445292
 10
142.4035490086083
 20
152.0644945445292
 97
        0
 75
     0
 76
     1
 98
        0
  0
LINE
  5
181
330
E3
100
AcDbEntity
  8
0
  6
Continuous
100
AcDbLine
 10
141.8035491022816
 20
152.0644933307808
 30
0.0
 11
141.8035491022816
 21
141.6644927268666
 31
0.0
  0
LINE
  5
182
330
E3
100
AcDbEntity
  8
0
  6
Continuous
100
AcDbLine
 10
141.8035491022816
 20
141.6644927268666
 30
0.0
 11
142.1035478340374
 21
141.064495263355
 31
0.0
  0
LINE
  5
183
330
E3
100
AcDbEntity
  8
0
  6
Continuous
100
AcDbLine
 10
142.1035478340374
 20
141.064495263355
 30
0.0
 11
142.4035502799359
 21
141.6644927268666
 31
0.0
  0
LINE
  5
184
330
E3
100
AcDbEntity
  8
0
  6
Continuous
100
AcDbLine
 10
142.4035502799359
 20
141.6644927268666
 30
0.0
 11
142.4035502799359
 21
152.0644933307808
 31
0.0
  0
LINE
  5
185
330
E3
100
AcDbEntity
  8
0
  6
Continuous
100
AcDbLine
 10
142.4035502799359
 20
152.0644933307808
 30
0.0
 11
141.8035491022816
 21
152.0644933307808
 31
0.0
  0
LINE
  5
186
330
E3
100
AcDbEntity
  8
0
  6
Continuous
100
AcDbLine
 10
142.8535483775696
 20
154.1644955954997
 30
0.0
 11
141.3535472905051
 21
154.1644955954997
 31
0.0
  0
LINE
  5
187
330
E3
100
AcDbEntity
  8
0
  6
Continuous
100
AcDbLine
 10
141.3535472905051
 20
153.6644939950973
 30
0.0
 11
142.8535483775696
 21
153.6644939950973
 31
0.0
  0
LINE
  5
188
330
E3
100
AcDbEntity
  8
0
  6
Continuous
100
AcDbLine
 10
142.6035490086083
 20
152.0644945445292
 30
0.0
 11
142.6016463576541
 21
152.0590381953228
 31
0.0
  0
LINE
  5
189
330
E3
100
AcDbEntity
  8
0
  6
Continuous
100
AcDbLine
 10
142.6016463576541
 20
152.0590381953228
 30
0.0
 11
142.5959528851144
 21
152.0535818461165
 31
0.0
  0
LINE
  5
18A
330
E3
100
AcDbEntity
  8
0
  6
Continuous
100
AcDbLine
 10
142.5959528851144
 20
152.0535818461165
 30
0.0
 11
142.5865126620117
 21
152.0481251040333
 31
0.0
  0
LINE
  5
18B
330
E3
100
AcDbEntity
  8
0
  6
Continuous
100
AcDbLine
 10
142.5865126620117
 20
152.0481251040333
 30
0.0
 11
142.5733943101006
 21
152.0426690284509
 31
0.0
  0
LINE
  5
18C
330
E3
100
AcDbEntity
  8
0
  6
Continuous
100
AcDbLine
 10
142.5733943101006
 20
152.0426690284509
 30
0.0
 11
142.5567029529408
 21
152.0372129528684
 31
0.0
  0
LINE
  5
18D
330
E3
100
AcDbEntity
  8
0
  6
Continuous
100
AcDbLine
 10
142.5567029529408
 20
152.0372129528684
 30
0.0
 11
142.5365611572404
 21
152.0317568772859
 31
0.0
  0
LINE
  5
18E
330
E3
100
AcDbEntity
  8
0
  6
Continuous
100
AcDbLine
 10
142.5365611572404
 20
152.0317568772859
 30
0.0
 11
142.5131249169916
 21
152.0263008017034
 31
0.0
  0
LINE
  5
18F
330
E3
100
AcDbEntity
  8
0
  6
Continuous
100
AcDbLine
 10
142.5131249169916
 20
152.0263008017034
 30
0.0
 11
142.4865725110425
 21
152.0208447261209
 31
0.0
  0
LINE
  5
190
330
E3
100
AcDbEntity
  8
0
  6
Continuous
100
AcDbLine
 10
142.4865725110425
 20
152.0208447261209
 30
0.0
 11
142.4571007889546
 21
152.0153886505384
 31
0.0
  0
LINE
  5
191
330
E3
100
AcDbEntity
  8
0
  6
Continuous
100
AcDbLine
 10
142.4571007889546
 20
152.0153886505384
 30
0.0
 11
142.4249437417162
 21
152.0099325749559
 31
0.0
  0
LINE
  5
192
330
E3
100
AcDbEntity
  8
0
  6
Continuous
100
AcDbLine
 10
142.4249437417162
 20
152.0099325749559
 30
0.0
 11
142.3903390744581
 21
152.0044764993734
 31
0.0
  0
LINE
  5
193
330
E3
100
AcDbEntity
  8
0
  6
Continuous
100
AcDbLine
 10
142.3903390744581
 20
152.0044764993734
 30
0.0
 11
142.3535504913099
 21
151.9990167096482
 31
0.0
  0
LINE
  5
194
330
E3
100
AcDbEntity
  8
0
  6
Continuous
100
AcDbLine
 10
142.3535504913099
 20
151.9990167096482
 30
0.0
 11
142.314856552972
 21
151.9935606340657
 31
0.0
  0
LINE
  5
195
330
E3
100
AcDbEntity
  8
0
  6
Continuous
100
AcDbLine
 10
142.314856552972
 20
151.9935606340657
 30
0.0
 11
142.2745581050005
 21
151.9881045584832
 31
0.0
  0
LINE
  5
196
330
E3
100
AcDbEntity
  8
0
  6
Continuous
100
AcDbLine
 10
142.2745581050005
 20
151.9881045584832
 30
0.0
 11
142.2329597070945
 21
151.9826484829007
 31
0.0
  0
LINE
  5
197
330
E3
100
AcDbEntity
  8
0
  6
Continuous
100
AcDbLine
 10
142.2329597070945
 20
151.9826484829007
 30
0.0
 11
142.1903733472382
 21
151.9771924073183
 31
0.0
  0
LINE
  5
198
330
E3
100
AcDbEntity
  8
0
  6
Continuous
100
AcDbLine
 10
142.1903733472382
 20
151.9771924073183
 30
0.0
 11
142.1471258699866
 21
151.9717363317357
 31
0.0
  0
LINE
  5
199
330
E3
100
AcDbEntity
  8
0
  6
Continuous
100
AcDbLine
 10
142.1471258699866
 20
151.9717363317357
 30
0.0
 11
142.1035478340374
 21
151.9662802561533
 31
0.0
  0
LINE
  5
19A
330
E3
100
AcDbEntity
  8
0
  6
Continuous
100
AcDbLine
 10
142.1035478340374
 20
151.9662802561533
 30
0.0
 11
142.0599697980882
 21
151.9608241805708
 31
0.0
  0
LINE
  5
19B
330
E3
100
AcDbEntity
  8
0
  6
Continuous
100
AcDbLine
 10
142.0599697980882
 20
151.9608241805708
 30
0.0
 11
142.0167260349793
 21
151.9553681049883
 31
0.0
  0
LINE
  5
19C
330
E3
100
AcDbEntity
  8
0
  6
Continuous
100
AcDbLine
 10
142.0167260349793
 20
151.9553681049883
 30
0.0
 11
141.974139675123
 21
151.9499120294058
 31
0.0
  0
LINE
  5
19D
330
E3
100
AcDbEntity
  8
0
  6
Continuous
100
AcDbLine
 10
141.974139675123
 20
151.9499120294058
 30
0.0
 11
141.9325375630743
 21
151.9444559538233
 31
0.0
  0
LINE
  5
19E
330
E3
100
AcDbEntity
  8
0
  6
Continuous
100
AcDbLine
 10
141.9325375630743
 20
151.9444559538233
 30
0.0
 11
141.8922391151028
 21
151.9389998782408
 31
0.0
  0
LINE
  5
19F
330
E3
100
AcDbEntity
  8
0
  6
Continuous
100
AcDbLine
 10
141.8922391151028
 20
151.9389998782408
 30
0.0
 11
141.8535488909075
 21
151.9335438026583
 31
0.0
  0
LINE
  5
1A0
330
E3
100
AcDbEntity
  8
0
  6
Continuous
100
AcDbLine
 10
141.8535488909075
 20
151.9335438026583
 30
0.0
 11
141.8167603077594
 21
151.9280840129331
 31
0.0
  0
LINE
  5
1A1
330
E3
100
AcDbEntity
  8
0
  6
Continuous
100
AcDbLine
 10
141.8167603077594
 20
151.9280840129331
 30
0.0
 11
141.7821556405013
 21
151.9226279373506
 31
0.0
  0
LINE
  5
1A2
330
E3
100
AcDbEntity
  8
0
  6
Continuous
100
AcDbLine
 10
141.7821556405013
 20
151.9226279373506
 30
0.0
 11
141.7499948791202
 21
151.9171718617681
 31
0.0
  0
LINE
  5
1A3
330
E3
100
AcDbEntity
  8
0
  6
Continuous
100
AcDbLine
 10
141.7499948791202
 20
151.9171718617681
 30
0.0
 11
141.720526871175
 21
151.9117157861856
 31
0.0
  0
LINE
  5
1A4
330
E3
100
AcDbEntity
  8
0
  6
Continuous
100
AcDbLine
 10
141.720526871175
 20
151.9117157861856
 30
0.0
 11
141.6939744652259
 21
151.9062597106031
 31
0.0
  0
LINE
  5
1A5
330
E3
100
AcDbEntity
  8
0
  6
Continuous
100
AcDbLine
 10
141.6939744652259
 20
151.9062597106031
 30
0.0
 11
141.6705345108344
 21
151.9008036350207
 31
0.0
  0
LINE
  5
1A6
330
E3
100
AcDbEntity
  8
0
  6
Continuous
100
AcDbLine
 10
141.6705345108344
 20
151.9008036350207
 30
0.0
 11
141.6503964292767
 21
151.8953475594381
 31
0.0
  0
LINE
  5
1A7
330
E3
100
AcDbEntity
  8
0
  6
Continuous
100
AcDbLine
 10
141.6503964292767
 20
151.8953475594381
 30
0.0
 11
141.6337013579742
 21
151.8898914838556
 31
0.0
  0
LINE
  5
1A8
330
E3
100
AcDbEntity
  8
0
  6
Continuous
100
AcDbLine
 10
141.6337013579742
 20
151.8898914838556
 30
0.0
 11
141.6205867202058
 21
151.8844354082732
 31
0.0
  0
LINE
  5
1A9
330
E3
100
AcDbEntity
  8
0
  6
Continuous
100
AcDbLine
 10
141.6205867202058
 20
151.8844354082732
 30
0.0
 11
141.6111453695382
 21
151.8789793326906
 31
0.0
  0
LINE
  5
1AA
330
E3
100
AcDbEntity
  8
0
  6
Continuous
100
AcDbLine
 10
141.6111453695382
 20
151.8789793326906
 30
0.0
 11
141.6054516595624
 21
151.8735223223069
 31
0.0
  0
LINE
  5
1AB
330
E3
100
AcDbEntity
  8
0
  6
Continuous
100
AcDbLine
 10
141.6054516595624
 20
151.8735223223069
 30
0.0
 11
141.6035490086083
 21
151.8680659731006
 31
0.0
  0
LINE
  5
1AC
330
E3
100
AcDbEntity
  8
0
  6
Continuous
100
AcDbLine
 10
142.6035490086083
 20
151.671637401672
 30
0.0
 11
142.6016463576541
 21
151.6661810524657
 31
0.0
  0
LINE
  5
1AD
330
E3
100
AcDbEntity
  8
0
  6
Continuous
100
AcDbLine
 10
142.6016463576541
 20
151.6661810524657
 30
0.0
 11
142.5959528851144
 21
151.6607247032593
 31
0.0
  0
LINE
  5
1AE
330
E3
100
AcDbEntity
  8
0
  6
Continuous
100
AcDbLine
 10
142.5959528851144
 20
151.6607247032593
 30
0.0
 11
142.5865126620117
 21
151.6552690913803
 31
0.0
  0
LINE
  5
1AF
330
E3
100
AcDbEntity
  8
0
  6
Continuous
100
AcDbLine
 10
142.5865126620117
 20
151.6552690913803
 30
0.0
 11
142.5733943101006
 21
151.6498130157978
 31
0.0
  0
LINE
  5
1B0
330
E3
100
AcDbEntity
  8
0
  6
Continuous
100
AcDbLine
 10
142.5733943101006
 20
151.6498130157978
 30
0.0
 11
142.5567029529408
 21
151.6443569402153
 31
0.0
  0
LINE
  5
1B1
330
E3
100
AcDbEntity
  8
0
  6
Continuous
100
AcDbLine
 10
142.5567029529408
 20
151.6443569402153
 30
0.0
 11
142.5365611572404
 21
151.6389008646328
 31
0.0
  0
LINE
  5
1B2
330
E3
100
AcDbEntity
  8
0
  6
Continuous
100
AcDbLine
 10
142.5365611572404
 20
151.6389008646328
 30
0.0
 11
142.5131249169916
 21
151.6334447890504
 31
0.0
  0
LINE
  5
1B3
330
E3
100
AcDbEntity
  8
0
  6
Continuous
100
AcDbLine
 10
142.5131249169916
 20
151.6334447890504
 30
0.0
 11
142.4865725110425
 21
151.6279849993252
 31
0.0
  0
LINE
  5
1B4
330
E3
100
AcDbEntity
  8
0
  6
Continuous
100
AcDbLine
 10
142.4865725110425
 20
151.6279849993252
 30
0.0
 11
142.4571007889546
 21
151.6225289237427
 31
0.0
  0
LINE
  5
1B5
330
E3
100
AcDbEntity
  8
0
  6
Continuous
100
AcDbLine
 10
142.4571007889546
 20
151.6225289237427
 30
0.0
 11
142.4249437417162
 21
151.6170728481602
 31
0.0
  0
LINE
  5
1B6
330
E3
100
AcDbEntity
  8
0
  6
Continuous
100
AcDbLine
 10
142.4249437417162
 20
151.6170728481602
 30
0.0
 11
142.3903390744581
 21
151.6116167725777
 31
0.0
  0
LINE
  5
1B7
330
E3
100
AcDbEntity
  8
0
  6
Continuous
100
AcDbLine
 10
142.3903390744581
 20
151.6116167725777
 30
0.0
 11
142.3535504913099
 21
151.6061606969952
 31
0.0
  0
LINE
  5
1B8
330
E3
100
AcDbEntity
  8
0
  6
Continuous
100
AcDbLine
 10
142.3535504913099
 20
151.6061606969952
 30
0.0
 11
142.314856552972
 21
151.6007046214127
 31
0.0
  0
LINE
  5
1B9
330
E3
100
AcDbEntity
  8
0
  6
Continuous
100
AcDbLine
 10
142.314856552972
 20
151.6007046214127
 30
0.0
 11
142.2745581050005
 21
151.5952485458302
 31
0.0
  0
LINE
  5
1BA
330
E3
100
AcDbEntity
  8
0
  6
Continuous
100
AcDbLine
 10
142.2745581050005
 20
151.5952485458302
 30
0.0
 11
142.2329597070945
 21
151.5897924702477
 31
0.0
  0
LINE
  5
1BB
330
E3
100
AcDbEntity
  8
0
  6
Continuous
100
AcDbLine
 10
142.2329597070945
 20
151.5897924702477
 30
0.0
 11
142.1903733472382
 21
151.5843363946652
 31
0.0
  0
LINE
  5
1BC
330
E3
100
AcDbEntity
  8
0
  6
Continuous
100
AcDbLine
 10
142.1903733472382
 20
151.5843363946652
 30
0.0
 11
142.1471258699866
 21
151.5788803190827
 31
0.0
  0
LINE
  5
1BD
330
E3
100
AcDbEntity
  8
0
  6
Continuous
100
AcDbLine
 10
142.1471258699866
 20
151.5788803190827
 30
0.0
 11
142.1035478340374
 21
151.5734242435002
 31
0.0
  0
LINE
  5
1BE
330
E3
100
AcDbEntity
  8
0
  6
Continuous
100
AcDbLine
 10
142.1035478340374
 20
151.5734242435002
 30
0.0
 11
142.0599697980882
 21
151.5679681679177
 31
0.0
  0
LINE
  5
1BF
330
E3
100
AcDbEntity
  8
0
  6
Continuous
100
AcDbLine
 10
142.0599697980882
 20
151.5679681679177
 30
0.0
 11
142.0167260349793
 21
151.5625120923352
 31
0.0
  0
LINE
  5
1C0
330
E3
100
AcDbEntity
  8
0
  6
Continuous
100
AcDbLine
 10
142.0167260349793
 20
151.5625120923352
 30
0.0
 11
141.974139675123
 21
151.5570523026101
 31
0.0
  0
LINE
  5
1C1
330
E3
100
AcDbEntity
  8
0
  6
Continuous
100
AcDbLine
 10
141.974139675123
 20
151.5570523026101
 30
0.0
 11
141.9325375630743
 21
151.5515962270276
 31
0.0
  0
LINE
  5
1C2
330
E3
100
AcDbEntity
  8
0
  6
Continuous
100
AcDbLine
 10
141.9325375630743
 20
151.5515962270276
 30
0.0
 11
141.8922391151028
 21
151.5461401514451
 31
0.0
  0
LINE
  5
1C3
330
E3
100
AcDbEntity
  8
0
  6
Continuous
100
AcDbLine
 10
141.8922391151028
 20
151.5461401514451
 30
0.0
 11
141.8535488909075
 21
151.5406840758626
 31
0.0
  0
LINE
  5
1C4
330
E3
100
AcDbEntity
  8
0
  6
Continuous
100
AcDbLine
 10
141.8535488909075
 20
151.5406840758626
 30
0.0
 11
141.8167603077594
 21
151.5352280002801
 31
0.0
  0
LINE
  5
1C5
330
E3
100
AcDbEntity
  8
0
  6
Continuous
100
AcDbLine
 10
141.8167603077594
 20
151.5352280002801
 30
0.0
 11
141.7821556405013
 21
151.5297719246976
 31
0.0
  0
LINE
  5
1C6
330
E3
100
AcDbEntity
  8
0
  6
Continuous
100
AcDbLine
 10
141.7821556405013
 20
151.5297719246976
 30
0.0
 11
141.7499948791202
 21
151.5243158491151
 31
0.0
  0
LINE
  5
1C7
330
E3
100
AcDbEntity
  8
0
  6
Continuous
100
AcDbLine
 10
141.7499948791202
 20
151.5243158491151
 30
0.0
 11
141.720526871175
 21
151.5188597735326
 31
0.0
  0
LINE
  5
1C8
330
E3
100
AcDbEntity
  8
0
  6
Continuous
100
AcDbLine
 10
141.720526871175
 20
151.5188597735326
 30
0.0
 11
141.6939744652259
 21
151.5134036979501
 31
0.0
  0
LINE
  5
1C9
330
E3
100
AcDbEntity
  8
0
  6
Continuous
100
AcDbLine
 10
141.6939744652259
 20
151.5134036979501
 30
0.0
 11
141.6705345108344
 21
151.5079476223676
 31
0.0
  0
LINE
  5
1CA
330
E3
100
AcDbEntity
  8
0
  6
Continuous
100
AcDbLine
 10
141.6705345108344
 20
151.5079476223676
 30
0.0
 11
141.6503964292767
 21
151.5024915467851
 31
0.0
  0
LINE
  5
1CB
330
E3
100
AcDbEntity
  8
0
  6
Continuous
100
AcDbLine
 10
141.6503964292767
 20
151.5024915467851
 30
0.0
 11
141.6337013579742
 21
151.4970354712026
 31
0.0
  0
LINE
  5
1CC
330
E3
100
AcDbEntity
  8
0
  6
Continuous
100
AcDbLine
 10
141.6337013579742
 20
151.4970354712026
 30
0.0
 11
141.6205867202058
 21
151.4915793956201
 31
0.0
  0
LINE
  5
1CD
330
E3
100
AcDbEntity
  8
0
  6
Continuous
100
AcDbLine
 10
141.6205867202058
 20
151.4915793956201
 30
0.0
 11
141.6111453695382
 21
151.4861233200376
 31
0.0
  0
LINE
  5
1CE
330
E3
100
AcDbEntity
  8
0
  6
Continuous
100
AcDbLine
 10
141.6111453695382
 20
151.4861233200376
 30
0.0
 11
141.6054516595624
 21
151.4806651794498
 31
0.0
  0
LINE
  5
1CF
330
E3
100
AcDbEntity
  8
0
  6
Continuous
100
AcDbLine
 10
141.6054516595624
 20
151.4806651794498
 30
0.0
 11
141.6035490086083
 21
151.4752088302434
 31
0.0
  0
LINE
  5
1D0
330
E3
100
AcDbEntity
  8
0
  6
Continuous
100
AcDbLine
 10
142.6035490086083
 20
151.2787802588149
 30
0.0
 11
142.6016463576541
 21
151.2733239096085
 31
0.0
  0
LINE
  5
1D1
330
E3
100
AcDbEntity
  8
0
  6
Continuous
100
AcDbLine
 10
142.6016463576541
 20
151.2733239096085
 30
0.0
 11
142.5959528851144
 21
151.2678675604022
 31
0.0
  0
LINE
  5
1D2
330
E3
100
AcDbEntity
  8
0
  6
Continuous
100
AcDbLine
 10
142.5959528851144
 20
151.2678675604022
 30
0.0
 11
142.5865126620117
 21
151.2624093645846
 31
0.0
  0
LINE
  5
1D3
330
E3
100
AcDbEntity
  8
0
  6
Continuous
100
AcDbLine
 10
142.5865126620117
 20
151.2624093645846
 30
0.0
 11
142.5733943101006
 21
151.2569532890021
 31
0.0
  0
LINE
  5
1D4
330
E3
100
AcDbEntity
  8
0
  6
Continuous
100
AcDbLine
 10
142.5733943101006
 20
151.2569532890021
 30
0.0
 11
142.5567029529408
 21
151.2514972134197
 31
0.0
  0
LINE
  5
1D5
330
E3
100
AcDbEntity
  8
0
  6
Continuous
100
AcDbLine
 10
142.5567029529408
 20
151.2514972134197
 30
0.0
 11
142.5365611572404
 21
151.2460411378372
 31
0.0
  0
LINE
  5
1D6
330
E3
100
AcDbEntity
  8
0
  6
Continuous
100
AcDbLine
 10
142.5365611572404
 20
151.2460411378372
 30
0.0
 11
142.5131249169916
 21
151.2405850622547
 31
0.0
  0
LINE
  5
1D7
330
E3
100
AcDbEntity
  8
0
  6
Continuous
100
AcDbLine
 10
142.5131249169916
 20
151.2405850622547
 30
0.0
 11
142.4865725110425
 21
151.2351289866722
 31
0.0
  0
LINE
  5
1D8
330
E3
100
AcDbEntity
  8
0
  6
Continuous
100
AcDbLine
 10
142.4865725110425
 20
151.2351289866722
 30
0.0
 11
142.4571007889546
 21
151.2296729110897
 31
0.0
  0
LINE
  5
1D9
330
E3
100
AcDbEntity
  8
0
  6
Continuous
100
AcDbLine
 10
142.4571007889546
 20
151.2296729110897
 30
0.0
 11
142.4249437417162
 21
151.2242168355072
 31
0.0
  0
LINE
  5
1DA
330
E3
100
AcDbEntity
  8
0
  6
Continuous
100
AcDbLine
 10
142.4249437417162
 20
151.2242168355072
 30
0.0
 11
142.3903390744581
 21
151.2187607599247
 31
0.0
  0
LINE
  5
1DB
330
E3
100
AcDbEntity
  8
0
  6
Continuous
100
AcDbLine
 10
142.3903390744581
 20
151.2187607599247
 30
0.0
 11
142.3535504913099
 21
151.2133046843422
 31
0.0
  0
LINE
  5
1DC
330
E3
100
AcDbEntity
  8
0
  6
Continuous
100
AcDbLine
 10
142.3535504913099
 20
151.2133046843422
 30
0.0
 11
142.314856552972
 21
151.2078486087597
 31
0.0
  0
LINE
  5
1DD
330
E3
100
AcDbEntity
  8
0
  6
Continuous
100
AcDbLine
 10
142.314856552972
 20
151.2078486087597
 30
0.0
 11
142.2745581050005
 21
151.2023925331772
 31
0.0
  0
LINE
  5
1DE
330
E3
100
AcDbEntity
  8
0
  6
Continuous
100
AcDbLine
 10
142.2745581050005
 20
151.2023925331772
 30
0.0
 11
142.2329597070945
 21
151.1969364575947
 31
0.0
  0
LINE
  5
1DF
330
E3
100
AcDbEntity
  8
0
  6
Continuous
100
AcDbLine
 10
142.2329597070945
 20
151.1969364575947
 30
0.0
 11
142.1903733472382
 21
151.1914803820122
 31
0.0
  0
LINE
  5
1E0
330
E3
100
AcDbEntity
  8
0
  6
Continuous
100
AcDbLine
 10
142.1903733472382
 20
151.1914803820122
 30
0.0
 11
142.1471258699866
 21
151.186020592287
 31
0.0
  0
LINE
  5
1E1
330
E3
100
AcDbEntity
  8
0
  6
Continuous
100
AcDbLine
 10
142.1471258699866
 20
151.186020592287
 30
0.0
 11
142.1035478340374
 21
151.1805645167045
 31
0.0
  0
LINE
  5
1E2
330
E3
100
AcDbEntity
  8
0
  6
Continuous
100
AcDbLine
 10
142.1035478340374
 20
151.1805645167045
 30
0.0
 11
142.0599697980882
 21
151.1751084411221
 31
0.0
  0
LINE
  5
1E3
330
E3
100
AcDbEntity
  8
0
  6
Continuous
100
AcDbLine
 10
142.0599697980882
 20
151.1751084411221
 30
0.0
 11
142.0167260349793
 21
151.1696523655395
 31
0.0
  0
LINE
  5
1E4
330
E3
100
AcDbEntity
  8
0
  6
Continuous
100
AcDbLine
 10
142.0167260349793
 20
151.1696523655395
 30
0.0
 11
141.974139675123
 21
151.1641962899571
 31
0.0
  0
LINE
  5
1E5
330
E3
100
AcDbEntity
  8
0
  6
Continuous
100
AcDbLine
 10
141.974139675123
 20
151.1641962899571
 30
0.0
 11
141.9325375630743
 21
151.1587402143745
 31
0.0
  0
LINE
  5
1E6
330
E3
100
AcDbEntity
  8
0
  6
Continuous
100
AcDbLine
 10
141.9325375630743
 20
151.1587402143745
 30
0.0
 11
141.8922391151028
 21
151.1532841387921
 31
0.0
  0
LINE
  5
1E7
330
E3
100
AcDbEntity
  8
0
  6
Continuous
100
AcDbLine
 10
141.8922391151028
 20
151.1532841387921
 30
0.0
 11
141.8535488909075
 21
151.1478280632096
 31
0.0
  0
LINE
  5
1E8
330
E3
100
AcDbEntity
  8
0
  6
Continuous
100
AcDbLine
 10
141.8535488909075
 20
151.1478280632096
 30
0.0
 11
141.8167603077594
 21
151.1423719876271
 31
0.0
  0
LINE
  5
1E9
330
E3
100
AcDbEntity
  8
0
  6
Continuous
100
AcDbLine
 10
141.8167603077594
 20
151.1423719876271
 30
0.0
 11
141.7821556405013
 21
151.1369159120446
 31
0.0
  0
LINE
  5
1EA
330
E3
100
AcDbEntity
  8
0
  6
Continuous
100
AcDbLine
 10
141.7821556405013
 20
151.1369159120446
 30
0.0
 11
141.7499948791202
 21
151.1314598364621
 31
0.0
  0
LINE
  5
1EB
330
E3
100
AcDbEntity
  8
0
  6
Continuous
100
AcDbLine
 10
141.7499948791202
 20
151.1314598364621
 30
0.0
 11
141.720526871175
 21
151.1260037608796
 31
0.0
  0
LINE
  5
1EC
330
E3
100
AcDbEntity
  8
0
  6
Continuous
100
AcDbLine
 10
141.720526871175
 20
151.1260037608796
 30
0.0
 11
141.6939744652259
 21
151.1205476852971
 31
0.0
  0
LINE
  5
1ED
330
E3
100
AcDbEntity
  8
0
  6
Continuous
100
AcDbLine
 10
141.6939744652259
 20
151.1205476852971
 30
0.0
 11
141.6705345108344
 21
151.1150916097146
 31
0.0
  0
LINE
  5
1EE
330
E3
100
AcDbEntity
  8
0
  6
Continuous
100
AcDbLine
 10
141.6705345108344
 20
151.1150916097146
 30
0.0
 11
141.6503964292767
 21
151.1096318199894
 31
0.0
  0
LINE
  5
1EF
330
E3
100
AcDbEntity
  8
0
  6
Continuous
100
AcDbLine
 10
141.6503964292767
 20
151.1096318199894
 30
0.0
 11
141.6337013579742
 21
151.1041757444069
 31
0.0
  0
LINE
  5
1F0
330
E3
100
AcDbEntity
  8
0
  6
Continuous
100
AcDbLine
 10
141.6337013579742
 20
151.1041757444069
 30
0.0
 11
141.6205867202058
 21
151.0987196688244
 31
0.0
  0
LINE
  5
1F1
330
E3
100
AcDbEntity
  8
0
  6
Continuous
100
AcDbLine
 10
141.6205867202058
 20
151.0987196688244
 30
0.0
 11
141.6111453695382
 21
151.093263593242
 31
0.0
  0
LINE
  5
1F2
330
E3
100
AcDbEntity
  8
0
  6
Continuous
100
AcDbLine
 10
141.6111453695382
 20
151.093263593242
 30
0.0
 11
141.6054516595624
 21
151.0878080365927
 31
0.0
  0
LINE
  5
1F3
330
E3
100
AcDbEntity
  8
0
  6
Continuous
100
AcDbLine
 10
141.6054516595624
 20
151.0878080365927
 30
0.0
 11
141.6035490086083
 21
151.0823516873863
 31
0.0
  0
LINE
  5
1F4
330
E3
100
AcDbEntity
  8
0
  6
Continuous
100
AcDbLine
 10
142.6035490086083
 20
150.8859231159578
 30
0.0
 11
142.6016463576541
 21
150.8804667667514
 31
0.0
  0
LINE
  5
1F5
330
E3
100
AcDbEntity
  8
0
  6
Continuous
100
AcDbLine
 10
142.6016463576541
 20
150.8804667667514
 30
0.0
 11
142.5959528851144
 21
150.875010417545
 31
0.0
  0
LINE
  5
1F6
330
E3
100
AcDbEntity
  8
0
  6
Continuous
100
AcDbLine
 10
142.5959528851144
 20
150.875010417545
 30
0.0
 11
142.5865126620117
 21
150.8695533519316
 31
0.0
  0
LINE
  5
1F7
330
E3
100
AcDbEntity
  8
0
  6
Continuous
100
AcDbLine
 10
142.5865126620117
 20
150.8695533519316
 30
0.0
 11
142.5733943101006
 21
150.8640972763491
 31
0.0
  0
LINE
  5
1F8
330
E3
100
AcDbEntity
  8
0
  6
Continuous
100
AcDbLine
 10
142.5733943101006
 20
150.8640972763491
 30
0.0
 11
142.5567029529408
 21
150.8586412007666
 31
0.0
  0
LINE
  5
1F9
330
E3
100
AcDbEntity
  8
0
  6
Continuous
100
AcDbLine
 10
142.5567029529408
 20
150.8586412007666
 30
0.0
 11
142.5365611572404
 21
150.8531851251842
 31
0.0
  0
LINE
  5
1FA
330
E3
100
AcDbEntity
  8
0
  6
Continuous
100
AcDbLine
 10
142.5365611572404
 20
150.8531851251842
 30
0.0
 11
142.5131249169916
 21
150.8477290496016
 31
0.0
  0
LINE
  5
1FB
330
E3
100
AcDbEntity
  8
0
  6
Continuous
100
AcDbLine
 10
142.5131249169916
 20
150.8477290496016
 30
0.0
 11
142.4865725110425
 21
150.8422729740192
 31
0.0
  0
LINE
  5
1FC
330
E3
100
AcDbEntity
  8
0
  6
Continuous
100
AcDbLine
 10
142.4865725110425
 20
150.8422729740192
 30
0.0
 11
142.4571007889546
 21
150.8368168984366
 31
0.0
  0
LINE
  5
1FD
330
E3
100
AcDbEntity
  8
0
  6
Continuous
100
AcDbLine
 10
142.4571007889546
 20
150.8368168984366
 30
0.0
 11
142.4249437417162
 21
150.8313608228542
 31
0.0
  0
LINE
  5
1FE
330
E3
100
AcDbEntity
  8
0
  6
Continuous
100
AcDbLine
 10
142.4249437417162
 20
150.8313608228542
 30
0.0
 11
142.3903390744581
 21
150.8259047472717
 31
0.0
  0
LINE
  5
1FF
330
E3
100
AcDbEntity
  8
0
  6
Continuous
100
AcDbLine
 10
142.3903390744581
 20
150.8259047472717
 30
0.0
 11
142.3535504913099
 21
150.8204486716892
 31
0.0
  0
LINE
  5
200
330
E3
100
AcDbEntity
  8
0
  6
Continuous
100
AcDbLine
 10
142.3535504913099
 20
150.8204486716892
 30
0.0
 11
142.314856552972
 21
150.814988881964
 31
0.0
  0
LINE
  5
201
330
E3
100
AcDbEntity
  8
0
  6
Continuous
100
AcDbLine
 10
142.314856552972
 20
150.814988881964
 30
0.0
 11
142.2745581050005
 21
150.8095328063815
 31
0.0
  0
LINE
  5
202
330
E3
100
AcDbEntity
  8
0
  6
Continuous
100
AcDbLine
 10
142.2745581050005
 20
150.8095328063815
 30
0.0
 11
142.2329597070945
 21
150.804076730799
 31
0.0
  0
LINE
  5
203
330
E3
100
AcDbEntity
  8
0
  6
Continuous
100
AcDbLine
 10
142.2329597070945
 20
150.804076730799
 30
0.0
 11
142.1903733472382
 21
150.7986206552165
 31
0.0
  0
LINE
  5
204
330
E3
100
AcDbEntity
  8
0
  6
Continuous
100
AcDbLine
 10
142.1903733472382
 20
150.7986206552165
 30
0.0
 11
142.1471258699866
 21
150.793164579634
 31
0.0
  0
LINE
  5
205
330
E3
100
AcDbEntity
  8
0
  6
Continuous
100
AcDbLine
 10
142.1471258699866
 20
150.793164579634
 30
0.0
 11
142.1035478340374
 21
150.7877085040515
 31
0.0
  0
LINE
  5
206
330
E3
100
AcDbEntity
  8
0
  6
Continuous
100
AcDbLine
 10
142.1035478340374
 20
150.7877085040515
 30
0.0
 11
142.0599697980882
 21
150.782252428469
 31
0.0
  0
LINE
  5
207
330
E3
100
AcDbEntity
  8
0
  6
Continuous
100
AcDbLine
 10
142.0599697980882
 20
150.782252428469
 30
0.0
 11
142.0167260349793
 21
150.7767963528865
 31
0.0
  0
LINE
  5
208
330
E3
100
AcDbEntity
  8
0
  6
Continuous
100
AcDbLine
 10
142.0167260349793
 20
150.7767963528865
 30
0.0
 11
141.974139675123
 21
150.771340277304
 31
0.0
  0
LINE
  5
209
330
E3
100
AcDbEntity
  8
0
  6
Continuous
100
AcDbLine
 10
141.974139675123
 20
150.771340277304
 30
0.0
 11
141.9325375630743
 21
150.7658842017215
 31
0.0
  0
LINE
  5
20A
330
E3
100
AcDbEntity
  8
0
  6
Continuous
100
AcDbLine
 10
141.9325375630743
 20
150.7658842017215
 30
0.0
 11
141.8922391151028
 21
150.760428126139
 31
0.0
  0
LINE
  5
20B
330
E3
100
AcDbEntity
  8
0
  6
Continuous
100
AcDbLine
 10
141.8922391151028
 20
150.760428126139
 30
0.0
 11
141.8535488909075
 21
150.7549720505565
 31
0.0
  0
LINE
  5
20C
330
E3
100
AcDbEntity
  8
0
  6
Continuous
100
AcDbLine
 10
141.8535488909075
 20
150.7549720505565
 30
0.0
 11
141.8167603077594
 21
150.7495159749741
 31
0.0
  0
LINE
  5
20D
330
E3
100
AcDbEntity
  8
0
  6
Continuous
100
AcDbLine
 10
141.8167603077594
 20
150.7495159749741
 30
0.0
 11
141.7821556405013
 21
150.7440561852489
 31
0.0
  0
LINE
  5
20E
330
E3
100
AcDbEntity
  8
0
  6
Continuous
100
AcDbLine
 10
141.7821556405013
 20
150.7440561852489
 30
0.0
 11
141.7499948791202
 21
150.7386001096664
 31
0.0
  0
LINE
  5
20F
330
E3
100
AcDbEntity
  8
0
  6
Continuous
100
AcDbLine
 10
141.7499948791202
 20
150.7386001096664
 30
0.0
 11
141.720526871175
 21
150.7331440340839
 31
0.0
  0
LINE
  5
210
330
E3
100
AcDbEntity
  8
0
  6
Continuous
100
AcDbLine
 10
141.720526871175
 20
150.7331440340839
 30
0.0
 11
141.6939744652259
 21
150.7276879585014
 31
0.0
  0
LINE
  5
211
330
E3
100
AcDbEntity
  8
0
  6
Continuous
100
AcDbLine
 10
141.6939744652259
 20
150.7276879585014
 30
0.0
 11
141.6705345108344
 21
150.7222318829189
 31
0.0
  0
LINE
  5
212
330
E3
100
AcDbEntity
  8
0
  6
Continuous
100
AcDbLine
 10
141.6705345108344
 20
150.7222318829189
 30
0.0
 11
141.6503964292767
 21
150.7167758073364
 31
0.0
  0
LINE
  5
213
330
E3
100
AcDbEntity
  8
0
  6
Continuous
100
AcDbLine
 10
141.6503964292767
 20
150.7167758073364
 30
0.0
 11
141.6337013579742
 21
150.7113197317539
 31
0.0
  0
LINE
  5
214
330
E3
100
AcDbEntity
  8
0
  6
Continuous
100
AcDbLine
 10
141.6337013579742
 20
150.7113197317539
 30
0.0
 11
141.6205867202058
 21
150.7058636561715
 31
0.0
  0
LINE
  5
215
330
E3
100
AcDbEntity
  8
0
  6
Continuous
100
AcDbLine
 10
141.6205867202058
 20
150.7058636561715
 30
0.0
 11
141.6111453695382
 21
150.7004075805889
 31
0.0
  0
LINE
  5
216
330
E3
100
AcDbEntity
  8
0
  6
Continuous
100
AcDbLine
 10
141.6111453695382
 20
150.7004075805889
 30
0.0
 11
141.6054516595624
 21
150.6949508937355
 31
0.0
  0
LINE
  5
217
330
E3
100
AcDbEntity
  8
0
  6
Continuous
100
AcDbLine
 10
141.6054516595624
 20
150.6949508937355
 30
0.0
 11
141.6035490086083
 21
150.6894945445292
 31
0.0
  0
LINE
  5
218
330
E3
100
AcDbEntity
  8
0
  6
Continuous
100
AcDbLine
 10
142.6035490086083
 20
150.4930659731006
 30
0.0
 11
142.6016463576541
 21
150.4876096238942
 31
0.0
  0
LINE
  5
219
330
E3
100
AcDbEntity
  8
0
  6
Continuous
100
AcDbLine
 10
142.6016463576541
 20
150.4876096238942
 30
0.0
 11
142.5959528851144
 21
150.4821532746879
 31
0.0
  0
LINE
  5
21A
330
E3
100
AcDbEntity
  8
0
  6
Continuous
100
AcDbLine
 10
142.5959528851144
 20
150.4821532746879
 30
0.0
 11
142.5865126620117
 21
150.4766973392786
 31
0.0
  0
LINE
  5
21B
330
E3
100
AcDbEntity
  8
0
  6
Continuous
100
AcDbLine
 10
142.5865126620117
 20
150.4766973392786
 30
0.0
 11
142.5733943101006
 21
150.4712412636961
 31
0.0
  0
LINE
  5
21C
330
E3
100
AcDbEntity
  8
0
  6
Continuous
100
AcDbLine
 10
142.5733943101006
 20
150.4712412636961
 30
0.0
 11
142.5567029529408
 21
150.4657851881136
 31
0.0
  0
LINE
  5
21D
330
E3
100
AcDbEntity
  8
0
  6
Continuous
100
AcDbLine
 10
142.5567029529408
 20
150.4657851881136
 30
0.0
 11
142.5365611572404
 21
150.4603291125311
 31
0.0
  0
LINE
  5
21E
330
E3
100
AcDbEntity
  8
0
  6
Continuous
100
AcDbLine
 10
142.5365611572404
 20
150.4603291125311
 30
0.0
 11
142.5131249169916
 21
150.4548730369486
 31
0.0
  0
LINE
  5
21F
330
E3
100
AcDbEntity
  8
0
  6
Continuous
100
AcDbLine
 10
142.5131249169916
 20
150.4548730369486
 30
0.0
 11
142.4865725110425
 21
150.4494169613661
 31
0.0
  0
LINE
  5
220
330
E3
100
AcDbEntity
  8
0
  6
Continuous
100
AcDbLine
 10
142.4865725110425
 20
150.4494169613661
 30
0.0
 11
142.4571007889546
 21
150.443957171641
 31
0.0
  0
LINE
  5
221
330
E3
100
AcDbEntity
  8
0
  6
Continuous
100
AcDbLine
 10
142.4571007889546
 20
150.443957171641
 30
0.0
 11
142.4249437417162
 21
150.4385010960585
 31
0.0
  0
LINE
  5
222
330
E3
100
AcDbEntity
  8
0
  6
Continuous
100
AcDbLine
 10
142.4249437417162
 20
150.4385010960585
 30
0.0
 11
142.3903390744581
 21
150.433045020476
 31
0.0
  0
LINE
  5
223
330
E3
100
AcDbEntity
  8
0
  6
Continuous
100
AcDbLine
 10
142.3903390744581
 20
150.433045020476
 30
0.0
 11
142.3535504913099
 21
150.4275889448935
 31
0.0
  0
LINE
  5
224
330
E3
100
AcDbEntity
  8
0
  6
Continuous
100
AcDbLine
 10
142.3535504913099
 20
150.4275889448935
 30
0.0
 11
142.314856552972
 21
150.422132869311
 31
0.0
  0
LINE
  5
225
330
E3
100
AcDbEntity
  8
0
  6
Continuous
100
AcDbLine
 10
142.314856552972
 20
150.422132869311
 30
0.0
 11
142.2745581050005
 21
150.4166767937285
 31
0.0
  0
LINE
  5
226
330
E3
100
AcDbEntity
  8
0
  6
Continuous
100
AcDbLine
 10
142.2745581050005
 20
150.4166767937285
 30
0.0
 11
142.2329597070945
 21
150.411220718146
 31
0.0
  0
LINE
  5
227
330
E3
100
AcDbEntity
  8
0
  6
Continuous
100
AcDbLine
 10
142.2329597070945
 20
150.411220718146
 30
0.0
 11
142.1903733472382
 21
150.4057646425635
 31
0.0
  0
LINE
  5
228
330
E3
100
AcDbEntity
  8
0
  6
Continuous
100
AcDbLine
 10
142.1903733472382
 20
150.4057646425635
 30
0.0
 11
142.1471258699866
 21
150.400308566981
 31
0.0
  0
LINE
  5
229
330
E3
100
AcDbEntity
  8
0
  6
Continuous
100
AcDbLine
 10
142.1471258699866
 20
150.400308566981
 30
0.0
 11
142.1035478340374
 21
150.3948524913985
 31
0.0
  0
LINE
  5
22A
330
E3
100
AcDbEntity
  8
0
  6
Continuous
100
AcDbLine
 10
142.1035478340374
 20
150.3948524913985
 30
0.0
 11
142.0599697980882
 21
150.389396415816
 31
0.0
  0
LINE
  5
22B
330
E3
100
AcDbEntity
  8
0
  6
Continuous
100
AcDbLine
 10
142.0599697980882
 20
150.389396415816
 30
0.0
 11
142.0167260349793
 21
150.3839403402335
 31
0.0
  0
LINE
  5
22C
330
E3
100
AcDbEntity
  8
0
  6
Continuous
100
AcDbLine
 10
142.0167260349793
 20
150.3839403402335
 30
0.0
 11
141.974139675123
 21
150.378484264651
 31
0.0
  0
LINE
  5
22D
330
E3
100
AcDbEntity
  8
0
  6
Continuous
100
AcDbLine
 10
141.974139675123
 20
150.378484264651
 30
0.0
 11
141.9325375630743
 21
150.3730244749258
 31
0.0
  0
LINE
  5
22E
330
E3
100
AcDbEntity
  8
0
  6
Continuous
100
AcDbLine
 10
141.9325375630743
 20
150.3730244749258
 30
0.0
 11
141.8922391151028
 21
150.3675683993434
 31
0.0
  0
LINE
  5
22F
330
E3
100
AcDbEntity
  8
0
  6
Continuous
100
AcDbLine
 10
141.8922391151028
 20
150.3675683993434
 30
0.0
 11
141.8535488909075
 21
150.3621123237608
 31
0.0
  0
LINE
  5
230
330
E3
100
AcDbEntity
  8
0
  6
Continuous
100
AcDbLine
 10
141.8535488909075
 20
150.3621123237608
 30
0.0
 11
141.8167603077594
 21
150.3566562481784
 31
0.0
  0
LINE
  5
231
330
E3
100
AcDbEntity
  8
0
  6
Continuous
100
AcDbLine
 10
141.8167603077594
 20
150.3566562481784
 30
0.0
 11
141.7821556405013
 21
150.3512001725959
 31
0.0
  0
LINE
  5
232
330
E3
100
AcDbEntity
  8
0
  6
Continuous
100
AcDbLine
 10
141.7821556405013
 20
150.3512001725959
 30
0.0
 11
141.7499948791202
 21
150.3457440970134
 31
0.0
  0
LINE
  5
233
330
E3
100
AcDbEntity
  8
0
  6
Continuous
100
AcDbLine
 10
141.7499948791202
 20
150.3457440970134
 30
0.0
 11
141.720526871175
 21
150.3402880214309
 31
0.0
  0
LINE
  5
234
330
E3
100
AcDbEntity
  8
0
  6
Continuous
100
AcDbLine
 10
141.720526871175
 20
150.3402880214309
 30
0.0
 11
141.6939744652259
 21
150.3348319458484
 31
0.0
  0
LINE
  5
235
330
E3
100
AcDbEntity
  8
0
  6
Continuous
100
AcDbLine
 10
141.6939744652259
 20
150.3348319458484
 30
0.0
 11
141.6705345108344
 21
150.3293758702659
 31
0.0
  0
LINE
  5
236
330
E3
100
AcDbEntity
  8
0
  6
Continuous
100
AcDbLine
 10
141.6705345108344
 20
150.3293758702659
 30
0.0
 11
141.6503964292767
 21
150.3239197946834
 31
0.0
  0
LINE
  5
237
330
E3
100
AcDbEntity
  8
0
  6
Continuous
100
AcDbLine
 10
141.6503964292767
 20
150.3239197946834
 30
0.0
 11
141.6337013579742
 21
150.3184637191009
 31
0.0
  0
LINE
  5
238
330
E3
100
AcDbEntity
  8
0
  6
Continuous
100
AcDbLine
 10
141.6337013579742
 20
150.3184637191009
 30
0.0
 11
141.6205867202058
 21
150.3130076435184
 31
0.0
  0
LINE
  5
239
330
E3
100
AcDbEntity
  8
0
  6
Continuous
100
AcDbLine
 10
141.6205867202058
 20
150.3130076435184
 30
0.0
 11
141.6111453695382
 21
150.3075515679359
 31
0.0
  0
LINE
  5
23A
330
E3
100
AcDbEntity
  8
0
  6
Continuous
100
AcDbLine
 10
141.6111453695382
 20
150.3075515679359
 30
0.0
 11
141.6054516595624
 21
150.3020937508784
 31
0.0
  0
LINE
  5
23B
330
E3
100
AcDbEntity
  8
0
  6
Continuous
100
AcDbLine
 10
141.6054516595624
 20
150.3020937508784
 30
0.0
 11
141.6035490086083
 21
150.296637401672
 31
0.0
  0
LINE
  5
23C
330
E3
100
AcDbEntity
  8
0
  6
Continuous
100
AcDbLine
 10
142.6035490086083
 20
150.1002088302434
 30
0.0
 11
142.6016463576541
 21
150.0947524810371
 31
0.0
  0
LINE
  5
23D
330
E3
100
AcDbEntity
  8
0
  6
Continuous
100
AcDbLine
 10
142.6016463576541
 20
150.0947524810371
 30
0.0
 11
142.5959528851144
 21
150.0892961318308
 31
0.0
  0
LINE
  5
23E
330
E3
100
AcDbEntity
  8
0
  6
Continuous
100
AcDbLine
 10
142.5959528851144
 20
150.0892961318308
 30
0.0
 11
142.5865126620117
 21
150.0838413266256
 31
0.0
  0
LINE
  5
23F
330
E3
100
AcDbEntity
  8
0
  6
Continuous
100
AcDbLine
 10
142.5865126620117
 20
150.0838413266256
 30
0.0
 11
142.5733943101006
 21
150.0783852510431
 31
0.0
  0
LINE
  5
240
330
E3
100
AcDbEntity
  8
0
  6
Continuous
100
AcDbLine
 10
142.5733943101006
 20
150.0783852510431
 30
0.0
 11
142.5567029529408
 21
150.0729254613179
 31
0.0
  0
LINE
  5
241
330
E3
100
AcDbEntity
  8
0
  6
Continuous
100
AcDbLine
 10
142.5567029529408
 20
150.0729254613179
 30
0.0
 11
142.5365611572404
 21
150.0674693857354
 31
0.0
  0
LINE
  5
242
330
E3
100
AcDbEntity
  8
0
  6
Continuous
100
AcDbLine
 10
142.5365611572404
 20
150.0674693857354
 30
0.0
 11
142.5131249169916
 21
150.062013310153
 31
0.0
  0
LINE
  5
243
330
E3
100
AcDbEntity
  8
0
  6
Continuous
100
AcDbLine
 10
142.5131249169916
 20
150.062013310153
 30
0.0
 11
142.4865725110425
 21
150.0565572345704
 31
0.0
  0
LINE
  5
244
330
E3
100
AcDbEntity
  8
0
  6
Continuous
100
AcDbLine
 10
142.4865725110425
 20
150.0565572345704
 30
0.0
 11
142.4571007889546
 21
150.051101158988
 31
0.0
  0
LINE
  5
245
330
E3
100
AcDbEntity
  8
0
  6
Continuous
100
AcDbLine
 10
142.4571007889546
 20
150.051101158988
 30
0.0
 11
142.4249437417162
 21
150.0456450834054
 31
0.0
  0
LINE
  5
246
330
E3
100
AcDbEntity
  8
0
  6
Continuous
100
AcDbLine
 10
142.4249437417162
 20
150.0456450834054
 30
0.0
 11
142.3903390744581
 21
150.040189007823
 31
0.0
  0
LINE
  5
247
330
E3
100
AcDbEntity
  8
0
  6
Continuous
100
AcDbLine
 10
142.3903390744581
 20
150.040189007823
 30
0.0
 11
142.3535504913099
 21
150.0347329322404
 31
0.0
  0
LINE
  5
248
330
E3
100
AcDbEntity
  8
0
  6
Continuous
100
AcDbLine
 10
142.3535504913099
 20
150.0347329322404
 30
0.0
 11
142.314856552972
 21
150.029276856658
 31
0.0
  0
LINE
  5
249
330
E3
100
AcDbEntity
  8
0
  6
Continuous
100
AcDbLine
 10
142.314856552972
 20
150.029276856658
 30
0.0
 11
142.2745581050005
 21
150.0238207810754
 31
0.0
  0
LINE
  5
24A
330
E3
100
AcDbEntity
  8
0
  6
Continuous
100
AcDbLine
 10
142.2745581050005
 20
150.0238207810754
 30
0.0
 11
142.2329597070945
 21
150.018364705493
 31
0.0
  0
LINE
  5
24B
330
E3
100
AcDbEntity
  8
0
  6
Continuous
100
AcDbLine
 10
142.2329597070945
 20
150.018364705493
 30
0.0
 11
142.1903733472382
 21
150.0129086299105
 31
0.0
  0
LINE
  5
24C
330
E3
100
AcDbEntity
  8
0
  6
Continuous
100
AcDbLine
 10
142.1903733472382
 20
150.0129086299105
 30
0.0
 11
142.1471258699866
 21
150.007452554328
 31
0.0
  0
LINE
  5
24D
330
E3
100
AcDbEntity
  8
0
  6
Continuous
100
AcDbLine
 10
142.1471258699866
 20
150.007452554328
 30
0.0
 11
142.1035478340374
 21
150.0019927646028
 31
0.0
  0
LINE
  5
24E
330
E3
100
AcDbEntity
  8
0
  6
Continuous
100
AcDbLine
 10
142.1035478340374
 20
150.0019927646028
 30
0.0
 11
142.0599697980882
 21
149.9965366890203
 31
0.0
  0
LINE
  5
24F
330
E3
100
AcDbEntity
  8
0
  6
Continuous
100
AcDbLine
 10
142.0599697980882
 20
149.9965366890203
 30
0.0
 11
142.0167260349793
 21
149.9910806134378
 31
0.0
  0
LINE
  5
250
330
E3
100
AcDbEntity
  8
0
  6
Continuous
100
AcDbLine
 10
142.0167260349793
 20
149.9910806134378
 30
0.0
 11
141.974139675123
 21
149.9856245378554
 31
0.0
  0
LINE
  5
251
330
E3
100
AcDbEntity
  8
0
  6
Continuous
100
AcDbLine
 10
141.974139675123
 20
149.9856245378554
 30
0.0
 11
141.9325375630743
 21
149.9801684622728
 31
0.0
  0
LINE
  5
252
330
E3
100
AcDbEntity
  8
0
  6
Continuous
100
AcDbLine
 10
141.9325375630743
 20
149.9801684622728
 30
0.0
 11
141.8922391151028
 21
149.9747123866904
 31
0.0
  0
LINE
  5
253
330
E3
100
AcDbEntity
  8
0
  6
Continuous
100
AcDbLine
 10
141.8922391151028
 20
149.9747123866904
 30
0.0
 11
141.8535488909075
 21
149.9692563111079
 31
0.0
  0
LINE
  5
254
330
E3
100
AcDbEntity
  8
0
  6
Continuous
100
AcDbLine
 10
141.8535488909075
 20
149.9692563111079
 30
0.0
 11
141.8167603077594
 21
149.9638002355254
 31
0.0
  0
LINE
  5
255
330
E3
100
AcDbEntity
  8
0
  6
Continuous
100
AcDbLine
 10
141.8167603077594
 20
149.9638002355254
 30
0.0
 11
141.7821556405013
 21
149.9583441599429
 31
0.0
  0
LINE
  5
256
330
E3
100
AcDbEntity
  8
0
  6
Continuous
100
AcDbLine
 10
141.7821556405013
 20
149.9583441599429
 30
0.0
 11
141.7499948791202
 21
149.9528880843604
 31
0.0
  0
LINE
  5
257
330
E3
100
AcDbEntity
  8
0
  6
Continuous
100
AcDbLine
 10
141.7499948791202
 20
149.9528880843604
 30
0.0
 11
141.720526871175
 21
149.9474320087779
 31
0.0
  0
LINE
  5
258
330
E3
100
AcDbEntity
  8
0
  6
Continuous
100
AcDbLine
 10
141.720526871175
 20
149.9474320087779
 30
0.0
 11
141.6939744652259
 21
149.9419759331954
 31
0.0
  0
LINE
  5
259
330
E3
100
AcDbEntity
  8
0
  6
Continuous
100
AcDbLine
 10
141.6939744652259
 20
149.9419759331954
 30
0.0
 11
141.6705345108344
 21
149.9365198576129
 31
0.0
  0
LINE
  5
25A
330
E3
100
AcDbEntity
  8
0
  6
Continuous
100
AcDbLine
 10
141.6705345108344
 20
149.9365198576129
 30
0.0
 11
141.6503964292767
 21
149.9310637820303
 31
0.0
  0
LINE
  5
25B
330
E3
100
AcDbEntity
  8
0
  6
Continuous
100
AcDbLine
 10
141.6503964292767
 20
149.9310637820303
 30
0.0
 11
141.6337013579742
 21
149.9256039923052
 31
0.0
  0
LINE
  5
25C
330
E3
100
AcDbEntity
  8
0
  6
Continuous
100
AcDbLine
 10
141.6337013579742
 20
149.9256039923052
 30
0.0
 11
141.6205867202058
 21
149.9201479167227
 31
0.0
  0
LINE
  5
25D
330
E3
100
AcDbEntity
  8
0
  6
Continuous
100
AcDbLine
 10
141.6205867202058
 20
149.9201479167227
 30
0.0
 11
141.6111453695382
 21
149.9146918411402
 31
0.0
  0
LINE
  5
25E
330
E3
100
AcDbEntity
  8
0
  6
Continuous
100
AcDbLine
 10
141.6111453695382
 20
149.9146918411402
 30
0.0
 11
141.6054516595624
 21
149.9092366080212
 31
0.0
  0
LINE
  5
25F
330
E3
100
AcDbEntity
  8
0
  6
Continuous
100
AcDbLine
 10
141.6054516595624
 20
149.9092366080212
 30
0.0
 11
141.6035490086083
 21
149.9037802588149
 31
0.0
  0
LINE
  5
260
330
E3
100
AcDbEntity
  8
0
  6
Continuous
100
AcDbLine
 10
142.6035490086083
 20
149.7073516873863
 30
0.0
 11
142.6016463576541
 21
149.70189533818
 31
0.0
  0
LINE
  5
261
330
E3
100
AcDbEntity
  8
0
  6
Continuous
100
AcDbLine
 10
142.6016463576541
 20
149.70189533818
 30
0.0
 11
142.5959528851144
 21
149.6964389889736
 31
0.0
  0
LINE
  5
262
330
E3
100
AcDbEntity
  8
0
  6
Continuous
100
AcDbLine
 10
142.5959528851144
 20
149.6964389889736
 30
0.0
 11
142.5865126620117
 21
149.6909815998299
 31
0.0
  0
LINE
  5
263
330
E3
100
AcDbEntity
  8
0
  6
Continuous
100
AcDbLine
 10
142.5865126620117
 20
149.6909815998299
 30
0.0
 11
142.5733943101006
 21
149.6855255242474
 31
0.0
  0
LINE
  5
264
330
E3
100
AcDbEntity
  8
0
  6
Continuous
100
AcDbLine
 10
142.5733943101006
 20
149.6855255242474
 30
0.0
 11
142.5567029529408
 21
149.6800694486649
 31
0.0
  0
LINE
  5
265
330
E3
100
AcDbEntity
  8
0
  6
Continuous
100
AcDbLine
 10
142.5567029529408
 20
149.6800694486649
 30
0.0
 11
142.5365611572404
 21
149.6746133730824
 31
0.0
  0
LINE
  5
266
330
E3
100
AcDbEntity
  8
0
  6
Continuous
100
AcDbLine
 10
142.5365611572404
 20
149.6746133730824
 30
0.0
 11
142.5131249169916
 21
149.6691572974999
 31
0.0
  0
LINE
  5
267
330
E3
100
AcDbEntity
  8
0
  6
Continuous
100
AcDbLine
 10
142.5131249169916
 20
149.6691572974999
 30
0.0
 11
142.4865725110425
 21
149.6637012219174
 31
0.0
  0
LINE
  5
268
330
E3
100
AcDbEntity
  8
0
  6
Continuous
100
AcDbLine
 10
142.4865725110425
 20
149.6637012219174
 30
0.0
 11
142.4571007889546
 21
149.6582451463349
 31
0.0
  0
LINE
  5
269
330
E3
100
AcDbEntity
  8
0
  6
Continuous
100
AcDbLine
 10
142.4571007889546
 20
149.6582451463349
 30
0.0
 11
142.4249437417162
 21
149.6527890707524
 31
0.0
  0
LINE
  5
26A
330
E3
100
AcDbEntity
  8
0
  6
Continuous
100
AcDbLine
 10
142.4249437417162
 20
149.6527890707524
 30
0.0
 11
142.3903390744581
 21
149.6473329951699
 31
0.0
  0
LINE
  5
26B
330
E3
100
AcDbEntity
  8
0
  6
Continuous
100
AcDbLine
 10
142.3903390744581
 20
149.6473329951699
 30
0.0
 11
142.3535504913099
 21
149.6418769195874
 31
0.0
  0
LINE
  5
26C
330
E3
100
AcDbEntity
  8
0
  6
Continuous
100
AcDbLine
 10
142.3535504913099
 20
149.6418769195874
 30
0.0
 11
142.314856552972
 21
149.636420844005
 31
0.0
  0
LINE
  5
26D
330
E3
100
AcDbEntity
  8
0
  6
Continuous
100
AcDbLine
 10
142.314856552972
 20
149.636420844005
 30
0.0
 11
142.2745581050005
 21
149.6309610542798
 31
0.0
  0
LINE
  5
26E
330
E3
100
AcDbEntity
  8
0
  6
Continuous
100
AcDbLine
 10
142.2745581050005
 20
149.6309610542798
 30
0.0
 11
142.2329597070945
 21
149.6255049786973
 31
0.0
  0
LINE
  5
26F
330
E3
100
AcDbEntity
  8
0
  6
Continuous
100
AcDbLine
 10
142.2329597070945
 20
149.6255049786973
 30
0.0
 11
142.1903733472382
 21
149.6200489031148
 31
0.0
  0
LINE
  5
270
330
E3
100
AcDbEntity
  8
0
  6
Continuous
100
AcDbLine
 10
142.1903733472382
 20
149.6200489031148
 30
0.0
 11
142.1471258699866
 21
149.6145928275323
 31
0.0
  0
LINE
  5
271
330
E3
100
AcDbEntity
  8
0
  6
Continuous
100
AcDbLine
 10
142.1471258699866
 20
149.6145928275323
 30
0.0
 11
142.1035478340374
 21
149.6091367519498
 31
0.0
  0
LINE
  5
272
330
E3
100
AcDbEntity
  8
0
  6
Continuous
100
AcDbLine
 10
142.1035478340374
 20
149.6091367519498
 30
0.0
 11
142.0599697980882
 21
149.6036806763673
 31
0.0
  0
LINE
  5
273
330
E3
100
AcDbEntity
  8
0
  6
Continuous
100
AcDbLine
 10
142.0599697980882
 20
149.6036806763673
 30
0.0
 11
142.0167260349793
 21
149.5982246007848
 31
0.0
  0
LINE
  5
274
330
E3
100
AcDbEntity
  8
0
  6
Continuous
100
AcDbLine
 10
142.0167260349793
 20
149.5982246007848
 30
0.0
 11
141.974139675123
 21
149.5927685252023
 31
0.0
  0
LINE
  5
275
330
E3
100
AcDbEntity
  8
0
  6
Continuous
100
AcDbLine
 10
141.974139675123
 20
149.5927685252023
 30
0.0
 11
141.9325375630743
 21
149.5873124496198
 31
0.0
  0
LINE
  5
276
330
E3
100
AcDbEntity
  8
0
  6
Continuous
100
AcDbLine
 10
141.9325375630743
 20
149.5873124496198
 30
0.0
 11
141.8922391151028
 21
149.5818563740373
 31
0.0
  0
LINE
  5
277
330
E3
100
AcDbEntity
  8
0
  6
Continuous
100
AcDbLine
 10
141.8922391151028
 20
149.5818563740373
 30
0.0
 11
141.8535488909075
 21
149.5764002984548
 31
0.0
  0
LINE
  5
278
330
E3
100
AcDbEntity
  8
0
  6
Continuous
100
AcDbLine
 10
141.8535488909075
 20
149.5764002984548
 30
0.0
 11
141.8167603077594
 21
149.5709442228723
 31
0.0
  0
LINE
  5
279
330
E3
100
AcDbEntity
  8
0
  6
Continuous
100
AcDbLine
 10
141.8167603077594
 20
149.5709442228723
 30
0.0
 11
141.7821556405013
 21
149.5654881472898
 31
0.0
  0
LINE
  5
27A
330
E3
100
AcDbEntity
  8
0
  6
Continuous
100
AcDbLine
 10
141.7821556405013
 20
149.5654881472898
 30
0.0
 11
141.7499948791202
 21
149.5600320717074
 31
0.0
  0
LINE
  5
27B
330
E3
100
AcDbEntity
  8
0
  6
Continuous
100
AcDbLine
 10
141.7499948791202
 20
149.5600320717074
 30
0.0
 11
141.720526871175
 21
149.5545722819822
 31
0.0
  0
LINE
  5
27C
330
E3
100
AcDbEntity
  8
0
  6
Continuous
100
AcDbLine
 10
141.720526871175
 20
149.5545722819822
 30
0.0
 11
141.6939744652259
 21
149.5491162063997
 31
0.0
  0
LINE
  5
27D
330
E3
100
AcDbEntity
  8
0
  6
Continuous
100
AcDbLine
 10
141.6939744652259
 20
149.5491162063997
 30
0.0
 11
141.6705345108344
 21
149.5436601308172
 31
0.0
  0
LINE
  5
27E
330
E3
100
AcDbEntity
  8
0
  6
Continuous
100
AcDbLine
 10
141.6705345108344
 20
149.5436601308172
 30
0.0
 11
141.6503964292767
 21
149.5382040552347
 31
0.0
  0
LINE
  5
27F
330
E3
100
AcDbEntity
  8
0
  6
Continuous
100
AcDbLine
 10
141.6503964292767
 20
149.5382040552347
 30
0.0
 11
141.6337013579742
 21
149.5327479796522
 31
0.0
  0
LINE
  5
280
330
E3
100
AcDbEntity
  8
0
  6
Continuous
100
AcDbLine
 10
141.6337013579742
 20
149.5327479796522
 30
0.0
 11
141.6205867202058
 21
149.5272919040697
 31
0.0
  0
LINE
  5
281
330
E3
100
AcDbEntity
  8
0
  6
Continuous
100
AcDbLine
 10
141.6205867202058
 20
149.5272919040697
 30
0.0
 11
141.6111453695382
 21
149.5218358284872
 31
0.0
  0
LINE
  5
282
330
E3
100
AcDbEntity
  8
0
  6
Continuous
100
AcDbLine
 10
141.6111453695382
 20
149.5218358284872
 30
0.0
 11
141.6054516595624
 21
149.5163794651641
 31
0.0
  0
LINE
  5
283
330
E3
100
AcDbEntity
  8
0
  6
Continuous
100
AcDbLine
 10
141.6054516595624
 20
149.5163794651641
 30
0.0
 11
141.6035490086083
 21
149.5109231159578
 31
0.0
  0
LINE
  5
284
330
E3
100
AcDbEntity
  8
0
  6
Continuous
100
AcDbLine
 10
142.6035490086083
 20
149.3144945445292
 30
0.0
 11
142.6016463576541
 21
149.3090381953228
 31
0.0
  0
LINE
  5
285
330
E3
100
AcDbEntity
  8
0
  6
Continuous
100
AcDbLine
 10
142.6016463576541
 20
149.3090381953228
 30
0.0
 11
142.5959528851144
 21
149.3035818461165
 31
0.0
  0
LINE
  5
286
330
E3
100
AcDbEntity
  8
0
  6
Continuous
100
AcDbLine
 10
142.5959528851144
 20
149.3035818461165
 30
0.0
 11
142.5865126620117
 21
149.2981255871769
 31
0.0
  0
LINE
  5
287
330
E3
100
AcDbEntity
  8
0
  6
Continuous
100
AcDbLine
 10
142.5865126620117
 20
149.2981255871769
 30
0.0
 11
142.5733943101006
 21
149.2926695115944
 31
0.0
  0
LINE
  5
288
330
E3
100
AcDbEntity
  8
0
  6
Continuous
100
AcDbLine
 10
142.5733943101006
 20
149.2926695115944
 30
0.0
 11
142.5567029529408
 21
149.2872134360119
 31
0.0
  0
LINE
  5
289
330
E3
100
AcDbEntity
  8
0
  6
Continuous
100
AcDbLine
 10
142.5567029529408
 20
149.2872134360119
 30
0.0
 11
142.5365611572404
 21
149.2817573604294
 31
0.0
  0
LINE
  5
28A
330
E3
100
AcDbEntity
  8
0
  6
Continuous
100
AcDbLine
 10
142.5365611572404
 20
149.2817573604294
 30
0.0
 11
142.5131249169916
 21
149.2763012848469
 31
0.0
  0
LINE
  5
28B
330
E3
100
AcDbEntity
  8
0
  6
Continuous
100
AcDbLine
 10
142.5131249169916
 20
149.2763012848469
 30
0.0
 11
142.4865725110425
 21
149.2708452092644
 31
0.0
  0
LINE
  5
28C
330
E3
100
AcDbEntity
  8
0
  6
Continuous
100
AcDbLine
 10
142.4865725110425
 20
149.2708452092644
 30
0.0
 11
142.4571007889546
 21
149.2653891336819
 31
0.0
  0
LINE
  5
28D
330
E3
100
AcDbEntity
  8
0
  6
Continuous
100
AcDbLine
 10
142.4571007889546
 20
149.2653891336819
 30
0.0
 11
142.4249437417162
 21
149.2599293439568
 31
0.0
  0
LINE
  5
28E
330
E3
100
AcDbEntity
  8
0
  6
Continuous
100
AcDbLine
 10
142.4249437417162
 20
149.2599293439568
 30
0.0
 11
142.3903390744581
 21
149.2544732683743
 31
0.0
  0
LINE
  5
28F
330
E3
100
AcDbEntity
  8
0
  6
Continuous
100
AcDbLine
 10
142.3903390744581
 20
149.2544732683743
 30
0.0
 11
142.3535504913099
 21
149.2490171927918
 31
0.0
  0
LINE
  5
290
330
E3
100
AcDbEntity
  8
0
  6
Continuous
100
AcDbLine
 10
142.3535504913099
 20
149.2490171927918
 30
0.0
 11
142.314856552972
 21
149.2435611172093
 31
0.0
  0
LINE
  5
291
330
E3
100
AcDbEntity
  8
0
  6
Continuous
100
AcDbLine
 10
142.314856552972
 20
149.2435611172093
 30
0.0
 11
142.2745581050005
 21
149.2381050416268
 31
0.0
  0
LINE
  5
292
330
E3
100
AcDbEntity
  8
0
  6
Continuous
100
AcDbLine
 10
142.2745581050005
 20
149.2381050416268
 30
0.0
 11
142.2329597070945
 21
149.2326489660443
 31
0.0
  0
LINE
  5
293
330
E3
100
AcDbEntity
  8
0
  6
Continuous
100
AcDbLine
 10
142.2329597070945
 20
149.2326489660443
 30
0.0
 11
142.1903733472382
 21
149.2271928904618
 31
0.0
  0
LINE
  5
294
330
E3
100
AcDbEntity
  8
0
  6
Continuous
100
AcDbLine
 10
142.1903733472382
 20
149.2271928904618
 30
0.0
 11
142.1471258699866
 21
149.2217368148793
 31
0.0
  0
LINE
  5
295
330
E3
100
AcDbEntity
  8
0
  6
Continuous
100
AcDbLine
 10
142.1471258699866
 20
149.2217368148793
 30
0.0
 11
142.1035478340374
 21
149.2162807392968
 31
0.0
  0
LINE
  5
296
330
E3
100
AcDbEntity
  8
0
  6
Continuous
100
AcDbLine
 10
142.1035478340374
 20
149.2162807392968
 30
0.0
 11
142.0599697980882
 21
149.2108246637143
 31
0.0
  0
LINE
  5
297
330
E3
100
AcDbEntity
  8
0
  6
Continuous
100
AcDbLine
 10
142.0599697980882
 20
149.2108246637143
 30
0.0
 11
142.0167260349793
 21
149.2053685881318
 31
0.0
  0
LINE
  5
298
330
E3
100
AcDbEntity
  8
0
  6
Continuous
100
AcDbLine
 10
142.0167260349793
 20
149.2053685881318
 30
0.0
 11
141.974139675123
 21
149.1999125125493
 31
0.0
  0
LINE
  5
299
330
E3
100
AcDbEntity
  8
0
  6
Continuous
100
AcDbLine
 10
141.974139675123
 20
149.1999125125493
 30
0.0
 11
141.9325375630743
 21
149.1944564369668
 31
0.0
  0
LINE
  5
29A
330
E3
100
AcDbEntity
  8
0
  6
Continuous
100
AcDbLine
 10
141.9325375630743
 20
149.1944564369668
 30
0.0
 11
141.8922391151028
 21
149.1890003613843
 31
0.0
  0
LINE
  5
29B
330
E3
100
AcDbEntity
  8
0
  6
Continuous
100
AcDbLine
 10
141.8922391151028
 20
149.1890003613843
 30
0.0
 11
141.8535488909075
 21
149.1835405716591
 31
0.0
  0
LINE
  5
29C
330
E3
100
AcDbEntity
  8
0
  6
Continuous
100
AcDbLine
 10
141.8535488909075
 20
149.1835405716591
 30
0.0
 11
141.8167603077594
 21
149.1780844960767
 31
0.0
  0
LINE
  5
29D
330
E3
100
AcDbEntity
  8
0
  6
Continuous
100
AcDbLine
 10
141.8167603077594
 20
149.1780844960767
 30
0.0
 11
141.7821556405013
 21
149.1726284204941
 31
0.0
  0
LINE
  5
29E
330
E3
100
AcDbEntity
  8
0
  6
Continuous
100
AcDbLine
 10
141.7821556405013
 20
149.1726284204941
 30
0.0
 11
141.7499948791202
 21
149.1671723449117
 31
0.0
  0
LINE
  5
29F
330
E3
100
AcDbEntity
  8
0
  6
Continuous
100
AcDbLine
 10
141.7499948791202
 20
149.1671723449117
 30
0.0
 11
141.720526871175
 21
149.1617162693292
 31
0.0
  0
LINE
  5
2A0
330
E3
100
AcDbEntity
  8
0
  6
Continuous
100
AcDbLine
 10
141.720526871175
 20
149.1617162693292
 30
0.0
 11
141.6939744652259
 21
149.1562601937467
 31
0.0
  0
LINE
  5
2A1
330
E3
100
AcDbEntity
  8
0
  6
Continuous
100
AcDbLine
 10
141.6939744652259
 20
149.1562601937467
 30
0.0
 11
141.6705345108344
 21
149.1508041181642
 31
0.0
  0
LINE
  5
2A2
330
E3
100
AcDbEntity
  8
0
  6
Continuous
100
AcDbLine
 10
141.6705345108344
 20
149.1508041181642
 30
0.0
 11
141.6503964292767
 21
149.1453480425817
 31
0.0
  0
LINE
  5
2A3
330
E3
100
AcDbEntity
  8
0
  6
Continuous
100
AcDbLine
 10
141.6503964292767
 20
149.1453480425817
 30
0.0
 11
141.6337013579742
 21
149.1398919669992
 31
0.0
  0
LINE
  5
2A4
330
E3
100
AcDbEntity
  8
0
  6
Continuous
100
AcDbLine
 10
141.6337013579742
 20
149.1398919669992
 30
0.0
 11
141.6205867202058
 21
149.1344358914167
 31
0.0
  0
LINE
  5
2A5
330
E3
100
AcDbEntity
  8
0
  6
Continuous
100
AcDbLine
 10
141.6205867202058
 20
149.1344358914167
 30
0.0
 11
141.6111453695382
 21
149.1289798158342
 31
0.0
  0
LINE
  5
2A6
330
E3
100
AcDbEntity
  8
0
  6
Continuous
100
AcDbLine
 10
141.6111453695382
 20
149.1289798158342
 30
0.0
 11
141.6054516595624
 21
149.123522322307
 31
0.0
  0
LINE
  5
2A7
330
E3
100
AcDbEntity
  8
0
  6
Continuous
100
AcDbLine
 10
141.6054516595624
 20
149.123522322307
 30
0.0
 11
141.6035490086083
 21
149.1180659731006
 31
0.0
  0
LINE
  5
2A8
330
E3
100
AcDbEntity
  8
0
  6
Continuous
100
AcDbLine
 10
142.6035490086083
 20
148.921637401672
 30
0.0
 11
142.6016463576541
 21
148.9161810524657
 31
0.0
  0
LINE
  5
2A9
330
E3
100
AcDbEntity
  8
0
  6
Continuous
100
AcDbLine
 10
142.6016463576541
 20
148.9161810524657
 30
0.0
 11
142.5959528851144
 21
148.9107247032593
 31
0.0
  0
LINE
  5
2AA
330
E3
100
AcDbEntity
  8
0
  6
Continuous
100
AcDbLine
 10
142.5959528851144
 20
148.9107247032593
 30
0.0
 11
142.5865126620117
 21
148.9052695745239
 31
0.0
  0
LINE
  5
2AB
330
E3
100
AcDbEntity
  8
0
  6
Continuous
100
AcDbLine
 10
142.5865126620117
 20
148.9052695745239
 30
0.0
 11
142.5733943101006
 21
148.8998134989414
 31
0.0
  0
LINE
  5
2AC
330
E3
100
AcDbEntity
  8
0
  6
Continuous
100
AcDbLine
 10
142.5733943101006
 20
148.8998134989414
 30
0.0
 11
142.5567029529408
 21
148.8943574233589
 31
0.0
  0
LINE
  5
2AD
330
E3
100
AcDbEntity
  8
0
  6
Continuous
100
AcDbLine
 10
142.5567029529408
 20
148.8943574233589
 30
0.0
 11
142.5365611572404
 21
148.8888976336337
 31
0.0
  0
LINE
  5
2AE
330
E3
100
AcDbEntity
  8
0
  6
Continuous
100
AcDbLine
 10
142.5365611572404
 20
148.8888976336337
 30
0.0
 11
142.5131249169916
 21
148.8834415580512
 31
0.0
  0
LINE
  5
2AF
330
E3
100
AcDbEntity
  8
0
  6
Continuous
100
AcDbLine
 10
142.5131249169916
 20
148.8834415580512
 30
0.0
 11
142.4865725110425
 21
148.8779854824687
 31
0.0
  0
LINE
  5
2B0
330
E3
100
AcDbEntity
  8
0
  6
Continuous
100
AcDbLine
 10
142.4865725110425
 20
148.8779854824687
 30
0.0
 11
142.4571007889546
 21
148.8725294068862
 31
0.0
  0
LINE
  5
2B1
330
E3
100
AcDbEntity
  8
0
  6
Continuous
100
AcDbLine
 10
142.4571007889546
 20
148.8725294068862
 30
0.0
 11
142.4249437417162
 21
148.8670733313037
 31
0.0
  0
LINE
  5
2B2
330
E3
100
AcDbEntity
  8
0
  6
Continuous
100
AcDbLine
 10
142.4249437417162
 20
148.8670733313037
 30
0.0
 11
142.3903390744581
 21
148.8616172557212
 31
0.0
  0
LINE
  5
2B3
330
E3
100
AcDbEntity
  8
0
  6
Continuous
100
AcDbLine
 10
142.3903390744581
 20
148.8616172557212
 30
0.0
 11
142.3535504913099
 21
148.8561611801387
 31
0.0
  0
LINE
  5
2B4
330
E3
100
AcDbEntity
  8
0
  6
Continuous
100
AcDbLine
 10
142.3535504913099
 20
148.8561611801387
 30
0.0
 11
142.314856552972
 21
148.8507051045562
 31
0.0
  0
LINE
  5
2B5
330
E3
100
AcDbEntity
  8
0
  6
Continuous
100
AcDbLine
 10
142.314856552972
 20
148.8507051045562
 30
0.0
 11
142.2745581050005
 21
148.8452490289737
 31
0.0
  0
LINE
  5
2B6
330
E3
100
AcDbEntity
  8
0
  6
Continuous
100
AcDbLine
 10
142.2745581050005
 20
148.8452490289737
 30
0.0
 11
142.2329597070945
 21
148.8397929533912
 31
0.0
  0
LINE
  5
2B7
330
E3
100
AcDbEntity
  8
0
  6
Continuous
100
AcDbLine
 10
142.2329597070945
 20
148.8397929533912
 30
0.0
 11
142.1903733472382
 21
148.8343368778088
 31
0.0
  0
LINE
  5
2B8
330
E3
100
AcDbEntity
  8
0
  6
Continuous
100
AcDbLine
 10
142.1903733472382
 20
148.8343368778088
 30
0.0
 11
142.1471258699866
 21
148.8288808022263
 31
0.0
  0
LINE
  5
2B9
330
E3
100
AcDbEntity
  8
0
  6
Continuous
100
AcDbLine
 10
142.1471258699866
 20
148.8288808022263
 30
0.0
 11
142.1035478340374
 21
148.8234247266438
 31
0.0
  0
LINE
  5
2BA
330
E3
100
AcDbEntity
  8
0
  6
Continuous
100
AcDbLine
 10
142.1035478340374
 20
148.8234247266438
 30
0.0
 11
142.0599697980882
 21
148.8179649369186
 31
0.0
  0
LINE
  5
2BB
330
E3
100
AcDbEntity
  8
0
  6
Continuous
100
AcDbLine
 10
142.0599697980882
 20
148.8179649369186
 30
0.0
 11
142.0167260349793
 21
148.8125088613361
 31
0.0
  0
LINE
  5
2BC
330
E3
100
AcDbEntity
  8
0
  6
Continuous
100
AcDbLine
 10
142.0167260349793
 20
148.8125088613361
 30
0.0
 11
141.974139675123
 21
148.8070527857536
 31
0.0
  0
LINE
  5
2BD
330
E3
100
AcDbEntity
  8
0
  6
Continuous
100
AcDbLine
 10
141.974139675123
 20
148.8070527857536
 30
0.0
 11
141.9325375630743
 21
148.8015967101711
 31
0.0
  0
LINE
  5
2BE
330
E3
100
AcDbEntity
  8
0
  6
Continuous
100
AcDbLine
 10
141.9325375630743
 20
148.8015967101711
 30
0.0
 11
141.8922391151028
 21
148.7961406345886
 31
0.0
  0
LINE
  5
2BF
330
E3
100
AcDbEntity
  8
0
  6
Continuous
100
AcDbLine
 10
141.8922391151028
 20
148.7961406345886
 30
0.0
 11
141.8535488909075
 21
148.7906845590061
 31
0.0
  0
LINE
  5
2C0
330
E3
100
AcDbEntity
  8
0
  6
Continuous
100
AcDbLine
 10
141.8535488909075
 20
148.7906845590061
 30
0.0
 11
141.8167603077594
 21
148.7852284834236
 31
0.0
  0
LINE
  5
2C1
330
E3
100
AcDbEntity
  8
0
  6
Continuous
100
AcDbLine
 10
141.8167603077594
 20
148.7852284834236
 30
0.0
 11
141.7821556405013
 21
148.7797724078411
 31
0.0
  0
LINE
  5
2C2
330
E3
100
AcDbEntity
  8
0
  6
Continuous
100
AcDbLine
 10
141.7821556405013
 20
148.7797724078411
 30
0.0
 11
141.7499948791202
 21
148.7743163322586
 31
0.0
  0
LINE
  5
2C3
330
E3
100
AcDbEntity
  8
0
  6
Continuous
100
AcDbLine
 10
141.7499948791202
 20
148.7743163322586
 30
0.0
 11
141.720526871175
 21
148.7688602566761
 31
0.0
  0
LINE
  5
2C4
330
E3
100
AcDbEntity
  8
0
  6
Continuous
100
AcDbLine
 10
141.720526871175
 20
148.7688602566761
 30
0.0
 11
141.6939744652259
 21
148.7634041810936
 31
0.0
  0
LINE
  5
2C5
330
E3
100
AcDbEntity
  8
0
  6
Continuous
100
AcDbLine
 10
141.6939744652259
 20
148.7634041810936
 30
0.0
 11
141.6705345108344
 21
148.7579481055112
 31
0.0
  0
LINE
  5
2C6
330
E3
100
AcDbEntity
  8
0
  6
Continuous
100
AcDbLine
 10
141.6705345108344
 20
148.7579481055112
 30
0.0
 11
141.6503964292767
 21
148.7524920299286
 31
0.0
  0
LINE
  5
2C7
330
E3
100
AcDbEntity
  8
0
  6
Continuous
100
AcDbLine
 10
141.6503964292767
 20
148.7524920299286
 30
0.0
 11
141.6337013579742
 21
148.7470359543462
 31
0.0
  0
LINE
  5
2C8
330
E3
100
AcDbEntity
  8
0
  6
Continuous
100
AcDbLine
 10
141.6337013579742
 20
148.7470359543462
 30
0.0
 11
141.6205867202058
 21
148.741576164621
 31
0.0
  0
LINE
  5
2C9
330
E3
100
AcDbEntity
  8
0
  6
Continuous
100
AcDbLine
 10
141.6205867202058
 20
148.741576164621
 30
0.0
 11
141.6111453695382
 21
148.7361200890385
 31
0.0
  0
LINE
  5
2CA
330
E3
100
AcDbEntity
  8
0
  6
Continuous
100
AcDbLine
 10
141.6111453695382
 20
148.7361200890385
 30
0.0
 11
141.6054516595624
 21
148.7306651794498
 31
0.0
  0
LINE
  5
2CB
330
E3
100
AcDbEntity
  8
0
  6
Continuous
100
AcDbLine
 10
141.6054516595624
 20
148.7306651794498
 30
0.0
 11
141.6035490086083
 21
148.7252088302435
 31
0.0
  0
LINE
  5
2CC
330
E3
100
AcDbEntity
  8
0
  6
Continuous
100
AcDbLine
 10
142.6035490086082
 20
148.5287802588149
 30
0.0
 11
142.6016463576541
 21
148.5233239096085
 31
0.0
  0
LINE
  5
2CD
330
E3
100
AcDbEntity
  8
0
  6
Continuous
100
AcDbLine
 10
142.6016463576541
 20
148.5233239096085
 30
0.0
 11
142.5959528851144
 21
148.5178675604022
 31
0.0
  0
LINE
  5
2CE
330
E3
100
AcDbEntity
  8
0
  6
Continuous
100
AcDbLine
 10
142.5959528851144
 20
148.5178675604022
 30
0.0
 11
142.5865126620117
 21
148.5124098477282
 31
0.0
  0
LINE
  5
2CF
330
E3
100
AcDbEntity
  8
0
  6
Continuous
100
AcDbLine
 10
142.5865126620117
 20
148.5124098477282
 30
0.0
 11
142.5733943101006
 21
148.5069537721457
 31
0.0
  0
LINE
  5
2D0
330
E3
100
AcDbEntity
  8
0
  6
Continuous
100
AcDbLine
 10
142.5733943101006
 20
148.5069537721457
 30
0.0
 11
142.5567029529408
 21
148.5014976965632
 31
0.0
  0
LINE
  5
2D1
330
E3
100
AcDbEntity
  8
0
  6
Continuous
100
AcDbLine
 10
142.5567029529408
 20
148.5014976965632
 30
0.0
 11
142.5365611572404
 21
148.4960416209807
 31
0.0
  0
LINE
  5
2D2
330
E3
100
AcDbEntity
  8
0
  6
Continuous
100
AcDbLine
 10
142.5365611572404
 20
148.4960416209807
 30
0.0
 11
142.5131249169916
 21
148.4905855453982
 31
0.0
  0
LINE
  5
2D3
330
E3
100
AcDbEntity
  8
0
  6
Continuous
100
AcDbLine
 10
142.5131249169916
 20
148.4905855453982
 30
0.0
 11
142.4865725110425
 21
148.4851294698157
 31
0.0
  0
LINE
  5
2D4
330
E3
100
AcDbEntity
  8
0
  6
Continuous
100
AcDbLine
 10
142.4865725110425
 20
148.4851294698157
 30
0.0
 11
142.4571007889546
 21
148.4796733942332
 31
0.0
  0
LINE
  5
2D5
330
E3
100
AcDbEntity
  8
0
  6
Continuous
100
AcDbLine
 10
142.4571007889546
 20
148.4796733942332
 30
0.0
 11
142.4249437417162
 21
148.4742173186507
 31
0.0
  0
LINE
  5
2D6
330
E3
100
AcDbEntity
  8
0
  6
Continuous
100
AcDbLine
 10
142.4249437417162
 20
148.4742173186507
 30
0.0
 11
142.3903390744581
 21
148.4687612430682
 31
0.0
  0
LINE
  5
2D7
330
E3
100
AcDbEntity
  8
0
  6
Continuous
100
AcDbLine
 10
142.3903390744581
 20
148.4687612430682
 30
0.0
 11
142.3535504913099
 21
148.4633051674857
 31
0.0
  0
LINE
  5
2D8
330
E3
100
AcDbEntity
  8
0
  6
Continuous
100
AcDbLine
 10
142.3535504913099
 20
148.4633051674857
 30
0.0
 11
142.314856552972
 21
148.4578490919032
 31
0.0
  0
LINE
  5
2D9
330
E3
100
AcDbEntity
  8
0
  6
Continuous
100
AcDbLine
 10
142.314856552972
 20
148.4578490919032
 30
0.0
 11
142.2745581050005
 21
148.4523930163207
 31
0.0
  0
LINE
  5
2DA
330
E3
100
AcDbEntity
  8
0
  6
Continuous
100
AcDbLine
 10
142.2745581050005
 20
148.4523930163207
 30
0.0
 11
142.2329597070945
 21
148.4469332265956
 31
0.0
  0
LINE
  5
2DB
330
E3
100
AcDbEntity
  8
0
  6
Continuous
100
AcDbLine
 10
142.2329597070945
 20
148.4469332265956
 30
0.0
 11
142.1903733472382
 21
148.4414771510131
 31
0.0
  0
LINE
  5
2DC
330
E3
100
AcDbEntity
  8
0
  6
Continuous
100
AcDbLine
 10
142.1903733472382
 20
148.4414771510131
 30
0.0
 11
142.1471258699866
 21
148.4360210754306
 31
0.0
  0
LINE
  5
2DD
330
E3
100
AcDbEntity
  8
0
  6
Continuous
100
AcDbLine
 10
142.1471258699866
 20
148.4360210754306
 30
0.0
 11
142.1035478340374
 21
148.4305649998481
 31
0.0
  0
LINE
  5
2DE
330
E3
100
AcDbEntity
  8
0
  6
Continuous
100
AcDbLine
 10
142.1035478340374
 20
148.4305649998481
 30
0.0
 11
142.0599697980882
 21
148.4251089242656
 31
0.0
  0
LINE
  5
2DF
330
E3
100
AcDbEntity
  8
0
  6
Continuous
100
AcDbLine
 10
142.0599697980882
 20
148.4251089242656
 30
0.0
 11
142.0167260349793
 21
148.4196528486831
 31
0.0
  0
LINE
  5
2E0
330
E3
100
AcDbEntity
  8
0
  6
Continuous
100
AcDbLine
 10
142.0167260349793
 20
148.4196528486831
 30
0.0
 11
141.974139675123
 21
148.4141967731006
 31
0.0
  0
LINE
  5
2E1
330
E3
100
AcDbEntity
  8
0
  6
Continuous
100
AcDbLine
 10
141.974139675123
 20
148.4141967731006
 30
0.0
 11
141.9325375630743
 21
148.4087406975181
 31
0.0
  0
LINE
  5
2E2
330
E3
100
AcDbEntity
  8
0
  6
Continuous
100
AcDbLine
 10
141.9325375630743
 20
148.4087406975181
 30
0.0
 11
141.8922391151028
 21
148.4032846219356
 31
0.0
  0
LINE
  5
2E3
330
E3
100
AcDbEntity
  8
0
  6
Continuous
100
AcDbLine
 10
141.8922391151028
 20
148.4032846219356
 30
0.0
 11
141.8535488909075
 21
148.3978285463531
 31
0.0
  0
LINE
  5
2E4
330
E3
100
AcDbEntity
  8
0
  6
Continuous
100
AcDbLine
 10
141.8535488909075
 20
148.3978285463531
 30
0.0
 11
141.8167603077594
 21
148.3923724707706
 31
0.0
  0
LINE
  5
2E5
330
E3
100
AcDbEntity
  8
0
  6
Continuous
100
AcDbLine
 10
141.8167603077594
 20
148.3923724707706
 30
0.0
 11
141.7821556405013
 21
148.3869163951881
 31
0.0
  0
LINE
  5
2E6
330
E3
100
AcDbEntity
  8
0
  6
Continuous
100
AcDbLine
 10
141.7821556405013
 20
148.3869163951881
 30
0.0
 11
141.7499948791202
 21
148.3814603196056
 31
0.0
  0
LINE
  5
2E7
330
E3
100
AcDbEntity
  8
0
  6
Continuous
100
AcDbLine
 10
141.7499948791202
 20
148.3814603196056
 30
0.0
 11
141.720526871175
 21
148.3760042440231
 31
0.0
  0
LINE
  5
2E8
330
E3
100
AcDbEntity
  8
0
  6
Continuous
100
AcDbLine
 10
141.720526871175
 20
148.3760042440231
 30
0.0
 11
141.6939744652259
 21
148.370544454298
 31
0.0
  0
LINE
  5
2E9
330
E3
100
AcDbEntity
  8
0
  6
Continuous
100
AcDbLine
 10
141.6939744652259
 20
148.370544454298
 30
0.0
 11
141.6705345108344
 21
148.3650883787155
 31
0.0
  0
LINE
  5
2EA
330
E3
100
AcDbEntity
  8
0
  6
Continuous
100
AcDbLine
 10
141.6705345108344
 20
148.3650883787155
 30
0.0
 11
141.6503964292767
 21
148.359632303133
 31
0.0
  0
LINE
  5
2EB
330
E3
100
AcDbEntity
  8
0
  6
Continuous
100
AcDbLine
 10
141.6503964292767
 20
148.359632303133
 30
0.0
 11
141.6337013579742
 21
148.3541762275505
 31
0.0
  0
LINE
  5
2EC
330
E3
100
AcDbEntity
  8
0
  6
Continuous
100
AcDbLine
 10
141.6337013579742
 20
148.3541762275505
 30
0.0
 11
141.6205867202058
 21
148.348720151968
 31
0.0
  0
LINE
  5
2ED
330
E3
100
AcDbEntity
  8
0
  6
Continuous
100
AcDbLine
 10
141.6205867202058
 20
148.348720151968
 30
0.0
 11
141.6111453695382
 21
148.3432640763855
 31
0.0
  0
LINE
  5
2EE
330
E3
100
AcDbEntity
  8
0
  6
Continuous
100
AcDbLine
 10
141.6111453695382
 20
148.3432640763855
 30
0.0
 11
141.6054516595624
 21
148.3378080365927
 31
0.0
  0
LINE
  5
2EF
330
E3
100
AcDbEntity
  8
0
  6
Continuous
100
AcDbLine
 10
141.6054516595624
 20
148.3378080365927
 30
0.0
 11
141.6035490086082
 21
148.3323516873863
 31
0.0
  0
LINE
  5
2F0
330
E3
100
AcDbEntity
  8
0
  6
Continuous
100
AcDbLine
 10
142.6035490086082
 20
148.1359231159578
 30
0.0
 11
142.6016463576541
 21
148.1304667667514
 31
0.0
  0
LINE
  5
2F1
330
E3
100
AcDbEntity
  8
0
  6
Continuous
100
AcDbLine
 10
142.6016463576541
 20
148.1304667667514
 30
0.0
 11
142.5959528851144
 21
148.125010417545
 31
0.0
  0
LINE
  5
2F2
330
E3
100
AcDbEntity
  8
0
  6
Continuous
100
AcDbLine
 10
142.5959528851144
 20
148.125010417545
 30
0.0
 11
142.5865126620117
 21
148.1195538350752
 31
0.0
  0
LINE
  5
2F3
330
E3
100
AcDbEntity
  8
0
  6
Continuous
100
AcDbLine
 10
142.5865126620117
 20
148.1195538350752
 30
0.0
 11
142.5733943101006
 21
148.1140977594927
 31
0.0
  0
LINE
  5
2F4
330
E3
100
AcDbEntity
  8
0
  6
Continuous
100
AcDbLine
 10
142.5733943101006
 20
148.1140977594927
 30
0.0
 11
142.5567029529408
 21
148.1086416839102
 31
0.0
  0
LINE
  5
2F5
330
E3
100
AcDbEntity
  8
0
  6
Continuous
100
AcDbLine
 10
142.5567029529408
 20
148.1086416839102
 30
0.0
 11
142.5365611572404
 21
148.1031856083277
 31
0.0
  0
LINE
  5
2F6
330
E3
100
AcDbEntity
  8
0
  6
Continuous
100
AcDbLine
 10
142.5365611572404
 20
148.1031856083277
 30
0.0
 11
142.5131249169916
 21
148.0977295327452
 31
0.0
  0
LINE
  5
2F7
330
E3
100
AcDbEntity
  8
0
  6
Continuous
100
AcDbLine
 10
142.5131249169916
 20
148.0977295327452
 30
0.0
 11
142.4865725110425
 21
148.0922734571627
 31
0.0
  0
LINE
  5
2F8
330
E3
100
AcDbEntity
  8
0
  6
Continuous
100
AcDbLine
 10
142.4865725110425
 20
148.0922734571627
 30
0.0
 11
142.4571007889546
 21
148.0868173815802
 31
0.0
  0
LINE
  5
2F9
330
E3
100
AcDbEntity
  8
0
  6
Continuous
100
AcDbLine
 10
142.4571007889546
 20
148.0868173815802
 30
0.0
 11
142.4249437417162
 21
148.0813613059977
 31
0.0
  0
LINE
  5
2FA
330
E3
100
AcDbEntity
  8
0
  6
Continuous
100
AcDbLine
 10
142.4249437417162
 20
148.0813613059977
 30
0.0
 11
142.3903390744581
 21
148.0759015162725
 31
0.0
  0
LINE
  5
2FB
330
E3
100
AcDbEntity
  8
0
  6
Continuous
100
AcDbLine
 10
142.3903390744581
 20
148.0759015162725
 30
0.0
 11
142.3535504913099
 21
148.07044544069
 31
0.0
  0
LINE
  5
2FC
330
E3
100
AcDbEntity
  8
0
  6
Continuous
100
AcDbLine
 10
142.3535504913099
 20
148.07044544069
 30
0.0
 11
142.314856552972
 21
148.0649893651075
 31
0.0
  0
LINE
  5
2FD
330
E3
100
AcDbEntity
  8
0
  6
Continuous
100
AcDbLine
 10
142.314856552972
 20
148.0649893651075
 30
0.0
 11
142.2745581050005
 21
148.059533289525
 31
0.0
  0
LINE
  5
2FE
330
E3
100
AcDbEntity
  8
0
  6
Continuous
100
AcDbLine
 10
142.2745581050005
 20
148.059533289525
 30
0.0
 11
142.2329597070945
 21
148.0540772139425
 31
0.0
  0
LINE
  5
2FF
330
E3
100
AcDbEntity
  8
0
  6
Continuous
100
AcDbLine
 10
142.2329597070945
 20
148.0540772139425
 30
0.0
 11
142.1903733472382
 21
148.04862113836
 31
0.0
  0
LINE
  5
300
330
E3
100
AcDbEntity
  8
0
  6
Continuous
100
AcDbLine
 10
142.1903733472382
 20
148.04862113836
 30
0.0
 11
142.1471258699866
 21
148.0431650627775
 31
0.0
  0
LINE
  5
301
330
E3
100
AcDbEntity
  8
0
  6
Continuous
100
AcDbLine
 10
142.1471258699866
 20
148.0431650627775
 30
0.0
 11
142.1035478340374
 21
148.0377089871951
 31
0.0
  0
LINE
  5
302
330
E3
100
AcDbEntity
  8
0
  6
Continuous
100
AcDbLine
 10
142.1035478340374
 20
148.0377089871951
 30
0.0
 11
142.0599697980882
 21
148.0322529116125
 31
0.0
  0
LINE
  5
303
330
E3
100
AcDbEntity
  8
0
  6
Continuous
100
AcDbLine
 10
142.0599697980882
 20
148.0322529116125
 30
0.0
 11
142.0167260349793
 21
148.0267968360301
 31
0.0
  0
LINE
  5
304
330
E3
100
AcDbEntity
  8
0
  6
Continuous
100
AcDbLine
 10
142.0167260349793
 20
148.0267968360301
 30
0.0
 11
141.974139675123
 21
148.0213407604476
 31
0.0
  0
LINE
  5
305
330
E3
100
AcDbEntity
  8
0
  6
Continuous
100
AcDbLine
 10
141.974139675123
 20
148.0213407604476
 30
0.0
 11
141.9325375630743
 21
148.0158846848651
 31
0.0
  0
LINE
  5
306
330
E3
100
AcDbEntity
  8
0
  6
Continuous
100
AcDbLine
 10
141.9325375630743
 20
148.0158846848651
 30
0.0
 11
141.8922391151028
 21
148.0104286092826
 31
0.0
  0
LINE
  5
307
330
E3
100
AcDbEntity
  8
0
  6
Continuous
100
AcDbLine
 10
141.8922391151028
 20
148.0104286092826
 30
0.0
 11
141.8535488909075
 21
148.0049725337001
 31
0.0
  0
LINE
  5
308
330
E3
100
AcDbEntity
  8
0
  6
Continuous
100
AcDbLine
 10
141.8535488909075
 20
148.0049725337001
 30
0.0
 11
141.8167603077594
 21
147.9995127439749
 31
0.0
  0
LINE
  5
309
330
E3
100
AcDbEntity
  8
0
  6
Continuous
100
AcDbLine
 10
141.8167603077594
 20
147.9995127439749
 30
0.0
 11
141.7821556405013
 21
147.9940566683924
 31
0.0
  0
LINE
  5
30A
330
E3
100
AcDbEntity
  8
0
  6
Continuous
100
AcDbLine
 10
141.7821556405013
 20
147.9940566683924
 30
0.0
 11
141.7499948791202
 21
147.9886005928099
 31
0.0
  0
LINE
  5
30B
330
E3
100
AcDbEntity
  8
0
  6
Continuous
100
AcDbLine
 10
141.7499948791202
 20
147.9886005928099
 30
0.0
 11
141.720526871175
 21
147.9831445172274
 31
0.0
  0
LINE
  5
30C
330
E3
100
AcDbEntity
  8
0
  6
Continuous
100
AcDbLine
 10
141.720526871175
 20
147.9831445172274
 30
0.0
 11
141.6939744652259
 21
147.9776884416449
 31
0.0
  0
LINE
  5
30D
330
E3
100
AcDbEntity
  8
0
  6
Continuous
100
AcDbLine
 10
141.6939744652259
 20
147.9776884416449
 30
0.0
 11
141.6705345108344
 21
147.9722323660624
 31
0.0
  0
LINE
  5
30E
330
E3
100
AcDbEntity
  8
0
  6
Continuous
100
AcDbLine
 10
141.6705345108344
 20
147.9722323660624
 30
0.0
 11
141.6503964292767
 21
147.9667762904799
 31
0.0
  0
LINE
  5
30F
330
E3
100
AcDbEntity
  8
0
  6
Continuous
100
AcDbLine
 10
141.6503964292767
 20
147.9667762904799
 30
0.0
 11
141.6337013579742
 21
147.9613202148974
 31
0.0
  0
LINE
  5
310
330
E3
100
AcDbEntity
  8
0
  6
Continuous
100
AcDbLine
 10
141.6337013579742
 20
147.9613202148974
 30
0.0
 11
141.6205867202058
 21
147.9558641393149
 31
0.0
  0
LINE
  5
311
330
E3
100
AcDbEntity
  8
0
  6
Continuous
100
AcDbLine
 10
141.6205867202058
 20
147.9558641393149
 30
0.0
 11
141.6111453695382
 21
147.9504080637325
 31
0.0
  0
LINE
  5
312
330
E3
100
AcDbEntity
  8
0
  6
Continuous
100
AcDbLine
 10
141.6111453695382
 20
147.9504080637325
 30
0.0
 11
141.6054516595624
 21
147.9449508937356
 31
0.0
  0
LINE
  5
313
330
E3
100
AcDbEntity
  8
0
  6
Continuous
100
AcDbLine
 10
141.6054516595624
 20
147.9449508937356
 30
0.0
 11
141.6035490086082
 21
147.9394945445292
 31
0.0
  0
LINE
  5
314
330
E3
100
AcDbEntity
  8
0
  6
Continuous
100
AcDbLine
 10
142.6035490086082
 20
147.7430659731006
 30
0.0
 11
142.6016463576541
 21
147.7376096238943
 31
0.0
  0
LINE
  5
315
330
E3
100
AcDbEntity
  8
0
  6
Continuous
100
AcDbLine
 10
142.6016463576541
 20
147.7376096238943
 30
0.0
 11
142.5959528851143
 21
147.7321532746879
 31
0.0
  0
LINE
  5
316
330
E3
100
AcDbEntity
  8
0
  6
Continuous
100
AcDbLine
 10
142.5959528851143
 20
147.7321532746879
 30
0.0
 11
142.5865126620117
 21
147.7266978224222
 31
0.0
  0
LINE
  5
317
330
E3
100
AcDbEntity
  8
0
  6
Continuous
100
AcDbLine
 10
142.5865126620117
 20
147.7266978224222
 30
0.0
 11
142.5733943101006
 21
147.7212417468396
 31
0.0
  0
LINE
  5
318
330
E3
100
AcDbEntity
  8
0
  6
Continuous
100
AcDbLine
 10
142.5733943101006
 20
147.7212417468396
 30
0.0
 11
142.5567029529408
 21
147.7157856712572
 31
0.0
  0
LINE
  5
319
330
E3
100
AcDbEntity
  8
0
  6
Continuous
100
AcDbLine
 10
142.5567029529408
 20
147.7157856712572
 30
0.0
 11
142.5365611572404
 21
147.7103295956746
 31
0.0
  0
LINE
  5
31A
330
E3
100
AcDbEntity
  8
0
  6
Continuous
100
AcDbLine
 10
142.5365611572404
 20
147.7103295956746
 30
0.0
 11
142.5131249169916
 21
147.7048698059495
 31
0.0
  0
LINE
  5
31B
330
E3
100
AcDbEntity
  8
0
  6
Continuous
100
AcDbLine
 10
142.5131249169916
 20
147.7048698059495
 30
0.0
 11
142.4865725110425
 21
147.699413730367
 31
0.0
  0
LINE
  5
31C
330
E3
100
AcDbEntity
  8
0
  6
Continuous
100
AcDbLine
 10
142.4865725110425
 20
147.699413730367
 30
0.0
 11
142.4571007889546
 21
147.6939576547845
 31
0.0
  0
LINE
  5
31D
330
E3
100
AcDbEntity
  8
0
  6
Continuous
100
AcDbLine
 10
142.4571007889546
 20
147.6939576547845
 30
0.0
 11
142.4249437417162
 21
147.688501579202
 31
0.0
  0
LINE
  5
31E
330
E3
100
AcDbEntity
  8
0
  6
Continuous
100
AcDbLine
 10
142.4249437417162
 20
147.688501579202
 30
0.0
 11
142.3903390744581
 21
147.6830455036195
 31
0.0
  0
LINE
  5
31F
330
E3
100
AcDbEntity
  8
0
  6
Continuous
100
AcDbLine
 10
142.3903390744581
 20
147.6830455036195
 30
0.0
 11
142.3535504913099
 21
147.677589428037
 31
0.0
  0
LINE
  5
320
330
E3
100
AcDbEntity
  8
0
  6
Continuous
100
AcDbLine
 10
142.3535504913099
 20
147.677589428037
 30
0.0
 11
142.314856552972
 21
147.6721333524545
 31
0.0
  0
LINE
  5
321
330
E3
100
AcDbEntity
  8
0
  6
Continuous
100
AcDbLine
 10
142.314856552972
 20
147.6721333524545
 30
0.0
 11
142.2745581050005
 21
147.666677276872
 31
0.0
  0
LINE
  5
322
330
E3
100
AcDbEntity
  8
0
  6
Continuous
100
AcDbLine
 10
142.2745581050005
 20
147.666677276872
 30
0.0
 11
142.2329597070945
 21
147.6612212012895
 31
0.0
  0
LINE
  5
323
330
E3
100
AcDbEntity
  8
0
  6
Continuous
100
AcDbLine
 10
142.2329597070945
 20
147.6612212012895
 30
0.0
 11
142.1903733472382
 21
147.6557651257071
 31
0.0
  0
LINE
  5
324
330
E3
100
AcDbEntity
  8
0
  6
Continuous
100
AcDbLine
 10
142.1903733472382
 20
147.6557651257071
 30
0.0
 11
142.1471258699866
 21
147.6503090501245
 31
0.0
  0
LINE
  5
325
330
E3
100
AcDbEntity
  8
0
  6
Continuous
100
AcDbLine
 10
142.1471258699866
 20
147.6503090501245
 30
0.0
 11
142.1035478340374
 21
147.6448529745421
 31
0.0
  0
LINE
  5
326
330
E3
100
AcDbEntity
  8
0
  6
Continuous
100
AcDbLine
 10
142.1035478340374
 20
147.6448529745421
 30
0.0
 11
142.0599697980882
 21
147.6393968989595
 31
0.0
  0
LINE
  5
327
330
E3
100
AcDbEntity
  8
0
  6
Continuous
100
AcDbLine
 10
142.0599697980882
 20
147.6393968989595
 30
0.0
 11
142.0167260349793
 21
147.6339408233771
 31
0.0
  0
LINE
  5
328
330
E3
100
AcDbEntity
  8
0
  6
Continuous
100
AcDbLine
 10
142.0167260349793
 20
147.6339408233771
 30
0.0
 11
141.974139675123
 21
147.6284810336519
 31
0.0
  0
LINE
  5
329
330
E3
100
AcDbEntity
  8
0
  6
Continuous
100
AcDbLine
 10
141.974139675123
 20
147.6284810336519
 30
0.0
 11
141.9325375630743
 21
147.6230249580694
 31
0.0
  0
LINE
  5
32A
330
E3
100
AcDbEntity
  8
0
  6
Continuous
100
AcDbLine
 10
141.9325375630743
 20
147.6230249580694
 30
0.0
 11
141.8922391151028
 21
147.6175688824869
 31
0.0
  0
LINE
  5
32B
330
E3
100
AcDbEntity
  8
0
  6
Continuous
100
AcDbLine
 10
141.8922391151028
 20
147.6175688824869
 30
0.0
 11
141.8535488909075
 21
147.6121128069044
 31
0.0
  0
LINE
  5
32C
330
E3
100
AcDbEntity
  8
0
  6
Continuous
100
AcDbLine
 10
141.8535488909075
 20
147.6121128069044
 30
0.0
 11
141.8167603077594
 21
147.6066567313219
 31
0.0
  0
LINE
  5
32D
330
E3
100
AcDbEntity
  8
0
  6
Continuous
100
AcDbLine
 10
141.8167603077594
 20
147.6066567313219
 30
0.0
 11
141.7821556405013
 21
147.6012006557394
 31
0.0
  0
LINE
  5
32E
330
E3
100
AcDbEntity
  8
0
  6
Continuous
100
AcDbLine
 10
141.7821556405013
 20
147.6012006557394
 30
0.0
 11
141.7499948791202
 21
147.5957445801569
 31
0.0
  0
LINE
  5
32F
330
E3
100
AcDbEntity
  8
0
  6
Continuous
100
AcDbLine
 10
141.7499948791202
 20
147.5957445801569
 30
0.0
 11
141.720526871175
 21
147.5902885045744
 31
0.0
  0
LINE
  5
330
330
E3
100
AcDbEntity
  8
0
  6
Continuous
100
AcDbLine
 10
141.720526871175
 20
147.5902885045744
 30
0.0
 11
141.6939744652259
 21
147.5848324289919
 31
0.0
  0
LINE
  5
331
330
E3
100
AcDbEntity
  8
0
  6
Continuous
100
AcDbLine
 10
141.6939744652259
 20
147.5848324289919
 30
0.0
 11
141.6705345108344
 21
147.5793763534094
 31
0.0
  0
LINE
  5
332
330
E3
100
AcDbEntity
  8
0
  6
Continuous
100
AcDbLine
 10
141.6705345108344
 20
147.5793763534094
 30
0.0
 11
141.6503964292767
 21
147.5739202778269
 31
0.0
  0
LINE
  5
333
330
E3
100
AcDbEntity
  8
0
  6
Continuous
100
AcDbLine
 10
141.6503964292767
 20
147.5739202778269
 30
0.0
 11
141.6337013579742
 21
147.5684642022445
 31
0.0
  0
LINE
  5
334
330
E3
100
AcDbEntity
  8
0
  6
Continuous
100
AcDbLine
 10
141.6337013579742
 20
147.5684642022445
 30
0.0
 11
141.6205867202058
 21
147.5630081266619
 31
0.0
  0
LINE
  5
335
330
E3
100
AcDbEntity
  8
0
  6
Continuous
100
AcDbLine
 10
141.6205867202058
 20
147.5630081266619
 30
0.0
 11
141.6111453695382
 21
147.5575483369368
 31
0.0
  0
LINE
  5
336
330
E3
100
AcDbEntity
  8
0
  6
Continuous
100
AcDbLine
 10
141.6111453695382
 20
147.5575483369368
 30
0.0
 11
141.6054516595624
 21
147.5520937508784
 31
0.0
  0
LINE
  5
337
330
E3
100
AcDbEntity
  8
0
  6
Continuous
100
AcDbLine
 10
141.6054516595624
 20
147.5520937508784
 30
0.0
 11
141.6035490086082
 21
147.546637401672
 31
0.0
  0
LINE
  5
338
330
E3
100
AcDbEntity
  8
0
  6
Continuous
100
AcDbLine
 10
142.6035490086082
 20
147.3502088302435
 30
0.0
 11
142.6016463576541
 21
147.3447524810371
 31
0.0
  0
LINE
  5
339
330
E3
100
AcDbEntity
  8
0
  6
Continuous
100
AcDbLine
 10
142.6016463576541
 20
147.3447524810371
 30
0.0
 11
142.5959528851143
 21
147.3392961318308
 31
0.0
  0
LINE
  5
33A
330
E3
100
AcDbEntity
  8
0
  6
Continuous
100
AcDbLine
 10
142.5959528851143
 20
147.3392961318308
 30
0.0
 11
142.5865126620117
 21
147.3338380956264
 31
0.0
  0
LINE
  5
33B
330
E3
100
AcDbEntity
  8
0
  6
Continuous
100
AcDbLine
 10
142.5865126620117
 20
147.3338380956264
 30
0.0
 11
142.5733943101006
 21
147.3283820200439
 31
0.0
  0
LINE
  5
33C
330
E3
100
AcDbEntity
  8
0
  6
Continuous
100
AcDbLine
 10
142.5733943101006
 20
147.3283820200439
 30
0.0
 11
142.5567029529408
 21
147.3229259444614
 31
0.0
  0
LINE
  5
33D
330
E3
100
AcDbEntity
  8
0
  6
Continuous
100
AcDbLine
 10
142.5567029529408
 20
147.3229259444614
 30
0.0
 11
142.5365611572404
 21
147.317469868879
 31
0.0
  0
LINE
  5
33E
330
E3
100
AcDbEntity
  8
0
  6
Continuous
100
AcDbLine
 10
142.5365611572404
 20
147.317469868879
 30
0.0
 11
142.5131249169916
 21
147.3120137932965
 31
0.0
  0
LINE
  5
33F
330
E3
100
AcDbEntity
  8
0
  6
Continuous
100
AcDbLine
 10
142.5131249169916
 20
147.3120137932965
 30
0.0
 11
142.4865725110425
 21
147.306557717714
 31
0.0
  0
LINE
  5
340
330
E3
100
AcDbEntity
  8
0
  6
Continuous
100
AcDbLine
 10
142.4865725110425
 20
147.306557717714
 30
0.0
 11
142.4571007889546
 21
147.3011016421315
 31
0.0
  0
LINE
  5
341
330
E3
100
AcDbEntity
  8
0
  6
Continuous
100
AcDbLine
 10
142.4571007889546
 20
147.3011016421315
 30
0.0
 11
142.4249437417162
 21
147.295645566549
 31
0.0
  0
LINE
  5
342
330
E3
100
AcDbEntity
  8
0
  6
Continuous
100
AcDbLine
 10
142.4249437417162
 20
147.295645566549
 30
0.0
 11
142.3903390744581
 21
147.2901894909665
 31
0.0
  0
LINE
  5
343
330
E3
100
AcDbEntity
  8
0
  6
Continuous
100
AcDbLine
 10
142.3903390744581
 20
147.2901894909665
 30
0.0
 11
142.3535504913099
 21
147.284733415384
 31
0.0
  0
LINE
  5
344
330
E3
100
AcDbEntity
  8
0
  6
Continuous
100
AcDbLine
 10
142.3535504913099
 20
147.284733415384
 30
0.0
 11
142.314856552972
 21
147.2792773398015
 31
0.0
  0
LINE
  5
345
330
E3
100
AcDbEntity
  8
0
  6
Continuous
100
AcDbLine
 10
142.314856552972
 20
147.2792773398015
 30
0.0
 11
142.2745581050005
 21
147.273821264219
 31
0.0
  0
LINE
  5
346
330
E3
100
AcDbEntity
  8
0
  6
Continuous
100
AcDbLine
 10
142.2745581050005
 20
147.273821264219
 30
0.0
 11
142.2329597070945
 21
147.2683651886365
 31
0.0
  0
LINE
  5
347
330
E3
100
AcDbEntity
  8
0
  6
Continuous
100
AcDbLine
 10
142.2329597070945
 20
147.2683651886365
 30
0.0
 11
142.1903733472382
 21
147.2629053989114
 31
0.0
  0
LINE
  5
348
330
E3
100
AcDbEntity
  8
0
  6
Continuous
100
AcDbLine
 10
142.1903733472382
 20
147.2629053989114
 30
0.0
 11
142.1471258699866
 21
147.2574493233288
 31
0.0
  0
LINE
  5
349
330
E3
100
AcDbEntity
  8
0
  6
Continuous
100
AcDbLine
 10
142.1471258699866
 20
147.2574493233288
 30
0.0
 11
142.1035478340374
 21
147.2519932477464
 31
0.0
  0
LINE
  5
34A
330
E3
100
AcDbEntity
  8
0
  6
Continuous
100
AcDbLine
 10
142.1035478340374
 20
147.2519932477464
 30
0.0
 11
142.0599697980882
 21
147.2465371721638
 31
0.0
  0
LINE
  5
34B
330
E3
100
AcDbEntity
  8
0
  6
Continuous
100
AcDbLine
 10
142.0599697980882
 20
147.2465371721638
 30
0.0
 11
142.0167260349793
 21
147.2410810965814
 31
0.0
  0
LINE
  5
34C
330
E3
100
AcDbEntity
  8
0
  6
Continuous
100
AcDbLine
 10
142.0167260349793
 20
147.2410810965814
 30
0.0
 11
141.974139675123
 21
147.2356250209988
 31
0.0
  0
LINE
  5
34D
330
E3
100
AcDbEntity
  8
0
  6
Continuous
100
AcDbLine
 10
141.974139675123
 20
147.2356250209988
 30
0.0
 11
141.9325375630743
 21
147.2301689454164
 31
0.0
  0
LINE
  5
34E
330
E3
100
AcDbEntity
  8
0
  6
Continuous
100
AcDbLine
 10
141.9325375630743
 20
147.2301689454164
 30
0.0
 11
141.8922391151028
 21
147.2247128698339
 31
0.0
  0
LINE
  5
34F
330
E3
100
AcDbEntity
  8
0
  6
Continuous
100
AcDbLine
 10
141.8922391151028
 20
147.2247128698339
 30
0.0
 11
141.8535488909075
 21
147.2192567942514
 31
0.0
  0
LINE
  5
350
330
E3
100
AcDbEntity
  8
0
  6
Continuous
100
AcDbLine
 10
141.8535488909075
 20
147.2192567942514
 30
0.0
 11
141.8167603077594
 21
147.2138007186689
 31
0.0
  0
LINE
  5
351
330
E3
100
AcDbEntity
  8
0
  6
Continuous
100
AcDbLine
 10
141.8167603077594
 20
147.2138007186689
 30
0.0
 11
141.7821556405013
 21
147.2083446430864
 31
0.0
  0
LINE
  5
352
330
E3
100
AcDbEntity
  8
0
  6
Continuous
100
AcDbLine
 10
141.7821556405013
 20
147.2083446430864
 30
0.0
 11
141.7499948791202
 21
147.2028885675039
 31
0.0
  0
LINE
  5
353
330
E3
100
AcDbEntity
  8
0
  6
Continuous
100
AcDbLine
 10
141.7499948791202
 20
147.2028885675039
 30
0.0
 11
141.720526871175
 21
147.1974324919214
 31
0.0
  0
LINE
  5
354
330
E3
100
AcDbEntity
  8
0
  6
Continuous
100
AcDbLine
 10
141.720526871175
 20
147.1974324919214
 30
0.0
 11
141.6939744652259
 21
147.1919764163389
 31
0.0
  0
LINE
  5
355
330
E3
100
AcDbEntity
  8
0
  6
Continuous
100
AcDbLine
 10
141.6939744652259
 20
147.1919764163389
 30
0.0
 11
141.6705345108344
 21
147.1865166266138
 31
0.0
  0
LINE
  5
356
330
E3
100
AcDbEntity
  8
0
  6
Continuous
100
AcDbLine
 10
141.6705345108344
 20
147.1865166266138
 30
0.0
 11
141.6503964292767
 21
147.1810605510312
 31
0.0
  0
LINE
  5
357
330
E3
100
AcDbEntity
  8
0
  6
Continuous
100
AcDbLine
 10
141.6503964292767
 20
147.1810605510312
 30
0.0
 11
141.6337013579742
 21
147.1756044754488
 31
0.0
  0
LINE
  5
358
330
E3
100
AcDbEntity
  8
0
  6
Continuous
100
AcDbLine
 10
141.6337013579742
 20
147.1756044754488
 30
0.0
 11
141.6205867202058
 21
147.1701483998663
 31
0.0
  0
LINE
  5
359
330
E3
100
AcDbEntity
  8
0
  6
Continuous
100
AcDbLine
 10
141.6205867202058
 20
147.1701483998663
 30
0.0
 11
141.6111453695382
 21
147.1646923242837
 31
0.0
  0
LINE
  5
35A
330
E3
100
AcDbEntity
  8
0
  6
Continuous
100
AcDbLine
 10
141.6111453695382
 20
147.1646923242837
 30
0.0
 11
141.6054516595624
 21
147.1592366080212
 31
0.0
  0
LINE
  5
35B
330
E3
100
AcDbEntity
  8
0
  6
Continuous
100
AcDbLine
 10
141.6054516595624
 20
147.1592366080212
 30
0.0
 11
141.6035490086082
 21
147.1537802588149
 31
0.0
  0
LINE
  5
35C
330
E3
100
AcDbEntity
  8
0
  6
Continuous
100
AcDbLine
 10
142.6035490086082
 20
146.9573516873863
 30
0.0
 11
142.6016463576541
 21
146.95189533818
 31
0.0
  0
LINE
  5
35D
330
E3
100
AcDbEntity
  8
0
  6
Continuous
100
AcDbLine
 10
142.6016463576541
 20
146.95189533818
 30
0.0
 11
142.5959528851143
 21
146.9464389889736
 31
0.0
  0
LINE
  5
35E
330
E3
100
AcDbEntity
  8
0
  6
Continuous
100
AcDbLine
 10
142.5959528851143
 20
146.9464389889736
 30
0.0
 11
142.5865126620117
 21
146.9409820829734
 31
0.0
  0
LINE
  5
35F
330
E3
100
AcDbEntity
  8
0
  6
Continuous
100
AcDbLine
 10
142.5865126620117
 20
146.9409820829734
 30
0.0
 11
142.5733943101006
 21
146.9355260073909
 31
0.0
  0
LINE
  5
360
330
E3
100
AcDbEntity
  8
0
  6
Continuous
100
AcDbLine
 10
142.5733943101006
 20
146.9355260073909
 30
0.0
 11
142.5567029529408
 21
146.9300699318084
 31
0.0
  0
LINE
  5
361
330
E3
100
AcDbEntity
  8
0
  6
Continuous
100
AcDbLine
 10
142.5567029529408
 20
146.9300699318084
 30
0.0
 11
142.5365611572404
 21
146.924613856226
 31
0.0
  0
LINE
  5
362
330
E3
100
AcDbEntity
  8
0
  6
Continuous
100
AcDbLine
 10
142.5365611572404
 20
146.924613856226
 30
0.0
 11
142.5131249169916
 21
146.9191577806435
 31
0.0
  0
LINE
  5
363
330
E3
100
AcDbEntity
  8
0
  6
Continuous
100
AcDbLine
 10
142.5131249169916
 20
146.9191577806435
 30
0.0
 11
142.4865725110425
 21
146.913701705061
 31
0.0
  0
LINE
  5
364
330
E3
100
AcDbEntity
  8
0
  6
Continuous
100
AcDbLine
 10
142.4865725110425
 20
146.913701705061
 30
0.0
 11
142.4571007889546
 21
146.9082456294785
 31
0.0
  0
LINE
  5
365
330
E3
100
AcDbEntity
  8
0
  6
Continuous
100
AcDbLine
 10
142.4571007889546
 20
146.9082456294785
 30
0.0
 11
142.4249437417162
 21
146.902789553896
 31
0.0
  0
LINE
  5
366
330
E3
100
AcDbEntity
  8
0
  6
Continuous
100
AcDbLine
 10
142.4249437417162
 20
146.902789553896
 30
0.0
 11
142.3903390744581
 21
146.8973334783135
 31
0.0
  0
LINE
  5
367
330
E3
100
AcDbEntity
  8
0
  6
Continuous
100
AcDbLine
 10
142.3903390744581
 20
146.8973334783135
 30
0.0
 11
142.3535504913099
 21
146.8918736885883
 31
0.0
  0
LINE
  5
368
330
E3
100
AcDbEntity
  8
0
  6
Continuous
100
AcDbLine
 10
142.3535504913099
 20
146.8918736885883
 30
0.0
 11
142.314856552972
 21
146.8864176130058
 31
0.0
  0
LINE
  5
369
330
E3
100
AcDbEntity
  8
0
  6
Continuous
100
AcDbLine
 10
142.314856552972
 20
146.8864176130058
 30
0.0
 11
142.2745581050005
 21
146.8809615374233
 31
0.0
  0
LINE
  5
36A
330
E3
100
AcDbEntity
  8
0
  6
Continuous
100
AcDbLine
 10
142.2745581050005
 20
146.8809615374233
 30
0.0
 11
142.2329597070945
 21
146.8755054618408
 31
0.0
  0
LINE
  5
36B
330
E3
100
AcDbEntity
  8
0
  6
Continuous
100
AcDbLine
 10
142.2329597070945
 20
146.8755054618408
 30
0.0
 11
142.1903733472382
 21
146.8700493862583
 31
0.0
  0
LINE
  5
36C
330
E3
100
AcDbEntity
  8
0
  6
Continuous
100
AcDbLine
 10
142.1903733472382
 20
146.8700493862583
 30
0.0
 11
142.1471258699866
 21
146.8645933106758
 31
0.0
  0
LINE
  5
36D
330
E3
100
AcDbEntity
  8
0
  6
Continuous
100
AcDbLine
 10
142.1471258699866
 20
146.8645933106758
 30
0.0
 11
142.1035478340374
 21
146.8591372350933
 31
0.0
  0
LINE
  5
36E
330
E3
100
AcDbEntity
  8
0
  6
Continuous
100
AcDbLine
 10
142.1035478340374
 20
146.8591372350933
 30
0.0
 11
142.0599697980882
 21
146.8536811595108
 31
0.0
  0
LINE
  5
36F
330
E3
100
AcDbEntity
  8
0
  6
Continuous
100
AcDbLine
 10
142.0599697980882
 20
146.8536811595108
 30
0.0
 11
142.0167260349793
 21
146.8482250839283
 31
0.0
  0
LINE
  5
370
330
E3
100
AcDbEntity
  8
0
  6
Continuous
100
AcDbLine
 10
142.0167260349793
 20
146.8482250839283
 30
0.0
 11
141.974139675123
 21
146.8427690083459
 31
0.0
  0
LINE
  5
371
330
E3
100
AcDbEntity
  8
0
  6
Continuous
100
AcDbLine
 10
141.974139675123
 20
146.8427690083459
 30
0.0
 11
141.9325375630743
 21
146.8373129327634
 31
0.0
  0
LINE
  5
372
330
E3
100
AcDbEntity
  8
0
  6
Continuous
100
AcDbLine
 10
141.9325375630743
 20
146.8373129327634
 30
0.0
 11
141.8922391151028
 21
146.8318568571809
 31
0.0
  0
LINE
  5
373
330
E3
100
AcDbEntity
  8
0
  6
Continuous
100
AcDbLine
 10
141.8922391151028
 20
146.8318568571809
 30
0.0
 11
141.8535488909075
 21
146.8264007815984
 31
0.0
  0
LINE
  5
374
330
E3
100
AcDbEntity
  8
0
  6
Continuous
100
AcDbLine
 10
141.8535488909075
 20
146.8264007815984
 30
0.0
 11
141.8167603077594
 21
146.8209447060159
 31
0.0
  0
LINE
  5
375
330
E3
100
AcDbEntity
  8
0
  6
Continuous
100
AcDbLine
 10
141.8167603077594
 20
146.8209447060159
 30
0.0
 11
141.7821556405013
 21
146.8154849162907
 31
0.0
  0
LINE
  5
376
330
E3
100
AcDbEntity
  8
0
  6
Continuous
100
AcDbLine
 10
141.7821556405013
 20
146.8154849162907
 30
0.0
 11
141.7499948791202
 21
146.8100288407082
 31
0.0
  0
LINE
  5
377
330
E3
100
AcDbEntity
  8
0
  6
Continuous
100
AcDbLine
 10
141.7499948791202
 20
146.8100288407082
 30
0.0
 11
141.720526871175
 21
146.8045727651257
 31
0.0
  0
LINE
  5
378
330
E3
100
AcDbEntity
  8
0
  6
Continuous
100
AcDbLine
 10
141.720526871175
 20
146.8045727651257
 30
0.0
 11
141.6939744652259
 21
146.7991166895432
 31
0.0
  0
LINE
  5
379
330
E3
100
AcDbEntity
  8
0
  6
Continuous
100
AcDbLine
 10
141.6939744652259
 20
146.7991166895432
 30
0.0
 11
141.6705345108344
 21
146.7936606139607
 31
0.0
  0
LINE
  5
37A
330
E3
100
AcDbEntity
  8
0
  6
Continuous
100
AcDbLine
 10
141.6705345108344
 20
146.7936606139607
 30
0.0
 11
141.6503964292767
 21
146.7882045383782
 31
0.0
  0
LINE
  5
37B
330
E3
100
AcDbEntity
  8
0
  6
Continuous
100
AcDbLine
 10
141.6503964292767
 20
146.7882045383782
 30
0.0
 11
141.6337013579742
 21
146.7827484627957
 31
0.0
  0
LINE
  5
37C
330
E3
100
AcDbEntity
  8
0
  6
Continuous
100
AcDbLine
 10
141.6337013579742
 20
146.7827484627957
 30
0.0
 11
141.6205867202058
 21
146.7772923872132
 31
0.0
  0
LINE
  5
37D
330
E3
100
AcDbEntity
  8
0
  6
Continuous
100
AcDbLine
 10
141.6205867202058
 20
146.7772923872132
 30
0.0
 11
141.6111453695382
 21
146.7718363116307
 31
0.0
  0
LINE
  5
37E
330
E3
100
AcDbEntity
  8
0
  6
Continuous
100
AcDbLine
 10
141.6111453695382
 20
146.7718363116307
 30
0.0
 11
141.6054516595624
 21
146.7663794651641
 31
0.0
  0
LINE
  5
37F
330
E3
100
AcDbEntity
  8
0
  6
Continuous
100
AcDbLine
 10
141.6054516595624
 20
146.7663794651641
 30
0.0
 11
141.6035490086082
 21
146.7609231159577
 31
0.0
  0
LINE
  5
380
330
E3
100
AcDbEntity
  8
0
  6
Continuous
100
AcDbLine
 10
142.6035490086082
 20
146.5644945445292
 30
0.0
 11
142.6016463576541
 21
146.5590381953228
 31
0.0
  0
LINE
  5
381
330
E3
100
AcDbEntity
  8
0
  6
Continuous
100
AcDbLine
 10
142.6016463576541
 20
146.5590381953228
 30
0.0
 11
142.5959528851143
 21
146.5535818461165
 31
0.0
  0
LINE
  5
382
330
E3
100
AcDbEntity
  8
0
  6
Continuous
100
AcDbLine
 10
142.5959528851143
 20
146.5535818461165
 30
0.0
 11
142.5865126620117
 21
146.5481260703204
 31
0.0
  0
LINE
  5
383
330
E3
100
AcDbEntity
  8
0
  6
Continuous
100
AcDbLine
 10
142.5865126620117
 20
146.5481260703204
 30
0.0
 11
142.5733943101006
 21
146.5426699947379
 31
0.0
  0
LINE
  5
384
330
E3
100
AcDbEntity
  8
0
  6
Continuous
100
AcDbLine
 10
142.5733943101006
 20
146.5426699947379
 30
0.0
 11
142.5567029529408
 21
146.5372139191554
 31
0.0
  0
LINE
  5
385
330
E3
100
AcDbEntity
  8
0
  6
Continuous
100
AcDbLine
 10
142.5567029529408
 20
146.5372139191554
 30
0.0
 11
142.5365611572404
 21
146.5317578435729
 31
0.0
  0
LINE
  5
386
330
E3
100
AcDbEntity
  8
0
  6
Continuous
100
AcDbLine
 10
142.5365611572404
 20
146.5317578435729
 30
0.0
 11
142.5131249169916
 21
146.5263017679904
 31
0.0
  0
LINE
  5
387
330
E3
100
AcDbEntity
  8
0
  6
Continuous
100
AcDbLine
 10
142.5131249169916
 20
146.5263017679904
 30
0.0
 11
142.4865725110425
 21
146.5208419782653
 31
0.0
  0
LINE
  5
388
330
E3
100
AcDbEntity
  8
0
  6
Continuous
100
AcDbLine
 10
142.4865725110425
 20
146.5208419782653
 30
0.0
 11
142.4571007889546
 21
146.5153859026828
 31
0.0
  0
LINE
  5
389
330
E3
100
AcDbEntity
  8
0
  6
Continuous
100
AcDbLine
 10
142.4571007889546
 20
146.5153859026828
 30
0.0
 11
142.4249437417162
 21
146.5099298271003
 31
0.0
  0
LINE
  5
38A
330
E3
100
AcDbEntity
  8
0
  6
Continuous
100
AcDbLine
 10
142.4249437417162
 20
146.5099298271003
 30
0.0
 11
142.3903390744581
 21
146.5044737515178
 31
0.0
  0
LINE
  5
38B
330
E3
100
AcDbEntity
  8
0
  6
Continuous
100
AcDbLine
 10
142.3903390744581
 20
146.5044737515178
 30
0.0
 11
142.3535504913099
 21
146.4990176759353
 31
0.0
  0
LINE
  5
38C
330
E3
100
AcDbEntity
  8
0
  6
Continuous
100
AcDbLine
 10
142.3535504913099
 20
146.4990176759353
 30
0.0
 11
142.314856552972
 21
146.4935616003528
 31
0.0
  0
LINE
  5
38D
330
E3
100
AcDbEntity
  8
0
  6
Continuous
100
AcDbLine
 10
142.314856552972
 20
146.4935616003528
 30
0.0
 11
142.2745581050005
 21
146.4881055247703
 31
0.0
  0
LINE
  5
38E
330
E3
100
AcDbEntity
  8
0
  6
Continuous
100
AcDbLine
 10
142.2745581050005
 20
146.4881055247703
 30
0.0
 11
142.2329597070945
 21
146.4826494491878
 31
0.0
  0
LINE
  5
38F
330
E3
100
AcDbEntity
  8
0
  6
Continuous
100
AcDbLine
 10
142.2329597070945
 20
146.4826494491878
 30
0.0
 11
142.1903733472382
 21
146.4771933736053
 31
0.0
  0
LINE
  5
390
330
E3
100
AcDbEntity
  8
0
  6
Continuous
100
AcDbLine
 10
142.1903733472382
 20
146.4771933736053
 30
0.0
 11
142.1471258699866
 21
146.4717372980228
 31
0.0
  0
LINE
  5
391
330
E3
100
AcDbEntity
  8
0
  6
Continuous
100
AcDbLine
 10
142.1471258699866
 20
146.4717372980228
 30
0.0
 11
142.1035478340374
 21
146.4662812224403
 31
0.0
  0
LINE
  5
392
330
E3
100
AcDbEntity
  8
0
  6
Continuous
100
AcDbLine
 10
142.1035478340374
 20
146.4662812224403
 30
0.0
 11
142.0599697980882
 21
146.4608251468578
 31
0.0
  0
LINE
  5
393
330
E3
100
AcDbEntity
  8
0
  6
Continuous
100
AcDbLine
 10
142.0599697980882
 20
146.4608251468578
 30
0.0
 11
142.0167260349793
 21
146.4553690712753
 31
0.0
  0
LINE
  5
394
330
E3
100
AcDbEntity
  8
0
  6
Continuous
100
AcDbLine
 10
142.0167260349793
 20
146.4553690712753
 30
0.0
 11
141.974139675123
 21
146.4499129956928
 31
0.0
  0
LINE
  5
395
330
E3
100
AcDbEntity
  8
0
  6
Continuous
100
AcDbLine
 10
141.974139675123
 20
146.4499129956928
 30
0.0
 11
141.9325375630743
 21
146.4444532059676
 31
0.0
  0
LINE
  5
396
330
E3
100
AcDbEntity
  8
0
  6
Continuous
100
AcDbLine
 10
141.9325375630743
 20
146.4444532059676
 30
0.0
 11
141.8922391151028
 21
146.4389971303852
 31
0.0
  0
LINE
  5
397
330
E3
100
AcDbEntity
  8
0
  6
Continuous
100
AcDbLine
 10
141.8922391151028
 20
146.4389971303852
 30
0.0
 11
141.8535488909075
 21
146.4335410548027
 31
0.0
  0
LINE
  5
398
330
E3
100
AcDbEntity
  8
0
  6
Continuous
100
AcDbLine
 10
141.8535488909075
 20
146.4335410548027
 30
0.0
 11
141.8167603077594
 21
146.4280849792202
 31
0.0
  0
LINE
  5
399
330
E3
100
AcDbEntity
  8
0
  6
Continuous
100
AcDbLine
 10
141.8167603077594
 20
146.4280849792202
 30
0.0
 11
141.7821556405013
 21
146.4226289036377
 31
0.0
  0
LINE
  5
39A
330
E3
100
AcDbEntity
  8
0
  6
Continuous
100
AcDbLine
 10
141.7821556405013
 20
146.4226289036377
 30
0.0
 11
141.7499948791202
 21
146.4171728280552
 31
0.0
  0
LINE
  5
39B
330
E3
100
AcDbEntity
  8
0
  6
Continuous
100
AcDbLine
 10
141.7499948791202
 20
146.4171728280552
 30
0.0
 11
141.720526871175
 21
146.4117167524727
 31
0.0
  0
LINE
  5
39C
330
E3
100
AcDbEntity
  8
0
  6
Continuous
100
AcDbLine
 10
141.720526871175
 20
146.4117167524727
 30
0.0
 11
141.6939744652259
 21
146.4062606768902
 31
0.0
  0
LINE
  5
39D
330
E3
100
AcDbEntity
  8
0
  6
Continuous
100
AcDbLine
 10
141.6939744652259
 20
146.4062606768902
 30
0.0
 11
141.6705345108344
 21
146.4008046013077
 31
0.0
  0
LINE
  5
39E
330
E3
100
AcDbEntity
  8
0
  6
Continuous
100
AcDbLine
 10
141.6705345108344
 20
146.4008046013077
 30
0.0
 11
141.6503964292767
 21
146.3953485257252
 31
0.0
  0
LINE
  5
39F
330
E3
100
AcDbEntity
  8
0
  6
Continuous
100
AcDbLine
 10
141.6503964292767
 20
146.3953485257252
 30
0.0
 11
141.6337013579742
 21
146.3898924501427
 31
0.0
  0
LINE
  5
3A0
330
E3
100
AcDbEntity
  8
0
  6
Continuous
100
AcDbLine
 10
141.6337013579742
 20
146.3898924501427
 30
0.0
 11
141.6205867202058
 21
146.3844363745602
 31
0.0
  0
LINE
  5
3A1
330
E3
100
AcDbEntity
  8
0
  6
Continuous
100
AcDbLine
 10
141.6205867202058
 20
146.3844363745602
 30
0.0
 11
141.6111453695382
 21
146.3789802989777
 31
0.0
  0
LINE
  5
3A2
330
E3
100
AcDbEntity
  8
0
  6
Continuous
100
AcDbLine
 10
141.6111453695382
 20
146.3789802989777
 30
0.0
 11
141.6054516595624
 21
146.3735223223069
 31
0.0
  0
LINE
  5
3A3
330
E3
100
AcDbEntity
  8
0
  6
Continuous
100
AcDbLine
 10
141.6054516595624
 20
146.3735223223069
 30
0.0
 11
141.6035490086082
 21
146.3680659731006
 31
0.0
  0
LINE
  5
3A4
330
E3
100
AcDbEntity
  8
0
  6
Continuous
100
AcDbLine
 10
142.6035490086082
 20
146.1716374016721
 30
0.0
 11
142.6016463576541
 21
146.1661810524657
 31
0.0
  0
LINE
  5
3A5
330
E3
100
AcDbEntity
  8
0
  6
Continuous
100
AcDbLine
 10
142.6016463576541
 20
146.1661810524657
 30
0.0
 11
142.5959528851143
 21
146.1607247032593
 31
0.0
  0
LINE
  5
3A6
330
E3
100
AcDbEntity
  8
0
  6
Continuous
100
AcDbLine
 10
142.5959528851143
 20
146.1607247032593
 30
0.0
 11
142.5865126620117
 21
146.1552700576674
 31
0.0
  0
LINE
  5
3A7
330
E3
100
AcDbEntity
  8
0
  6
Continuous
100
AcDbLine
 10
142.5865126620117
 20
146.1552700576674
 30
0.0
 11
142.5733943101006
 21
146.1498102679422
 31
0.0
  0
LINE
  5
3A8
330
E3
100
AcDbEntity
  8
0
  6
Continuous
100
AcDbLine
 10
142.5733943101006
 20
146.1498102679422
 30
0.0
 11
142.5567029529408
 21
146.1443541923597
 31
0.0
  0
LINE
  5
3A9
330
E3
100
AcDbEntity
  8
0
  6
Continuous
100
AcDbLine
 10
142.5567029529408
 20
146.1443541923597
 30
0.0
 11
142.5365611572404
 21
146.1388981167773
 31
0.0
  0
LINE
  5
3AA
330
E3
100
AcDbEntity
  8
0
  6
Continuous
100
AcDbLine
 10
142.5365611572404
 20
146.1388981167773
 30
0.0
 11
142.5131249169916
 21
146.1334420411947
 31
0.0
  0
LINE
  5
3AB
330
E3
100
AcDbEntity
  8
0
  6
Continuous
100
AcDbLine
 10
142.5131249169916
 20
146.1334420411947
 30
0.0
 11
142.4865725110425
 21
146.1279859656123
 31
0.0
  0
LINE
  5
3AC
330
E3
100
AcDbEntity
  8
0
  6
Continuous
100
AcDbLine
 10
142.4865725110425
 20
146.1279859656123
 30
0.0
 11
142.4571007889546
 21
146.1225298900298
 31
0.0
  0
LINE
  5
3AD
330
E3
100
AcDbEntity
  8
0
  6
Continuous
100
AcDbLine
 10
142.4571007889546
 20
146.1225298900298
 30
0.0
 11
142.4249437417162
 21
146.1170738144473
 31
0.0
  0
LINE
  5
3AE
330
E3
100
AcDbEntity
  8
0
  6
Continuous
100
AcDbLine
 10
142.4249437417162
 20
146.1170738144473
 30
0.0
 11
142.3903390744581
 21
146.1116177388648
 31
0.0
  0
LINE
  5
3AF
330
E3
100
AcDbEntity
  8
0
  6
Continuous
100
AcDbLine
 10
142.3903390744581
 20
146.1116177388648
 30
0.0
 11
142.3535504913099
 21
146.1061616632823
 31
0.0
  0
LINE
  5
3B0
330
E3
100
AcDbEntity
  8
0
  6
Continuous
100
AcDbLine
 10
142.3535504913099
 20
146.1061616632823
 30
0.0
 11
142.314856552972
 21
146.1007055876998
 31
0.0
  0
LINE
  5
3B1
330
E3
100
AcDbEntity
  8
0
  6
Continuous
100
AcDbLine
 10
142.314856552972
 20
146.1007055876998
 30
0.0
 11
142.2745581050005
 21
146.0952495121173
 31
0.0
  0
LINE
  5
3B2
330
E3
100
AcDbEntity
  8
0
  6
Continuous
100
AcDbLine
 10
142.2745581050005
 20
146.0952495121173
 30
0.0
 11
142.2329597070945
 21
146.0897934365348
 31
0.0
  0
LINE
  5
3B3
330
E3
100
AcDbEntity
  8
0
  6
Continuous
100
AcDbLine
 10
142.2329597070945
 20
146.0897934365348
 30
0.0
 11
142.1903733472382
 21
146.0843373609523
 31
0.0
  0
LINE
  5
3B4
330
E3
100
AcDbEntity
  8
0
  6
Continuous
100
AcDbLine
 10
142.1903733472382
 20
146.0843373609523
 30
0.0
 11
142.1471258699866
 21
146.0788812853698
 31
0.0
  0
LINE
  5
3B5
330
E3
100
AcDbEntity
  8
0
  6
Continuous
100
AcDbLine
 10
142.1471258699866
 20
146.0788812853698
 30
0.0
 11
142.1035478340374
 21
146.0734214956446
 31
0.0
  0
LINE
  5
3B6
330
E3
100
AcDbEntity
  8
0
  6
Continuous
100
AcDbLine
 10
142.1035478340374
 20
146.0734214956446
 30
0.0
 11
142.0599697980882
 21
146.0679654200621
 31
0.0
  0
LINE
  5
3B7
330
E3
100
AcDbEntity
  8
0
  6
Continuous
100
AcDbLine
 10
142.0599697980882
 20
146.0679654200621
 30
0.0
 11
142.0167260349793
 21
146.0625093444796
 31
0.0
  0
LINE
  5
3B8
330
E3
100
AcDbEntity
  8
0
  6
Continuous
100
AcDbLine
 10
142.0167260349793
 20
146.0625093444796
 30
0.0
 11
141.974139675123
 21
146.0570532688971
 31
0.0
  0
LINE
  5
3B9
330
E3
100
AcDbEntity
  8
0
  6
Continuous
100
AcDbLine
 10
141.974139675123
 20
146.0570532688971
 30
0.0
 11
141.9325375630743
 21
146.0515971933146
 31
0.0
  0
LINE
  5
3BA
330
E3
100
AcDbEntity
  8
0
  6
Continuous
100
AcDbLine
 10
141.9325375630743
 20
146.0515971933146
 30
0.0
 11
141.8922391151028
 21
146.0461411177321
 31
0.0
  0
LINE
  5
3BB
330
E3
100
AcDbEntity
  8
0
  6
Continuous
100
AcDbLine
 10
141.8922391151028
 20
146.0461411177321
 30
0.0
 11
141.8535488909075
 21
146.0406850421496
 31
0.0
  0
LINE
  5
3BC
330
E3
100
AcDbEntity
  8
0
  6
Continuous
100
AcDbLine
 10
141.8535488909075
 20
146.0406850421496
 30
0.0
 11
141.8167603077594
 21
146.0352289665672
 31
0.0
  0
LINE
  5
3BD
330
E3
100
AcDbEntity
  8
0
  6
Continuous
100
AcDbLine
 10
141.8167603077594
 20
146.0352289665672
 30
0.0
 11
141.7821556405013
 21
146.0297728909847
 31
0.0
  0
LINE
  5
3BE
330
E3
100
AcDbEntity
  8
0
  6
Continuous
100
AcDbLine
 10
141.7821556405013
 20
146.0297728909847
 30
0.0
 11
141.7499948791202
 21
146.0243168154022
 31
0.0
  0
LINE
  5
3BF
330
E3
100
AcDbEntity
  8
0
  6
Continuous
100
AcDbLine
 10
141.7499948791202
 20
146.0243168154022
 30
0.0
 11
141.720526871175
 21
146.0188607398197
 31
0.0
  0
LINE
  5
3C0
330
E3
100
AcDbEntity
  8
0
  6
Continuous
100
AcDbLine
 10
141.720526871175
 20
146.0188607398197
 30
0.0
 11
141.6939744652259
 21
146.0134046642372
 31
0.0
  0
LINE
  5
3C1
330
E3
100
AcDbEntity
  8
0
  6
Continuous
100
AcDbLine
 10
141.6939744652259
 20
146.0134046642372
 30
0.0
 11
141.6705345108344
 21
146.0079485886547
 31
0.0
  0
LINE
  5
3C2
330
E3
100
AcDbEntity
  8
0
  6
Continuous
100
AcDbLine
 10
141.6705345108344
 20
146.0079485886547
 30
0.0
 11
141.6503964292767
 21
146.0024887989295
 31
0.0
  0
LINE
  5
3C3
330
E3
100
AcDbEntity
  8
0
  6
Continuous
100
AcDbLine
 10
141.6503964292767
 20
146.0024887989295
 30
0.0
 11
141.6337013579742
 21
145.997032723347
 31
0.0
  0
LINE
  5
3C4
330
E3
100
AcDbEntity
  8
0
  6
Continuous
100
AcDbLine
 10
141.6337013579742
 20
145.997032723347
 30
0.0
 11
141.6205867202058
 21
145.9915766477645
 31
0.0
  0
LINE
  5
3C5
330
E3
100
AcDbEntity
  8
0
  6
Continuous
100
AcDbLine
 10
141.6205867202058
 20
145.9915766477645
 30
0.0
 11
141.6111453695382
 21
145.986120572182
 31
0.0
  0
LINE
  5
3C6
330
E3
100
AcDbEntity
  8
0
  6
Continuous
100
AcDbLine
 10
141.6111453695382
 20
145.986120572182
 30
0.0
 11
141.6054516595624
 21
145.9806651794498
 31
0.0
  0
LINE
  5
3C7
330
E3
100
AcDbEntity
  8
0
  6
Continuous
100
AcDbLine
 10
141.6054516595624
 20
145.9806651794498
 30
0.0
 11
141.6035490086082
 21
145.9752088302434
 31
0.0
  0
LINE
  5
3C8
330
E3
100
AcDbEntity
  8
0
  6
Continuous
100
AcDbLine
 10
142.6035490086082
 20
145.7787802588149
 30
0.0
 11
142.6016463576541
 21
145.7733239096085
 31
0.0
  0
LINE
  5
3C9
330
E3
100
AcDbEntity
  8
0
  6
Continuous
100
AcDbLine
 10
142.6016463576541
 20
145.7733239096085
 30
0.0
 11
142.5959528851143
 21
145.7678675604022
 31
0.0
  0
LINE
  5
3CA
330
E3
100
AcDbEntity
  8
0
  6
Continuous
100
AcDbLine
 10
142.5959528851143
 20
145.7678675604022
 30
0.0
 11
142.5865126620117
 21
145.7624103308717
 31
0.0
  0
LINE
  5
3CB
330
E3
100
AcDbEntity
  8
0
  6
Continuous
100
AcDbLine
 10
142.5865126620117
 20
145.7624103308717
 30
0.0
 11
142.5733943101006
 21
145.7569542552892
 31
0.0
  0
LINE
  5
3CC
330
E3
100
AcDbEntity
  8
0
  6
Continuous
100
AcDbLine
 10
142.5733943101006
 20
145.7569542552892
 30
0.0
 11
142.5567029529408
 21
145.7514981797067
 31
0.0
  0
LINE
  5
3CD
330
E3
100
AcDbEntity
  8
0
  6
Continuous
100
AcDbLine
 10
142.5567029529408
 20
145.7514981797067
 30
0.0
 11
142.5365611572404
 21
145.7460421041242
 31
0.0
  0
LINE
  5
3CE
330
E3
100
AcDbEntity
  8
0
  6
Continuous
100
AcDbLine
 10
142.5365611572404
 20
145.7460421041242
 30
0.0
 11
142.5131249169916
 21
145.7405860285417
 31
0.0
  0
LINE
  5
3CF
330
E3
100
AcDbEntity
  8
0
  6
Continuous
100
AcDbLine
 10
142.5131249169916
 20
145.7405860285417
 30
0.0
 11
142.4865725110425
 21
145.7351299529592
 31
0.0
  0
LINE
  5
3D0
330
E3
100
AcDbEntity
  8
0
  6
Continuous
100
AcDbLine
 10
142.4865725110425
 20
145.7351299529592
 30
0.0
 11
142.4571007889546
 21
145.7296738773767
 31
0.0
  0
LINE
  5
3D1
330
E3
100
AcDbEntity
  8
0
  6
Continuous
100
AcDbLine
 10
142.4571007889546
 20
145.7296738773767
 30
0.0
 11
142.4249437417162
 21
145.7242178017942
 31
0.0
  0
LINE
  5
3D2
330
E3
100
AcDbEntity
  8
0
  6
Continuous
100
AcDbLine
 10
142.4249437417162
 20
145.7242178017942
 30
0.0
 11
142.3903390744581
 21
145.7187617262117
 31
0.0
  0
LINE
  5
3D3
330
E3
100
AcDbEntity
  8
0
  6
Continuous
100
AcDbLine
 10
142.3903390744581
 20
145.7187617262117
 30
0.0
 11
142.3535504913099
 21
145.7133056506292
 31
0.0
  0
LINE
  5
3D4
330
E3
100
AcDbEntity
  8
0
  6
Continuous
100
AcDbLine
 10
142.3535504913099
 20
145.7133056506292
 30
0.0
 11
142.314856552972
 21
145.7078495750468
 31
0.0
  0
LINE
  5
3D5
330
E3
100
AcDbEntity
  8
0
  6
Continuous
100
AcDbLine
 10
142.314856552972
 20
145.7078495750468
 30
0.0
 11
142.2745581050005
 21
145.7023897853216
 31
0.0
  0
LINE
  5
3D6
330
E3
100
AcDbEntity
  8
0
  6
Continuous
100
AcDbLine
 10
142.2745581050005
 20
145.7023897853216
 30
0.0
 11
142.2329597070945
 21
145.6969337097391
 31
0.0
  0
LINE
  5
3D7
330
E3
100
AcDbEntity
  8
0
  6
Continuous
100
AcDbLine
 10
142.2329597070945
 20
145.6969337097391
 30
0.0
 11
142.1903733472382
 21
145.6914776341566
 31
0.0
  0
LINE
  5
3D8
330
E3
100
AcDbEntity
  8
0
  6
Continuous
100
AcDbLine
 10
142.1903733472382
 20
145.6914776341566
 30
0.0
 11
142.1471258699866
 21
145.6860215585741
 31
0.0
  0
LINE
  5
3D9
330
E3
100
AcDbEntity
  8
0
  6
Continuous
100
AcDbLine
 10
142.1471258699866
 20
145.6860215585741
 30
0.0
 11
142.1035478340374
 21
145.6805654829916
 31
0.0
  0
LINE
  5
3DA
330
E3
100
AcDbEntity
  8
0
  6
Continuous
100
AcDbLine
 10
142.1035478340374
 20
145.6805654829916
 30
0.0
 11
142.0599697980882
 21
145.6751094074091
 31
0.0
  0
LINE
  5
3DB
330
E3
100
AcDbEntity
  8
0
  6
Continuous
100
AcDbLine
 10
142.0599697980882
 20
145.6751094074091
 30
0.0
 11
142.0167260349793
 21
145.6696533318266
 31
0.0
  0
LINE
  5
3DC
330
E3
100
AcDbEntity
  8
0
  6
Continuous
100
AcDbLine
 10
142.0167260349793
 20
145.6696533318266
 30
0.0
 11
141.974139675123
 21
145.6641972562441
 31
0.0
  0
LINE
  5
3DD
330
E3
100
AcDbEntity
  8
0
  6
Continuous
100
AcDbLine
 10
141.974139675123
 20
145.6641972562441
 30
0.0
 11
141.9325375630743
 21
145.6587411806616
 31
0.0
  0
LINE
  5
3DE
330
E3
100
AcDbEntity
  8
0
  6
Continuous
100
AcDbLine
 10
141.9325375630743
 20
145.6587411806616
 30
0.0
 11
141.8922391151028
 21
145.6532851050791
 31
0.0
  0
LINE
  5
3DF
330
E3
100
AcDbEntity
  8
0
  6
Continuous
100
AcDbLine
 10
141.8922391151028
 20
145.6532851050791
 30
0.0
 11
141.8535488909075
 21
145.6478290294966
 31
0.0
  0
LINE
  5
3E0
330
E3
100
AcDbEntity
  8
0
  6
Continuous
100
AcDbLine
 10
141.8535488909075
 20
145.6478290294966
 30
0.0
 11
141.8167603077594
 21
145.6423729539141
 31
0.0
  0
LINE
  5
3E1
330
E3
100
AcDbEntity
  8
0
  6
Continuous
100
AcDbLine
 10
141.8167603077594
 20
145.6423729539141
 30
0.0
 11
141.7821556405013
 21
145.6369168783316
 31
0.0
  0
LINE
  5
3E2
330
E3
100
AcDbEntity
  8
0
  6
Continuous
100
AcDbLine
 10
141.7821556405013
 20
145.6369168783316
 30
0.0
 11
141.7499948791202
 21
145.6314570886065
 31
0.0
  0
LINE
  5
3E3
330
E3
100
AcDbEntity
  8
0
  6
Continuous
100
AcDbLine
 10
141.7499948791202
 20
145.6314570886065
 30
0.0
 11
141.720526871175
 21
145.626001013024
 31
0.0
  0
LINE
  5
3E4
330
E3
100
AcDbEntity
  8
0
  6
Continuous
100
AcDbLine
 10
141.720526871175
 20
145.626001013024
 30
0.0
 11
141.6939744652259
 21
145.6205449374415
 31
0.0
  0
LINE
  5
3E5
330
E3
100
AcDbEntity
  8
0
  6
Continuous
100
AcDbLine
 10
141.6939744652259
 20
145.6205449374415
 30
0.0
 11
141.6705345108344
 21
145.615088861859
 31
0.0
  0
LINE
  5
3E6
330
E3
100
AcDbEntity
  8
0
  6
Continuous
100
AcDbLine
 10
141.6705345108344
 20
145.615088861859
 30
0.0
 11
141.6503964292767
 21
145.6096327862765
 31
0.0
  0
LINE
  5
3E7
330
E3
100
AcDbEntity
  8
0
  6
Continuous
100
AcDbLine
 10
141.6503964292767
 20
145.6096327862765
 30
0.0
 11
141.6337013579742
 21
145.604176710694
 31
0.0
  0
LINE
  5
3E8
330
E3
100
AcDbEntity
  8
0
  6
Continuous
100
AcDbLine
 10
141.6337013579742
 20
145.604176710694
 30
0.0
 11
141.6205867202058
 21
145.5987206351115
 31
0.0
  0
LINE
  5
3E9
330
E3
100
AcDbEntity
  8
0
  6
Continuous
100
AcDbLine
 10
141.6205867202058
 20
145.5987206351115
 30
0.0
 11
141.6111453695382
 21
145.593264559529
 31
0.0
  0
LINE
  5
3EA
330
E3
100
AcDbEntity
  8
0
  6
Continuous
100
AcDbLine
 10
141.6111453695382
 20
145.593264559529
 30
0.0
 11
141.6054516595624
 21
145.5878080365927
 31
0.0
  0
LINE
  5
3EB
330
E3
100
AcDbEntity
  8
0
  6
Continuous
100
AcDbLine
 10
141.6054516595624
 20
145.5878080365927
 30
0.0
 11
141.6035490086082
 21
145.5823516873863
 31
0.0
  0
LINE
  5
3EC
330
E3
100
AcDbEntity
  8
0
  6
Continuous
100
AcDbLine
 10
142.6035490086082
 20
145.3859231159578
 30
0.0
 11
142.6016463576541
 21
145.3804667667514
 31
0.0
  0
LINE
  5
3ED
330
E3
100
AcDbEntity
  8
0
  6
Continuous
100
AcDbLine
 10
142.6016463576541
 20
145.3804667667514
 30
0.0
 11
142.5959528851143
 21
145.375010417545
 31
0.0
  0
LINE
  5
3EE
330
E3
100
AcDbEntity
  8
0
  6
Continuous
100
AcDbLine
 10
142.5959528851143
 20
145.375010417545
 30
0.0
 11
142.5865126620117
 21
145.3695543182187
 31
0.0
  0
LINE
  5
3EF
330
E3
100
AcDbEntity
  8
0
  6
Continuous
100
AcDbLine
 10
142.5865126620117
 20
145.3695543182187
 30
0.0
 11
142.5733943101006
 21
145.3640982426362
 31
0.0
  0
LINE
  5
3F0
330
E3
100
AcDbEntity
  8
0
  6
Continuous
100
AcDbLine
 10
142.5733943101006
 20
145.3640982426362
 30
0.0
 11
142.5567029529408
 21
145.3586421670537
 31
0.0
  0
LINE
  5
3F1
330
E3
100
AcDbEntity
  8
0
  6
Continuous
100
AcDbLine
 10
142.5567029529408
 20
145.3586421670537
 30
0.0
 11
142.5365611572404
 21
145.3531860914712
 31
0.0
  0
LINE
  5
3F2
330
E3
100
AcDbEntity
  8
0
  6
Continuous
100
AcDbLine
 10
142.5365611572404
 20
145.3531860914712
 30
0.0
 11
142.5131249169916
 21
145.3477300158887
 31
0.0
  0
LINE
  5
3F3
330
E3
100
AcDbEntity
  8
0
  6
Continuous
100
AcDbLine
 10
142.5131249169916
 20
145.3477300158887
 30
0.0
 11
142.4865725110425
 21
145.3422739403062
 31
0.0
  0
LINE
  5
3F4
330
E3
100
AcDbEntity
  8
0
  6
Continuous
100
AcDbLine
 10
142.4865725110425
 20
145.3422739403062
 30
0.0
 11
142.4571007889546
 21
145.336814150581
 31
0.0
  0
LINE
  5
3F5
330
E3
100
AcDbEntity
  8
0
  6
Continuous
100
AcDbLine
 10
142.4571007889546
 20
145.336814150581
 30
0.0
 11
142.4249437417162
 21
145.3313580749985
 31
0.0
  0
LINE
  5
3F6
330
E3
100
AcDbEntity
  8
0
  6
Continuous
100
AcDbLine
 10
142.4249437417162
 20
145.3313580749985
 30
0.0
 11
142.3903390744581
 21
145.3259019994161
 31
0.0
  0
LINE
  5
3F7
330
E3
100
AcDbEntity
  8
0
  6
Continuous
100
AcDbLine
 10
142.3903390744581
 20
145.3259019994161
 30
0.0
 11
142.3535504913099
 21
145.3204459238335
 31
0.0
  0
LINE
  5
3F8
330
E3
100
AcDbEntity
  8
0
  6
Continuous
100
AcDbLine
 10
142.3535504913099
 20
145.3204459238335
 30
0.0
 11
142.314856552972
 21
145.3149898482511
 31
0.0
  0
LINE
  5
3F9
330
E3
100
AcDbEntity
  8
0
  6
Continuous
100
AcDbLine
 10
142.314856552972
 20
145.3149898482511
 30
0.0
 11
142.2745581050005
 21
145.3095337726686
 31
0.0
  0
LINE
  5
3FA
330
E3
100
AcDbEntity
  8
0
  6
Continuous
100
AcDbLine
 10
142.2745581050005
 20
145.3095337726686
 30
0.0
 11
142.2329597070945
 21
145.3040776970861
 31
0.0
  0
LINE
  5
3FB
330
E3
100
AcDbEntity
  8
0
  6
Continuous
100
AcDbLine
 10
142.2329597070945
 20
145.3040776970861
 30
0.0
 11
142.1903733472382
 21
145.2986216215036
 31
0.0
  0
LINE
  5
3FC
330
E3
100
AcDbEntity
  8
0
  6
Continuous
100
AcDbLine
 10
142.1903733472382
 20
145.2986216215036
 30
0.0
 11
142.1471258699866
 21
145.2931655459211
 31
0.0
  0
LINE
  5
3FD
330
E3
100
AcDbEntity
  8
0
  6
Continuous
100
AcDbLine
 10
142.1471258699866
 20
145.2931655459211
 30
0.0
 11
142.1035478340374
 21
145.2877094703386
 31
0.0
  0
LINE
  5
3FE
330
E3
100
AcDbEntity
  8
0
  6
Continuous
100
AcDbLine
 10
142.1035478340374
 20
145.2877094703386
 30
0.0
 11
142.0599697980882
 21
145.2822533947561
 31
0.0
  0
LINE
  5
3FF
330
E3
100
AcDbEntity
  8
0
  6
Continuous
100
AcDbLine
 10
142.0599697980882
 20
145.2822533947561
 30
0.0
 11
142.0167260349793
 21
145.2767973191736
 31
0.0
  0
LINE
  5
400
330
E3
100
AcDbEntity
  8
0
  6
Continuous
100
AcDbLine
 10
142.0167260349793
 20
145.2767973191736
 30
0.0
 11
141.974139675123
 21
145.2713412435911
 31
0.0
  0
LINE
  5
401
330
E3
100
AcDbEntity
  8
0
  6
Continuous
100
AcDbLine
 10
141.974139675123
 20
145.2713412435911
 30
0.0
 11
141.9325375630743
 21
145.2658851680086
 31
0.0
  0
LINE
  5
402
330
E3
100
AcDbEntity
  8
0
  6
Continuous
100
AcDbLine
 10
141.9325375630743
 20
145.2658851680086
 30
0.0
 11
141.8922391151028
 21
145.2604253782834
 31
0.0
  0
LINE
  5
403
330
E3
100
AcDbEntity
  8
0
  6
Continuous
100
AcDbLine
 10
141.8922391151028
 20
145.2604253782834
 30
0.0
 11
141.8535488909075
 21
145.2549693027009
 31
0.0
  0
LINE
  5
404
330
E3
100
AcDbEntity
  8
0
  6
Continuous
100
AcDbLine
 10
141.8535488909075
 20
145.2549693027009
 30
0.0
 11
141.8167603077594
 21
145.2495132271184
 31
0.0
  0
LINE
  5
405
330
E3
100
AcDbEntity
  8
0
  6
Continuous
100
AcDbLine
 10
141.8167603077594
 20
145.2495132271184
 30
0.0
 11
141.7821556405013
 21
145.244057151536
 31
0.0
  0
LINE
  5
406
330
E3
100
AcDbEntity
  8
0
  6
Continuous
100
AcDbLine
 10
141.7821556405013
 20
145.244057151536
 30
0.0
 11
141.7499948791202
 21
145.2386010759535
 31
0.0
  0
LINE
  5
407
330
E3
100
AcDbEntity
  8
0
  6
Continuous
100
AcDbLine
 10
141.7499948791202
 20
145.2386010759535
 30
0.0
 11
141.720526871175
 21
145.233145000371
 31
0.0
  0
LINE
  5
408
330
E3
100
AcDbEntity
  8
0
  6
Continuous
100
AcDbLine
 10
141.720526871175
 20
145.233145000371
 30
0.0
 11
141.6939744652259
 21
145.2276889247885
 31
0.0
  0
LINE
  5
409
330
E3
100
AcDbEntity
  8
0
  6
Continuous
100
AcDbLine
 10
141.6939744652259
 20
145.2276889247885
 30
0.0
 11
141.6705345108344
 21
145.222232849206
 31
0.0
  0
LINE
  5
40A
330
E3
100
AcDbEntity
  8
0
  6
Continuous
100
AcDbLine
 10
141.6705345108344
 20
145.222232849206
 30
0.0
 11
141.6503964292767
 21
145.2167767736235
 31
0.0
  0
LINE
  5
40B
330
E3
100
AcDbEntity
  8
0
  6
Continuous
100
AcDbLine
 10
141.6503964292767
 20
145.2167767736235
 30
0.0
 11
141.6337013579742
 21
145.211320698041
 31
0.0
  0
LINE
  5
40C
330
E3
100
AcDbEntity
  8
0
  6
Continuous
100
AcDbLine
 10
141.6337013579742
 20
145.211320698041
 30
0.0
 11
141.6205867202058
 21
145.2058646224585
 31
0.0
  0
LINE
  5
40D
330
E3
100
AcDbEntity
  8
0
  6
Continuous
100
AcDbLine
 10
141.6205867202058
 20
145.2058646224585
 30
0.0
 11
141.6111453695382
 21
145.200408546876
 31
0.0
  0
LINE
  5
40E
330
E3
100
AcDbEntity
  8
0
  6
Continuous
100
AcDbLine
 10
141.6111453695382
 20
145.200408546876
 30
0.0
 11
141.6054516595623
 21
145.1949508937355
 31
0.0
  0
LINE
  5
40F
330
E3
100
AcDbEntity
  8
0
  6
Continuous
100
AcDbLine
 10
141.6054516595623
 20
145.1949508937355
 30
0.0
 11
141.6035490086082
 21
145.1894945445292
 31
0.0
  0
LINE
  5
410
330
E3
100
AcDbEntity
  8
0
  6
Continuous
100
AcDbLine
 10
142.6035490086082
 20
144.9930659731006
 30
0.0
 11
142.6016463576541
 21
144.9876096238942
 31
0.0
  0
LINE
  5
411
330
E3
100
AcDbEntity
  8
0
  6
Continuous
100
AcDbLine
 10
142.6016463576541
 20
144.9876096238942
 30
0.0
 11
142.5959528851143
 21
144.9821532746879
 31
0.0
  0
LINE
  5
412
330
E3
100
AcDbEntity
  8
0
  6
Continuous
100
AcDbLine
 10
142.5959528851143
 20
144.9821532746879
 30
0.0
 11
142.5865126620117
 21
144.9766983055657
 31
0.0
  0
LINE
  5
413
330
E3
100
AcDbEntity
  8
0
  6
Continuous
100
AcDbLine
 10
142.5865126620117
 20
144.9766983055657
 30
0.0
 11
142.5733943101006
 21
144.9712422299832
 31
0.0
  0
LINE
  5
414
330
E3
100
AcDbEntity
  8
0
  6
Continuous
100
AcDbLine
 10
142.5733943101006
 20
144.9712422299832
 30
0.0
 11
142.5567029529408
 21
144.965782440258
 31
0.0
  0
LINE
  5
415
330
E3
100
AcDbEntity
  8
0
  6
Continuous
100
AcDbLine
 10
142.5567029529408
 20
144.965782440258
 30
0.0
 11
142.5365611572404
 21
144.9603263646755
 31
0.0
  0
LINE
  5
416
330
E3
100
AcDbEntity
  8
0
  6
Continuous
100
AcDbLine
 10
142.5365611572404
 20
144.9603263646755
 30
0.0
 11
142.5131249169916
 21
144.954870289093
 31
0.0
  0
LINE
  5
417
330
E3
100
AcDbEntity
  8
0
  6
Continuous
100
AcDbLine
 10
142.5131249169916
 20
144.954870289093
 30
0.0
 11
142.4865725110425
 21
144.9494142135106
 31
0.0
  0
LINE
  5
418
330
E3
100
AcDbEntity
  8
0
  6
Continuous
100
AcDbLine
 10
142.4865725110425
 20
144.9494142135106
 30
0.0
 11
142.4571007889546
 21
144.943958137928
 31
0.0
  0
LINE
  5
419
330
E3
100
AcDbEntity
  8
0
  6
Continuous
100
AcDbLine
 10
142.4571007889546
 20
144.943958137928
 30
0.0
 11
142.4249437417162
 21
144.9385020623455
 31
0.0
  0
LINE
  5
41A
330
E3
100
AcDbEntity
  8
0
  6
Continuous
100
AcDbLine
 10
142.4249437417162
 20
144.9385020623455
 30
0.0
 11
142.3903390744581
 21
144.933045986763
 31
0.0
  0
LINE
  5
41B
330
E3
100
AcDbEntity
  8
0
  6
Continuous
100
AcDbLine
 10
142.3903390744581
 20
144.933045986763
 30
0.0
 11
142.3535504913099
 21
144.9275899111805
 31
0.0
  0
LINE
  5
41C
330
E3
100
AcDbEntity
  8
0
  6
Continuous
100
AcDbLine
 10
142.3535504913099
 20
144.9275899111805
 30
0.0
 11
142.314856552972
 21
144.922133835598
 31
0.0
  0
LINE
  5
41D
330
E3
100
AcDbEntity
  8
0
  6
Continuous
100
AcDbLine
 10
142.314856552972
 20
144.922133835598
 30
0.0
 11
142.2745581050005
 21
144.9166777600155
 31
0.0
  0
LINE
  5
41E
330
E3
100
AcDbEntity
  8
0
  6
Continuous
100
AcDbLine
 10
142.2745581050005
 20
144.9166777600155
 30
0.0
 11
142.2329597070945
 21
144.911221684433
 31
0.0
  0
LINE
  5
41F
330
E3
100
AcDbEntity
  8
0
  6
Continuous
100
AcDbLine
 10
142.2329597070945
 20
144.911221684433
 30
0.0
 11
142.1903733472382
 21
144.9057656088505
 31
0.0
  0
LINE
  5
420
330
E3
100
AcDbEntity
  8
0
  6
Continuous
100
AcDbLine
 10
142.1903733472382
 20
144.9057656088505
 30
0.0
 11
142.1471258699866
 21
144.9003095332681
 31
0.0
  0
LINE
  5
421
330
E3
100
AcDbEntity
  8
0
  6
Continuous
100
AcDbLine
 10
142.1471258699866
 20
144.9003095332681
 30
0.0
 11
142.1035478340374
 21
144.8948534576856
 31
0.0
  0
LINE
  5
422
330
E3
100
AcDbEntity
  8
0
  6
Continuous
100
AcDbLine
 10
142.1035478340374
 20
144.8948534576856
 30
0.0
 11
142.0599697980882
 21
144.8893936679604
 31
0.0
  0
LINE
  5
423
330
E3
100
AcDbEntity
  8
0
  6
Continuous
100
AcDbLine
 10
142.0599697980882
 20
144.8893936679604
 30
0.0
 11
142.0167260349793
 21
144.8839375923779
 31
0.0
  0
LINE
  5
424
330
E3
100
AcDbEntity
  8
0
  6
Continuous
100
AcDbLine
 10
142.0167260349793
 20
144.8839375923779
 30
0.0
 11
141.974139675123
 21
144.8784815167954
 31
0.0
  0
LINE
  5
425
330
E3
100
AcDbEntity
  8
0
  6
Continuous
100
AcDbLine
 10
141.974139675123
 20
144.8784815167954
 30
0.0
 11
141.9325375630743
 21
144.8730254412129
 31
0.0
  0
LINE
  5
426
330
E3
100
AcDbEntity
  8
0
  6
Continuous
100
AcDbLine
 10
141.9325375630743
 20
144.8730254412129
 30
0.0
 11
141.8922391151028
 21
144.8675693656304
 31
0.0
  0
LINE
  5
427
330
E3
100
AcDbEntity
  8
0
  6
Continuous
100
AcDbLine
 10
141.8922391151028
 20
144.8675693656304
 30
0.0
 11
141.8535488909075
 21
144.8621132900479
 31
0.0
  0
LINE
  5
428
330
E3
100
AcDbEntity
  8
0
  6
Continuous
100
AcDbLine
 10
141.8535488909075
 20
144.8621132900479
 30
0.0
 11
141.8167603077594
 21
144.8566572144655
 31
0.0
  0
LINE
  5
429
330
E3
100
AcDbEntity
  8
0
  6
Continuous
100
AcDbLine
 10
141.8167603077594
 20
144.8566572144655
 30
0.0
 11
141.7821556405013
 21
144.8512011388829
 31
0.0
  0
LINE
  5
42A
330
E3
100
AcDbEntity
  8
0
  6
Continuous
100
AcDbLine
 10
141.7821556405013
 20
144.8512011388829
 30
0.0
 11
141.7499948791202
 21
144.8457450633005
 31
0.0
  0
LINE
  5
42B
330
E3
100
AcDbEntity
  8
0
  6
Continuous
100
AcDbLine
 10
141.7499948791202
 20
144.8457450633005
 30
0.0
 11
141.720526871175
 21
144.8402889877179
 31
0.0
  0
LINE
  5
42C
330
E3
100
AcDbEntity
  8
0
  6
Continuous
100
AcDbLine
 10
141.720526871175
 20
144.8402889877179
 30
0.0
 11
141.6939744652259
 21
144.8348329121355
 31
0.0
  0
LINE
  5
42D
330
E3
100
AcDbEntity
  8
0
  6
Continuous
100
AcDbLine
 10
141.6939744652259
 20
144.8348329121355
 30
0.0
 11
141.6705345108344
 21
144.8293768365529
 31
0.0
  0
LINE
  5
42E
330
E3
100
AcDbEntity
  8
0
  6
Continuous
100
AcDbLine
 10
141.6705345108344
 20
144.8293768365529
 30
0.0
 11
141.6503964292767
 21
144.8239207609705
 31
0.0
  0
LINE
  5
42F
330
E3
100
AcDbEntity
  8
0
  6
Continuous
100
AcDbLine
 10
141.6503964292767
 20
144.8239207609705
 30
0.0
 11
141.6337013579742
 21
144.8184609712453
 31
0.0
  0
LINE
  5
430
330
E3
100
AcDbEntity
  8
0
  6
Continuous
100
AcDbLine
 10
141.6337013579742
 20
144.8184609712453
 30
0.0
 11
141.6205867202058
 21
144.8130048956628
 31
0.0
  0
LINE
  5
431
330
E3
100
AcDbEntity
  8
0
  6
Continuous
100
AcDbLine
 10
141.6205867202058
 20
144.8130048956628
 30
0.0
 11
141.6111453695382
 21
144.8075488200803
 31
0.0
  0
LINE
  5
432
330
E3
100
AcDbEntity
  8
0
  6
Continuous
100
AcDbLine
 10
141.6111453695382
 20
144.8075488200803
 30
0.0
 11
141.6054516595623
 21
144.8020937508784
 31
0.0
  0
LINE
  5
433
330
E3
100
AcDbEntity
  8
0
  6
Continuous
100
AcDbLine
 10
141.6054516595623
 20
144.8020937508784
 30
0.0
 11
141.6035490086082
 21
144.796637401672
 31
0.0
  0
LINE
  5
434
330
E3
100
AcDbEntity
  8
0
  6
Continuous
100
AcDbLine
 10
142.6035490086082
 20
144.6002088302434
 30
0.0
 11
142.6016463576541
 21
144.5947524810371
 31
0.0
  0
LINE
  5
435
330
E3
100
AcDbEntity
  8
0
  6
Continuous
100
AcDbLine
 10
142.6016463576541
 20
144.5947524810371
 30
0.0
 11
142.5959528851143
 21
144.5892961318307
 31
0.0
  0
LINE
  5
436
330
E3
100
AcDbEntity
  8
0
  6
Continuous
100
AcDbLine
 10
142.5959528851143
 20
144.5892961318307
 30
0.0
 11
142.5865126620117
 21
144.58383857877
 31
0.0
  0
LINE
  5
437
330
E3
100
AcDbEntity
  8
0
  6
Continuous
100
AcDbLine
 10
142.5865126620117
 20
144.58383857877
 30
0.0
 11
142.5733943101006
 21
144.5783825031875
 31
0.0
  0
LINE
  5
438
330
E3
100
AcDbEntity
  8
0
  6
Continuous
100
AcDbLine
 10
142.5733943101006
 20
144.5783825031875
 30
0.0
 11
142.5567029529408
 21
144.572926427605
 31
0.0
  0
LINE
  5
439
330
E3
100
AcDbEntity
  8
0
  6
Continuous
100
AcDbLine
 10
142.5567029529408
 20
144.572926427605
 30
0.0
 11
142.5365611572404
 21
144.5674703520225
 31
0.0
  0
LINE
  5
43A
330
E3
100
AcDbEntity
  8
0
  6
Continuous
100
AcDbLine
 10
142.5365611572404
 20
144.5674703520225
 30
0.0
 11
142.5131249169916
 21
144.56201427644
 31
0.0
  0
LINE
  5
43B
330
E3
100
AcDbEntity
  8
0
  6
Continuous
100
AcDbLine
 10
142.5131249169916
 20
144.56201427644
 30
0.0
 11
142.4865725110425
 21
144.5565582008575
 31
0.0
  0
LINE
  5
43C
330
E3
100
AcDbEntity
  8
0
  6
Continuous
100
AcDbLine
 10
142.4865725110425
 20
144.5565582008575
 30
0.0
 11
142.4571007889546
 21
144.551102125275
 31
0.0
  0
LINE
  5
43D
330
E3
100
AcDbEntity
  8
0
  6
Continuous
100
AcDbLine
 10
142.4571007889546
 20
144.551102125275
 30
0.0
 11
142.4249437417162
 21
144.5456460496925
 31
0.0
  0
LINE
  5
43E
330
E3
100
AcDbEntity
  8
0
  6
Continuous
100
AcDbLine
 10
142.4249437417162
 20
144.5456460496925
 30
0.0
 11
142.3903390744581
 21
144.54018997411
 31
0.0
  0
LINE
  5
43F
330
E3
100
AcDbEntity
  8
0
  6
Continuous
100
AcDbLine
 10
142.3903390744581
 20
144.54018997411
 30
0.0
 11
142.3535504913099
 21
144.5347338985275
 31
0.0
  0
LINE
  5
440
330
E3
100
AcDbEntity
  8
0
  6
Continuous
100
AcDbLine
 10
142.3535504913099
 20
144.5347338985275
 30
0.0
 11
142.314856552972
 21
144.529277822945
 31
0.0
  0
LINE
  5
441
330
E3
100
AcDbEntity
  8
0
  6
Continuous
100
AcDbLine
 10
142.314856552972
 20
144.529277822945
 30
0.0
 11
142.2745581050005
 21
144.5238217473625
 31
0.0
  0
LINE
  5
442
330
E3
100
AcDbEntity
  8
0
  6
Continuous
100
AcDbLine
 10
142.2745581050005
 20
144.5238217473625
 30
0.0
 11
142.2329597070945
 21
144.5183619576374
 31
0.0
  0
LINE
  5
443
330
E3
100
AcDbEntity
  8
0
  6
Continuous
100
AcDbLine
 10
142.2329597070945
 20
144.5183619576374
 30
0.0
 11
142.1903733472382
 21
144.5129058820549
 31
0.0
  0
LINE
  5
444
330
E3
100
AcDbEntity
  8
0
  6
Continuous
100
AcDbLine
 10
142.1903733472382
 20
144.5129058820549
 30
0.0
 11
142.1471258699866
 21
144.5074498064724
 31
0.0
  0
LINE
  5
445
330
E3
100
AcDbEntity
  8
0
  6
Continuous
100
AcDbLine
 10
142.1471258699866
 20
144.5074498064724
 30
0.0
 11
142.1035478340374
 21
144.5019937308899
 31
0.0
  0
LINE
  5
446
330
E3
100
AcDbEntity
  8
0
  6
Continuous
100
AcDbLine
 10
142.1035478340374
 20
144.5019937308899
 30
0.0
 11
142.0599697980882
 21
144.4965376553074
 31
0.0
  0
LINE
  5
447
330
E3
100
AcDbEntity
  8
0
  6
Continuous
100
AcDbLine
 10
142.0599697980882
 20
144.4965376553074
 30
0.0
 11
142.0167260349793
 21
144.4910815797249
 31
0.0
  0
LINE
  5
448
330
E3
100
AcDbEntity
  8
0
  6
Continuous
100
AcDbLine
 10
142.0167260349793
 20
144.4910815797249
 30
0.0
 11
141.974139675123
 21
144.4856255041424
 31
0.0
  0
LINE
  5
449
330
E3
100
AcDbEntity
  8
0
  6
Continuous
100
AcDbLine
 10
141.974139675123
 20
144.4856255041424
 30
0.0
 11
141.9325375630743
 21
144.4801694285599
 31
0.0
  0
LINE
  5
44A
330
E3
100
AcDbEntity
  8
0
  6
Continuous
100
AcDbLine
 10
141.9325375630743
 20
144.4801694285599
 30
0.0
 11
141.8922391151028
 21
144.4747133529774
 31
0.0
  0
LINE
  5
44B
330
E3
100
AcDbEntity
  8
0
  6
Continuous
100
AcDbLine
 10
141.8922391151028
 20
144.4747133529774
 30
0.0
 11
141.8535488909075
 21
144.4692572773949
 31
0.0
  0
LINE
  5
44C
330
E3
100
AcDbEntity
  8
0
  6
Continuous
100
AcDbLine
 10
141.8535488909075
 20
144.4692572773949
 30
0.0
 11
141.8167603077594
 21
144.4638012018124
 31
0.0
  0
LINE
  5
44D
330
E3
100
AcDbEntity
  8
0
  6
Continuous
100
AcDbLine
 10
141.8167603077594
 20
144.4638012018124
 30
0.0
 11
141.7821556405013
 21
144.4583451262299
 31
0.0
  0
LINE
  5
44E
330
E3
100
AcDbEntity
  8
0
  6
Continuous
100
AcDbLine
 10
141.7821556405013
 20
144.4583451262299
 30
0.0
 11
141.7499948791202
 21
144.4528890506474
 31
0.0
  0
LINE
  5
44F
330
E3
100
AcDbEntity
  8
0
  6
Continuous
100
AcDbLine
 10
141.7499948791202
 20
144.4528890506474
 30
0.0
 11
141.720526871175
 21
144.4474292609222
 31
0.0
  0
LINE
  5
450
330
E3
100
AcDbEntity
  8
0
  6
Continuous
100
AcDbLine
 10
141.720526871175
 20
144.4474292609222
 30
0.0
 11
141.6939744652259
 21
144.4419731853397
 31
0.0
  0
LINE
  5
451
330
E3
100
AcDbEntity
  8
0
  6
Continuous
100
AcDbLine
 10
141.6939744652259
 20
144.4419731853397
 30
0.0
 11
141.6705345108344
 21
144.4365171097573
 31
0.0
  0
LINE
  5
452
330
E3
100
AcDbEntity
  8
0
  6
Continuous
100
AcDbLine
 10
141.6705345108344
 20
144.4365171097573
 30
0.0
 11
141.6503964292767
 21
144.4310610341748
 31
0.0
  0
LINE
  5
453
330
E3
100
AcDbEntity
  8
0
  6
Continuous
100
AcDbLine
 10
141.6503964292767
 20
144.4310610341748
 30
0.0
 11
141.6337013579742
 21
144.4256049585923
 31
0.0
  0
LINE
  5
454
330
E3
100
AcDbEntity
  8
0
  6
Continuous
100
AcDbLine
 10
141.6337013579742
 20
144.4256049585923
 30
0.0
 11
141.6205867202058
 21
144.4201488830098
 31
0.0
  0
LINE
  5
455
330
E3
100
AcDbEntity
  8
0
  6
Continuous
100
AcDbLine
 10
141.6205867202058
 20
144.4201488830098
 30
0.0
 11
141.6111453695382
 21
144.4146928074273
 31
0.0
  0
LINE
  5
456
330
E3
100
AcDbEntity
  8
0
  6
Continuous
100
AcDbLine
 10
141.6111453695382
 20
144.4146928074273
 30
0.0
 11
141.6054516595623
 21
144.4092366080212
 31
0.0
  0
LINE
  5
457
330
E3
100
AcDbEntity
  8
0
  6
Continuous
100
AcDbLine
 10
141.6054516595623
 20
144.4092366080212
 30
0.0
 11
141.6035490086082
 21
144.4037802588149
 31
0.0
  0
LINE
  5
458
330
E3
100
AcDbEntity
  8
0
  6
Continuous
100
AcDbLine
 10
142.6035490086082
 20
144.2073516873863
 30
0.0
 11
142.6016463576541
 21
144.20189533818
 31
0.0
  0
LINE
  5
459
330
E3
100
AcDbEntity
  8
0
  6
Continuous
100
AcDbLine
 10
142.6016463576541
 20
144.20189533818
 30
0.0
 11
142.5959528851143
 21
144.1964389889736
 31
0.0
  0
LINE
  5
45A
330
E3
100
AcDbEntity
  8
0
  6
Continuous
100
AcDbLine
 10
142.5959528851143
 20
144.1964389889736
 30
0.0
 11
142.5865126620117
 21
144.190982566117
 31
0.0
  0
LINE
  5
45B
330
E3
100
AcDbEntity
  8
0
  6
Continuous
100
AcDbLine
 10
142.5865126620117
 20
144.190982566117
 30
0.0
 11
142.5733943101006
 21
144.1855264905344
 31
0.0
  0
LINE
  5
45C
330
E3
100
AcDbEntity
  8
0
  6
Continuous
100
AcDbLine
 10
142.5733943101006
 20
144.1855264905344
 30
0.0
 11
142.5567029529408
 21
144.180070414952
 31
0.0
  0
LINE
  5
45D
330
E3
100
AcDbEntity
  8
0
  6
Continuous
100
AcDbLine
 10
142.5567029529408
 20
144.180070414952
 30
0.0
 11
142.5365611572404
 21
144.1746143393695
 31
0.0
  0
LINE
  5
45E
330
E3
100
AcDbEntity
  8
0
  6
Continuous
100
AcDbLine
 10
142.5365611572404
 20
144.1746143393695
 30
0.0
 11
142.5131249169916
 21
144.169158263787
 31
0.0
  0
LINE
  5
45F
330
E3
100
AcDbEntity
  8
0
  6
Continuous
100
AcDbLine
 10
142.5131249169916
 20
144.169158263787
 30
0.0
 11
142.4865725110425
 21
144.1637021882045
 31
0.0
  0
LINE
  5
460
330
E3
100
AcDbEntity
  8
0
  6
Continuous
100
AcDbLine
 10
142.4865725110425
 20
144.1637021882045
 30
0.0
 11
142.4571007889546
 21
144.158246112622
 31
0.0
  0
LINE
  5
461
330
E3
100
AcDbEntity
  8
0
  6
Continuous
100
AcDbLine
 10
142.4571007889546
 20
144.158246112622
 30
0.0
 11
142.4249437417162
 21
144.1527900370395
 31
0.0
  0
LINE
  5
462
330
E3
100
AcDbEntity
  8
0
  6
Continuous
100
AcDbLine
 10
142.4249437417162
 20
144.1527900370395
 30
0.0
 11
142.3903390744581
 21
144.1473302473143
 31
0.0
  0
LINE
  5
463
330
E3
100
AcDbEntity
  8
0
  6
Continuous
100
AcDbLine
 10
142.3903390744581
 20
144.1473302473143
 30
0.0
 11
142.3535504913099
 21
144.1418741717318
 31
0.0
  0
LINE
  5
464
330
E3
100
AcDbEntity
  8
0
  6
Continuous
100
AcDbLine
 10
142.3535504913099
 20
144.1418741717318
 30
0.0
 11
142.314856552972
 21
144.1364180961494
 31
0.0
  0
LINE
  5
465
330
E3
100
AcDbEntity
  8
0
  6
Continuous
100
AcDbLine
 10
142.314856552972
 20
144.1364180961494
 30
0.0
 11
142.2745581050005
 21
144.1309620205669
 31
0.0
  0
LINE
  5
466
330
E3
100
AcDbEntity
  8
0
  6
Continuous
100
AcDbLine
 10
142.2745581050005
 20
144.1309620205669
 30
0.0
 11
142.2329597070945
 21
144.1255059449844
 31
0.0
  0
LINE
  5
467
330
E3
100
AcDbEntity
  8
0
  6
Continuous
100
AcDbLine
 10
142.2329597070945
 20
144.1255059449844
 30
0.0
 11
142.1903733472382
 21
144.1200498694019
 31
0.0
  0
LINE
  5
468
330
E3
100
AcDbEntity
  8
0
  6
Continuous
100
AcDbLine
 10
142.1903733472382
 20
144.1200498694019
 30
0.0
 11
142.1471258699866
 21
144.1145937938194
 31
0.0
  0
LINE
  5
469
330
E3
100
AcDbEntity
  8
0
  6
Continuous
100
AcDbLine
 10
142.1471258699866
 20
144.1145937938194
 30
0.0
 11
142.1035478340374
 21
144.1091377182369
 31
0.0
  0
LINE
  5
46A
330
E3
100
AcDbEntity
  8
0
  6
Continuous
100
AcDbLine
 10
142.1035478340374
 20
144.1091377182369
 30
0.0
 11
142.0599697980882
 21
144.1036816426544
 31
0.0
  0
LINE
  5
46B
330
E3
100
AcDbEntity
  8
0
  6
Continuous
100
AcDbLine
 10
142.0599697980882
 20
144.1036816426544
 30
0.0
 11
142.0167260349793
 21
144.0982255670719
 31
0.0
  0
LINE
  5
46C
330
E3
100
AcDbEntity
  8
0
  6
Continuous
100
AcDbLine
 10
142.0167260349793
 20
144.0982255670719
 30
0.0
 11
141.974139675123
 21
144.0927694914893
 31
0.0
  0
LINE
  5
46D
330
E3
100
AcDbEntity
  8
0
  6
Continuous
100
AcDbLine
 10
141.974139675123
 20
144.0927694914893
 30
0.0
 11
141.9325375630743
 21
144.0873134159069
 31
0.0
  0
LINE
  5
46E
330
E3
100
AcDbEntity
  8
0
  6
Continuous
100
AcDbLine
 10
141.9325375630743
 20
144.0873134159069
 30
0.0
 11
141.8922391151028
 21
144.0818573403244
 31
0.0
  0
LINE
  5
46F
330
E3
100
AcDbEntity
  8
0
  6
Continuous
100
AcDbLine
 10
141.8922391151028
 20
144.0818573403244
 30
0.0
 11
141.8535488909075
 21
144.0763975505992
 31
0.0
  0
LINE
  5
470
330
E3
100
AcDbEntity
  8
0
  6
Continuous
100
AcDbLine
 10
141.8535488909075
 20
144.0763975505992
 30
0.0
 11
141.8167603077594
 21
144.0709414750167
 31
0.0
  0
LINE
  5
471
330
E3
100
AcDbEntity
  8
0
  6
Continuous
100
AcDbLine
 10
141.8167603077594
 20
144.0709414750167
 30
0.0
 11
141.7821556405013
 21
144.0654853994343
 31
0.0
  0
LINE
  5
472
330
E3
100
AcDbEntity
  8
0
  6
Continuous
100
AcDbLine
 10
141.7821556405013
 20
144.0654853994343
 30
0.0
 11
141.7499948791202
 21
144.0600293238517
 31
0.0
  0
LINE
  5
473
330
E3
100
AcDbEntity
  8
0
  6
Continuous
100
AcDbLine
 10
141.7499948791202
 20
144.0600293238517
 30
0.0
 11
141.720526871175
 21
144.0545732482693
 31
0.0
  0
LINE
  5
474
330
E3
100
AcDbEntity
  8
0
  6
Continuous
100
AcDbLine
 10
141.720526871175
 20
144.0545732482693
 30
0.0
 11
141.6939744652259
 21
144.0491171726867
 31
0.0
  0
LINE
  5
475
330
E3
100
AcDbEntity
  8
0
  6
Continuous
100
AcDbLine
 10
141.6939744652259
 20
144.0491171726867
 30
0.0
 11
141.6705345108344
 21
144.0436610971043
 31
0.0
  0
LINE
  5
476
330
E3
100
AcDbEntity
  8
0
  6
Continuous
100
AcDbLine
 10
141.6705345108344
 20
144.0436610971043
 30
0.0
 11
141.6503964292767
 21
144.0382050215217
 31
0.0
  0
LINE
  5
477
330
E3
100
AcDbEntity
  8
0
  6
Continuous
100
AcDbLine
 10
141.6503964292767
 20
144.0382050215217
 30
0.0
 11
141.6337013579742
 21
144.0327489459393
 31
0.0
  0
LINE
  5
478
330
E3
100
AcDbEntity
  8
0
  6
Continuous
100
AcDbLine
 10
141.6337013579742
 20
144.0327489459393
 30
0.0
 11
141.6205867202058
 21
144.0272928703567
 31
0.0
  0
LINE
  5
479
330
E3
100
AcDbEntity
  8
0
  6
Continuous
100
AcDbLine
 10
141.6205867202058
 20
144.0272928703567
 30
0.0
 11
141.6111453695382
 21
144.0218367947743
 31
0.0
  0
LINE
  5
47A
330
E3
100
AcDbEntity
  8
0
  6
Continuous
100
AcDbLine
 10
141.6111453695382
 20
144.0218367947743
 30
0.0
 11
141.6054516595623
 21
144.0163794651641
 31
0.0
  0
LINE
  5
47B
330
E3
100
AcDbEntity
  8
0
  6
Continuous
100
AcDbLine
 10
141.6054516595623
 20
144.0163794651641
 30
0.0
 11
141.6035490086082
 21
144.0109231159578
 31
0.0
  0
LINE
  5
47C
330
E3
100
AcDbEntity
  8
0
  6
Continuous
100
AcDbLine
 10
142.6035490086082
 20
143.8144945445292
 30
0.0
 11
142.6016463576541
 21
143.8090381953228
 31
0.0
  0
LINE
  5
47D
330
E3
100
AcDbEntity
  8
0
  6
Continuous
100
AcDbLine
 10
142.6016463576541
 20
143.8090381953228
 30
0.0
 11
142.5959528851143
 21
143.8035818461165
 31
0.0
  0
LINE
  5
47E
330
E3
100
AcDbEntity
  8
0
  6
Continuous
100
AcDbLine
 10
142.5959528851143
 20
143.8035818461165
 30
0.0
 11
142.5865126620117
 21
143.7981265534639
 31
0.0
  0
LINE
  5
47F
330
E3
100
AcDbEntity
  8
0
  6
Continuous
100
AcDbLine
 10
142.5865126620117
 20
143.7981265534639
 30
0.0
 11
142.5733943101006
 21
143.7926704778815
 31
0.0
  0
LINE
  5
480
330
E3
100
AcDbEntity
  8
0
  6
Continuous
100
AcDbLine
 10
142.5733943101006
 20
143.7926704778815
 30
0.0
 11
142.5567029529408
 21
143.787214402299
 31
0.0
  0
LINE
  5
481
330
E3
100
AcDbEntity
  8
0
  6
Continuous
100
AcDbLine
 10
142.5567029529408
 20
143.787214402299
 30
0.0
 11
142.5365611572404
 21
143.7817546125738
 31
0.0
  0
LINE
  5
482
330
E3
100
AcDbEntity
  8
0
  6
Continuous
100
AcDbLine
 10
142.5365611572404
 20
143.7817546125738
 30
0.0
 11
142.5131249169916
 21
143.7762985369913
 31
0.0
  0
LINE
  5
483
330
E3
100
AcDbEntity
  8
0
  6
Continuous
100
AcDbLine
 10
142.5131249169916
 20
143.7762985369913
 30
0.0
 11
142.4865725110425
 21
143.7708424614088
 31
0.0
  0
LINE
  5
484
330
E3
100
AcDbEntity
  8
0
  6
Continuous
100
AcDbLine
 10
142.4865725110425
 20
143.7708424614088
 30
0.0
 11
142.4571007889546
 21
143.7653863858263
 31
0.0
  0
LINE
  5
485
330
E3
100
AcDbEntity
  8
0
  6
Continuous
100
AcDbLine
 10
142.4571007889546
 20
143.7653863858263
 30
0.0
 11
142.4249437417162
 21
143.7599303102438
 31
0.0
  0
LINE
  5
486
330
E3
100
AcDbEntity
  8
0
  6
Continuous
100
AcDbLine
 10
142.4249437417162
 20
143.7599303102438
 30
0.0
 11
142.3903390744581
 21
143.7544742346613
 31
0.0
  0
LINE
  5
487
330
E3
100
AcDbEntity
  8
0
  6
Continuous
100
AcDbLine
 10
142.3903390744581
 20
143.7544742346613
 30
0.0
 11
142.3535504913099
 21
143.7490181590788
 31
0.0
  0
LINE
  5
488
330
E3
100
AcDbEntity
  8
0
  6
Continuous
100
AcDbLine
 10
142.3535504913099
 20
143.7490181590788
 30
0.0
 11
142.314856552972
 21
143.7435620834963
 31
0.0
  0
LINE
  5
489
330
E3
100
AcDbEntity
  8
0
  6
Continuous
100
AcDbLine
 10
142.314856552972
 20
143.7435620834963
 30
0.0
 11
142.2745581050005
 21
143.7381060079138
 31
0.0
  0
LINE
  5
48A
330
E3
100
AcDbEntity
  8
0
  6
Continuous
100
AcDbLine
 10
142.2745581050005
 20
143.7381060079138
 30
0.0
 11
142.2329597070945
 21
143.7326499323313
 31
0.0
  0
LINE
  5
48B
330
E3
100
AcDbEntity
  8
0
  6
Continuous
100
AcDbLine
 10
142.2329597070945
 20
143.7326499323313
 30
0.0
 11
142.1903733472382
 21
143.7271938567488
 31
0.0
  0
LINE
  5
48C
330
E3
100
AcDbEntity
  8
0
  6
Continuous
100
AcDbLine
 10
142.1903733472382
 20
143.7271938567488
 30
0.0
 11
142.1471258699866
 21
143.7217377811664
 31
0.0
  0
LINE
  5
48D
330
E3
100
AcDbEntity
  8
0
  6
Continuous
100
AcDbLine
 10
142.1471258699866
 20
143.7217377811664
 30
0.0
 11
142.1035478340374
 21
143.7162817055839
 31
0.0
  0
LINE
  5
48E
330
E3
100
AcDbEntity
  8
0
  6
Continuous
100
AcDbLine
 10
142.1035478340374
 20
143.7162817055839
 30
0.0
 11
142.0599697980882
 21
143.7108256300014
 31
0.0
  0
LINE
  5
48F
330
E3
100
AcDbEntity
  8
0
  6
Continuous
100
AcDbLine
 10
142.0599697980882
 20
143.7108256300014
 30
0.0
 11
142.0167260349793
 21
143.7053658402762
 31
0.0
  0
LINE
  5
490
330
E3
100
AcDbEntity
  8
0
  6
Continuous
100
AcDbLine
 10
142.0167260349793
 20
143.7053658402762
 30
0.0
 11
141.974139675123
 21
143.6999097646937
 31
0.0
  0
LINE
  5
491
330
E3
100
AcDbEntity
  8
0
  6
Continuous
100
AcDbLine
 10
141.974139675123
 20
143.6999097646937
 30
0.0
 11
141.9325375630743
 21
143.6944536891112
 31
0.0
  0
LINE
  5
492
330
E3
100
AcDbEntity
  8
0
  6
Continuous
100
AcDbLine
 10
141.9325375630743
 20
143.6944536891112
 30
0.0
 11
141.8922391151028
 21
143.6889976135287
 31
0.0
  0
LINE
  5
493
330
E3
100
AcDbEntity
  8
0
  6
Continuous
100
AcDbLine
 10
141.8922391151028
 20
143.6889976135287
 30
0.0
 11
141.8535488909075
 21
143.6835415379462
 31
0.0
  0
LINE
  5
494
330
E3
100
AcDbEntity
  8
0
  6
Continuous
100
AcDbLine
 10
141.8535488909075
 20
143.6835415379462
 30
0.0
 11
141.8167603077594
 21
143.6780854623637
 31
0.0
  0
LINE
  5
495
330
E3
100
AcDbEntity
  8
0
  6
Continuous
100
AcDbLine
 10
141.8167603077594
 20
143.6780854623637
 30
0.0
 11
141.7821556405013
 21
143.6726293867812
 31
0.0
  0
LINE
  5
496
330
E3
100
AcDbEntity
  8
0
  6
Continuous
100
AcDbLine
 10
141.7821556405013
 20
143.6726293867812
 30
0.0
 11
141.7499948791202
 21
143.6671733111987
 31
0.0
  0
LINE
  5
497
330
E3
100
AcDbEntity
  8
0
  6
Continuous
100
AcDbLine
 10
141.7499948791202
 20
143.6671733111987
 30
0.0
 11
141.720526871175
 21
143.6617172356162
 31
0.0
  0
LINE
  5
498
330
E3
100
AcDbEntity
  8
0
  6
Continuous
100
AcDbLine
 10
141.720526871175
 20
143.6617172356162
 30
0.0
 11
141.6939744652259
 21
143.6562611600337
 31
0.0
  0
LINE
  5
499
330
E3
100
AcDbEntity
  8
0
  6
Continuous
100
AcDbLine
 10
141.6939744652259
 20
143.6562611600337
 30
0.0
 11
141.6705345108344
 21
143.6508050844512
 31
0.0
  0
LINE
  5
49A
330
E3
100
AcDbEntity
  8
0
  6
Continuous
100
AcDbLine
 10
141.6705345108344
 20
143.6508050844512
 30
0.0
 11
141.6503964292767
 21
143.6453490088687
 31
0.0
  0
LINE
  5
49B
330
E3
100
AcDbEntity
  8
0
  6
Continuous
100
AcDbLine
 10
141.6503964292767
 20
143.6453490088687
 30
0.0
 11
141.6337013579742
 21
143.6398929332862
 31
0.0
  0
LINE
  5
49C
330
E3
100
AcDbEntity
  8
0
  6
Continuous
100
AcDbLine
 10
141.6337013579742
 20
143.6398929332862
 30
0.0
 11
141.6205867202058
 21
143.6344368577037
 31
0.0
  0
LINE
  5
49D
330
E3
100
AcDbEntity
  8
0
  6
Continuous
100
AcDbLine
 10
141.6205867202058
 20
143.6344368577037
 30
0.0
 11
141.6111453695382
 21
143.6289770679786
 31
0.0
  0
LINE
  5
49E
330
E3
100
AcDbEntity
  8
0
  6
Continuous
100
AcDbLine
 10
141.6111453695382
 20
143.6289770679786
 30
0.0
 11
141.6054516595623
 21
143.623522322307
 31
0.0
  0
LINE
  5
49F
330
E3
100
AcDbEntity
  8
0
  6
Continuous
100
AcDbLine
 10
141.6054516595623
 20
143.623522322307
 30
0.0
 11
141.6035490086082
 21
143.6180659731006
 31
0.0
  0
LINE
  5
4A0
330
E3
100
AcDbEntity
  8
0
  6
Continuous
100
AcDbLine
 10
142.6035490086082
 20
143.421637401672
 30
0.0
 11
142.6016463576541
 21
143.4161810524657
 31
0.0
  0
LINE
  5
4A1
330
E3
100
AcDbEntity
  8
0
  6
Continuous
100
AcDbLine
 10
142.6016463576541
 20
143.4161810524657
 30
0.0
 11
142.5959528851143
 21
143.4107247032593
 31
0.0
  0
LINE
  5
4A2
330
E3
100
AcDbEntity
  8
0
  6
Continuous
100
AcDbLine
 10
142.5959528851143
 20
143.4107247032593
 30
0.0
 11
142.5865126620117
 21
143.4052668266683
 31
0.0
  0
LINE
  5
4A3
330
E3
100
AcDbEntity
  8
0
  6
Continuous
100
AcDbLine
 10
142.5865126620117
 20
143.4052668266683
 30
0.0
 11
142.5733943101006
 21
143.3998107510858
 31
0.0
  0
LINE
  5
4A4
330
E3
100
AcDbEntity
  8
0
  6
Continuous
100
AcDbLine
 10
142.5733943101006
 20
143.3998107510858
 30
0.0
 11
142.5567029529408
 21
143.3943546755033
 31
0.0
  0
LINE
  5
4A5
330
E3
100
AcDbEntity
  8
0
  6
Continuous
100
AcDbLine
 10
142.5567029529408
 20
143.3943546755033
 30
0.0
 11
142.5365611572404
 21
143.3888985999208
 31
0.0
  0
LINE
  5
4A6
330
E3
100
AcDbEntity
  8
0
  6
Continuous
100
AcDbLine
 10
142.5365611572404
 20
143.3888985999208
 30
0.0
 11
142.5131249169916
 21
143.3834425243383
 31
0.0
  0
LINE
  5
4A7
330
E3
100
AcDbEntity
  8
0
  6
Continuous
100
AcDbLine
 10
142.5131249169916
 20
143.3834425243383
 30
0.0
 11
142.4865725110425
 21
143.3779864487558
 31
0.0
  0
LINE
  5
4A8
330
E3
100
AcDbEntity
  8
0
  6
Continuous
100
AcDbLine
 10
142.4865725110425
 20
143.3779864487558
 30
0.0
 11
142.4571007889546
 21
143.3725303731733
 31
0.0
  0
LINE
  5
4A9
330
E3
100
AcDbEntity
  8
0
  6
Continuous
100
AcDbLine
 10
142.4571007889546
 20
143.3725303731733
 30
0.0
 11
142.4249437417162
 21
143.3670742975908
 31
0.0
  0
LINE
  5
4AA
330
E3
100
AcDbEntity
  8
0
  6
Continuous
100
AcDbLine
 10
142.4249437417162
 20
143.3670742975908
 30
0.0
 11
142.3903390744581
 21
143.3616182220083
 31
0.0
  0
LINE
  5
4AB
330
E3
100
AcDbEntity
  8
0
  6
Continuous
100
AcDbLine
 10
142.3903390744581
 20
143.3616182220083
 30
0.0
 11
142.3535504913099
 21
143.3561621464258
 31
0.0
  0
LINE
  5
4AC
330
E3
100
AcDbEntity
  8
0
  6
Continuous
100
AcDbLine
 10
142.3535504913099
 20
143.3561621464258
 30
0.0
 11
142.314856552972
 21
143.3507060708433
 31
0.0
  0
LINE
  5
4AD
330
E3
100
AcDbEntity
  8
0
  6
Continuous
100
AcDbLine
 10
142.314856552972
 20
143.3507060708433
 30
0.0
 11
142.2745581050005
 21
143.3452499952608
 31
0.0
  0
LINE
  5
4AE
330
E3
100
AcDbEntity
  8
0
  6
Continuous
100
AcDbLine
 10
142.2745581050005
 20
143.3452499952608
 30
0.0
 11
142.2329597070945
 21
143.3397939196783
 31
0.0
  0
LINE
  5
4AF
330
E3
100
AcDbEntity
  8
0
  6
Continuous
100
AcDbLine
 10
142.2329597070945
 20
143.3397939196783
 30
0.0
 11
142.1903733472382
 21
143.3343341299531
 31
0.0
  0
LINE
  5
4B0
330
E3
100
AcDbEntity
  8
0
  6
Continuous
100
AcDbLine
 10
142.1903733472382
 20
143.3343341299531
 30
0.0
 11
142.1471258699866
 21
143.3288780543707
 31
0.0
  0
LINE
  5
4B1
330
E3
100
AcDbEntity
  8
0
  6
Continuous
100
AcDbLine
 10
142.1471258699866
 20
143.3288780543707
 30
0.0
 11
142.1035478340374
 21
143.3234219787882
 31
0.0
  0
LINE
  5
4B2
330
E3
100
AcDbEntity
  8
0
  6
Continuous
100
AcDbLine
 10
142.1035478340374
 20
143.3234219787882
 30
0.0
 11
142.0599697980882
 21
143.3179659032057
 31
0.0
  0
LINE
  5
4B3
330
E3
100
AcDbEntity
  8
0
  6
Continuous
100
AcDbLine
 10
142.0599697980882
 20
143.3179659032057
 30
0.0
 11
142.0167260349793
 21
143.3125098276232
 31
0.0
  0
LINE
  5
4B4
330
E3
100
AcDbEntity
  8
0
  6
Continuous
100
AcDbLine
 10
142.0167260349793
 20
143.3125098276232
 30
0.0
 11
141.974139675123
 21
143.3070537520407
 31
0.0
  0
LINE
  5
4B5
330
E3
100
AcDbEntity
  8
0
  6
Continuous
100
AcDbLine
 10
141.974139675123
 20
143.3070537520407
 30
0.0
 11
141.9325375630743
 21
143.3015976764582
 31
0.0
  0
LINE
  5
4B6
330
E3
100
AcDbEntity
  8
0
  6
Continuous
100
AcDbLine
 10
141.9325375630743
 20
143.3015976764582
 30
0.0
 11
141.8922391151028
 21
143.2961416008757
 31
0.0
  0
LINE
  5
4B7
330
E3
100
AcDbEntity
  8
0
  6
Continuous
100
AcDbLine
 10
141.8922391151028
 20
143.2961416008757
 30
0.0
 11
141.8535488909075
 21
143.2906855252932
 31
0.0
  0
LINE
  5
4B8
330
E3
100
AcDbEntity
  8
0
  6
Continuous
100
AcDbLine
 10
141.8535488909075
 20
143.2906855252932
 30
0.0
 11
141.8167603077594
 21
143.2852294497107
 31
0.0
  0
LINE
  5
4B9
330
E3
100
AcDbEntity
  8
0
  6
Continuous
100
AcDbLine
 10
141.8167603077594
 20
143.2852294497107
 30
0.0
 11
141.7821556405013
 21
143.2797733741282
 31
0.0
  0
LINE
  5
4BA
330
E3
100
AcDbEntity
  8
0
  6
Continuous
100
AcDbLine
 10
141.7821556405013
 20
143.2797733741282
 30
0.0
 11
141.7499948791202
 21
143.2743172985457
 31
0.0
  0
LINE
  5
4BB
330
E3
100
AcDbEntity
  8
0
  6
Continuous
100
AcDbLine
 10
141.7499948791202
 20
143.2743172985457
 30
0.0
 11
141.720526871175
 21
143.2688612229632
 31
0.0
  0
LINE
  5
4BC
330
E3
100
AcDbEntity
  8
0
  6
Continuous
100
AcDbLine
 10
141.720526871175
 20
143.2688612229632
 30
0.0
 11
141.6939744652259
 21
143.263401433238
 31
0.0
  0
LINE
  5
4BD
330
E3
100
AcDbEntity
  8
0
  6
Continuous
100
AcDbLine
 10
141.6939744652259
 20
143.263401433238
 30
0.0
 11
141.6705345108344
 21
143.2579453576555
 31
0.0
  0
LINE
  5
4BE
330
E3
100
AcDbEntity
  8
0
  6
Continuous
100
AcDbLine
 10
141.6705345108344
 20
143.2579453576555
 30
0.0
 11
141.6503964292767
 21
143.252489282073
 31
0.0
  0
LINE
  5
4BF
330
E3
100
AcDbEntity
  8
0
  6
Continuous
100
AcDbLine
 10
141.6503964292767
 20
143.252489282073
 30
0.0
 11
141.6337013579742
 21
143.2470332064906
 31
0.0
  0
LINE
  5
4C0
330
E3
100
AcDbEntity
  8
0
  6
Continuous
100
AcDbLine
 10
141.6337013579742
 20
143.2470332064906
 30
0.0
 11
141.6205867202058
 21
143.2415771309081
 31
0.0
  0
LINE
  5
4C1
330
E3
100
AcDbEntity
  8
0
  6
Continuous
100
AcDbLine
 10
141.6205867202058
 20
143.2415771309081
 30
0.0
 11
141.6111453695382
 21
143.2361210553256
 31
0.0
  0
LINE
  5
4C2
330
E3
100
AcDbEntity
  8
0
  6
Continuous
100
AcDbLine
 10
141.6111453695382
 20
143.2361210553256
 30
0.0
 11
141.6054516595623
 21
143.2306651794498
 31
0.0
  0
LINE
  5
4C3
330
E3
100
AcDbEntity
  8
0
  6
Continuous
100
AcDbLine
 10
141.6054516595623
 20
143.2306651794498
 30
0.0
 11
141.6035490086082
 21
143.2252088302435
 31
0.0
  0
LINE
  5
4C4
330
E3
100
AcDbEntity
  8
0
  6
Continuous
100
AcDbLine
 10
142.6035490086082
 20
143.0287802588149
 30
0.0
 11
142.6016463576541
 21
143.0233239096085
 31
0.0
  0
LINE
  5
4C5
330
E3
100
AcDbEntity
  8
0
  6
Continuous
100
AcDbLine
 10
142.6016463576541
 20
143.0233239096085
 30
0.0
 11
142.5959528851143
 21
143.0178675604022
 31
0.0
  0
LINE
  5
4C6
330
E3
100
AcDbEntity
  8
0
  6
Continuous
100
AcDbLine
 10
142.5959528851143
 20
143.0178675604022
 30
0.0
 11
142.5865126620117
 21
143.0124108140152
 31
0.0
  0
LINE
  5
4C7
330
E3
100
AcDbEntity
  8
0
  6
Continuous
100
AcDbLine
 10
142.5865126620117
 20
143.0124108140152
 30
0.0
 11
142.5733943101006
 21
143.0069547384327
 31
0.0
  0
LINE
  5
4C8
330
E3
100
AcDbEntity
  8
0
  6
Continuous
100
AcDbLine
 10
142.5733943101006
 20
143.0069547384327
 30
0.0
 11
142.5567029529408
 21
143.0014986628503
 31
0.0
  0
LINE
  5
4C9
330
E3
100
AcDbEntity
  8
0
  6
Continuous
100
AcDbLine
 10
142.5567029529408
 20
143.0014986628503
 30
0.0
 11
142.5365611572404
 21
142.9960425872678
 31
0.0
  0
LINE
  5
4CA
330
E3
100
AcDbEntity
  8
0
  6
Continuous
100
AcDbLine
 10
142.5365611572404
 20
142.9960425872678
 30
0.0
 11
142.5131249169916
 21
142.9905865116853
 31
0.0
  0
LINE
  5
4CB
330
E3
100
AcDbEntity
  8
0
  6
Continuous
100
AcDbLine
 10
142.5131249169916
 20
142.9905865116853
 30
0.0
 11
142.4865725110425
 21
142.9851304361028
 31
0.0
  0
LINE
  5
4CC
330
E3
100
AcDbEntity
  8
0
  6
Continuous
100
AcDbLine
 10
142.4865725110425
 20
142.9851304361028
 30
0.0
 11
142.4571007889546
 21
142.9796743605203
 31
0.0
  0
LINE
  5
4CD
330
E3
100
AcDbEntity
  8
0
  6
Continuous
100
AcDbLine
 10
142.4571007889546
 20
142.9796743605203
 30
0.0
 11
142.4249437417162
 21
142.9742182849378
 31
0.0
  0
LINE
  5
4CE
330
E3
100
AcDbEntity
  8
0
  6
Continuous
100
AcDbLine
 10
142.4249437417162
 20
142.9742182849378
 30
0.0
 11
142.3903390744581
 21
142.9687622093553
 31
0.0
  0
LINE
  5
4CF
330
E3
100
AcDbEntity
  8
0
  6
Continuous
100
AcDbLine
 10
142.3903390744581
 20
142.9687622093553
 30
0.0
 11
142.3535504913099
 21
142.9633024196301
 31
0.0
  0
LINE
  5
4D0
330
E3
100
AcDbEntity
  8
0
  6
Continuous
100
AcDbLine
 10
142.3535504913099
 20
142.9633024196301
 30
0.0
 11
142.314856552972
 21
142.9578463440476
 31
0.0
  0
LINE
  5
4D1
330
E3
100
AcDbEntity
  8
0
  6
Continuous
100
AcDbLine
 10
142.314856552972
 20
142.9578463440476
 30
0.0
 11
142.2745581050005
 21
142.9523902684651
 31
0.0
  0
LINE
  5
4D2
330
E3
100
AcDbEntity
  8
0
  6
Continuous
100
AcDbLine
 10
142.2745581050005
 20
142.9523902684651
 30
0.0
 11
142.2329597070945
 21
142.9469341928826
 31
0.0
  0
LINE
  5
4D3
330
E3
100
AcDbEntity
  8
0
  6
Continuous
100
AcDbLine
 10
142.2329597070945
 20
142.9469341928826
 30
0.0
 11
142.1903733472382
 21
142.9414781173001
 31
0.0
  0
LINE
  5
4D4
330
E3
100
AcDbEntity
  8
0
  6
Continuous
100
AcDbLine
 10
142.1903733472382
 20
142.9414781173001
 30
0.0
 11
142.1471258699866
 21
142.9360220417176
 31
0.0
  0
LINE
  5
4D5
330
E3
100
AcDbEntity
  8
0
  6
Continuous
100
AcDbLine
 10
142.1471258699866
 20
142.9360220417176
 30
0.0
 11
142.1035478340374
 21
142.9305659661351
 31
0.0
  0
LINE
  5
4D6
330
E3
100
AcDbEntity
  8
0
  6
Continuous
100
AcDbLine
 10
142.1035478340374
 20
142.9305659661351
 30
0.0
 11
142.0599697980882
 21
142.9251098905526
 31
0.0
  0
LINE
  5
4D7
330
E3
100
AcDbEntity
  8
0
  6
Continuous
100
AcDbLine
 10
142.0599697980882
 20
142.9251098905526
 30
0.0
 11
142.0167260349793
 21
142.9196538149701
 31
0.0
  0
LINE
  5
4D8
330
E3
100
AcDbEntity
  8
0
  6
Continuous
100
AcDbLine
 10
142.0167260349793
 20
142.9196538149701
 30
0.0
 11
141.974139675123
 21
142.9141977393876
 31
0.0
  0
LINE
  5
4D9
330
E3
100
AcDbEntity
  8
0
  6
Continuous
100
AcDbLine
 10
141.974139675123
 20
142.9141977393876
 30
0.0
 11
141.9325375630743
 21
142.9087416638052
 31
0.0
  0
LINE
  5
4DA
330
E3
100
AcDbEntity
  8
0
  6
Continuous
100
AcDbLine
 10
141.9325375630743
 20
142.9087416638052
 30
0.0
 11
141.8922391151028
 21
142.9032855882226
 31
0.0
  0
LINE
  5
4DB
330
E3
100
AcDbEntity
  8
0
  6
Continuous
100
AcDbLine
 10
141.8922391151028
 20
142.9032855882226
 30
0.0
 11
141.8535488909075
 21
142.8978295126402
 31
0.0
  0
LINE
  5
4DC
330
E3
100
AcDbEntity
  8
0
  6
Continuous
100
AcDbLine
 10
141.8535488909075
 20
142.8978295126402
 30
0.0
 11
141.8167603077594
 21
142.892369722915
 31
0.0
  0
LINE
  5
4DD
330
E3
100
AcDbEntity
  8
0
  6
Continuous
100
AcDbLine
 10
141.8167603077594
 20
142.892369722915
 30
0.0
 11
141.7821556405013
 21
142.8869136473325
 31
0.0
  0
LINE
  5
4DE
330
E3
100
AcDbEntity
  8
0
  6
Continuous
100
AcDbLine
 10
141.7821556405013
 20
142.8869136473325
 30
0.0
 11
141.7499948791202
 21
142.88145757175
 31
0.0
  0
LINE
  5
4DF
330
E3
100
AcDbEntity
  8
0
  6
Continuous
100
AcDbLine
 10
141.7499948791202
 20
142.88145757175
 30
0.0
 11
141.720526871175
 21
142.8760014961675
 31
0.0
  0
LINE
  5
4E0
330
E3
100
AcDbEntity
  8
0
  6
Continuous
100
AcDbLine
 10
141.720526871175
 20
142.8760014961675
 30
0.0
 11
141.6939744652259
 21
142.870545420585
 31
0.0
  0
LINE
  5
4E1
330
E3
100
AcDbEntity
  8
0
  6
Continuous
100
AcDbLine
 10
141.6939744652259
 20
142.870545420585
 30
0.0
 11
141.6705345108344
 21
142.8650893450025
 31
0.0
  0
LINE
  5
4E2
330
E3
100
AcDbEntity
  8
0
  6
Continuous
100
AcDbLine
 10
141.6705345108344
 20
142.8650893450025
 30
0.0
 11
141.6503964292767
 21
142.85963326942
 31
0.0
  0
LINE
  5
4E3
330
E3
100
AcDbEntity
  8
0
  6
Continuous
100
AcDbLine
 10
141.6503964292767
 20
142.85963326942
 30
0.0
 11
141.6337013579742
 21
142.8541771938375
 31
0.0
  0
LINE
  5
4E4
330
E3
100
AcDbEntity
  8
0
  6
Continuous
100
AcDbLine
 10
141.6337013579742
 20
142.8541771938375
 30
0.0
 11
141.6205867202058
 21
142.848721118255
 31
0.0
  0
LINE
  5
4E5
330
E3
100
AcDbEntity
  8
0
  6
Continuous
100
AcDbLine
 10
141.6205867202058
 20
142.848721118255
 30
0.0
 11
141.6111453695382
 21
142.8432650426725
 31
0.0
  0
LINE
  5
4E6
330
E3
100
AcDbEntity
  8
0
  6
Continuous
100
AcDbLine
 10
141.6111453695382
 20
142.8432650426725
 30
0.0
 11
141.6054516595623
 21
142.8378080365927
 31
0.0
  0
LINE
  5
4E7
330
E3
100
AcDbEntity
  8
0
  6
Continuous
100
AcDbLine
 10
141.6054516595623
 20
142.8378080365927
 30
0.0
 11
141.6035490086082
 21
142.8323516873863
 31
0.0
  0
LINE
  5
4E8
330
E3
100
AcDbEntity
  8
0
  6
Continuous
100
AcDbLine
 10
142.6035490086082
 20
142.6359231159578
 30
0.0
 11
142.6016463576541
 21
142.6304667667514
 31
0.0
  0
LINE
  5
4E9
330
E3
100
AcDbEntity
  8
0
  6
Continuous
100
AcDbLine
 10
142.6016463576541
 20
142.6304667667514
 30
0.0
 11
142.5959528851143
 21
142.625010417545
 31
0.0
  0
LINE
  5
4EA
330
E3
100
AcDbEntity
  8
0
  6
Continuous
100
AcDbLine
 10
142.5959528851143
 20
142.625010417545
 30
0.0
 11
142.5865126620117
 21
142.6195548013622
 31
0.0
  0
LINE
  5
4EB
330
E3
100
AcDbEntity
  8
0
  6
Continuous
100
AcDbLine
 10
142.5865126620117
 20
142.6195548013622
 30
0.0
 11
142.5733943101006
 21
142.6140987257797
 31
0.0
  0
LINE
  5
4EC
330
E3
100
AcDbEntity
  8
0
  6
Continuous
100
AcDbLine
 10
142.5733943101006
 20
142.6140987257797
 30
0.0
 11
142.5567029529408
 21
142.6086426501972
 31
0.0
  0
LINE
  5
4ED
330
E3
100
AcDbEntity
  8
0
  6
Continuous
100
AcDbLine
 10
142.5567029529408
 20
142.6086426501972
 30
0.0
 11
142.5365611572404
 21
142.6031865746147
 31
0.0
  0
LINE
  5
4EE
330
E3
100
AcDbEntity
  8
0
  6
Continuous
100
AcDbLine
 10
142.5365611572404
 20
142.6031865746147
 30
0.0
 11
142.5131249169916
 21
142.5977304990323
 31
0.0
  0
LINE
  5
4EF
330
E3
100
AcDbEntity
  8
0
  6
Continuous
100
AcDbLine
 10
142.5131249169916
 20
142.5977304990323
 30
0.0
 11
142.4865725110425
 21
142.5922707093071
 31
0.0
  0
LINE
  5
4F0
330
E3
100
AcDbEntity
  8
0
  6
Continuous
100
AcDbLine
 10
142.4865725110425
 20
142.5922707093071
 30
0.0
 11
142.4571007889546
 21
142.5868146337246
 31
0.0
  0
LINE
  5
4F1
330
E3
100
AcDbEntity
  8
0
  6
Continuous
100
AcDbLine
 10
142.4571007889546
 20
142.5868146337246
 30
0.0
 11
142.4249437417162
 21
142.5813585581421
 31
0.0
  0
LINE
  5
4F2
330
E3
100
AcDbEntity
  8
0
  6
Continuous
100
AcDbLine
 10
142.4249437417162
 20
142.5813585581421
 30
0.0
 11
142.3903390744581
 21
142.5759024825596
 31
0.0
  0
LINE
  5
4F3
330
E3
100
AcDbEntity
  8
0
  6
Continuous
100
AcDbLine
 10
142.3903390744581
 20
142.5759024825596
 30
0.0
 11
142.3535504913099
 21
142.5704464069771
 31
0.0
  0
LINE
  5
4F4
330
E3
100
AcDbEntity
  8
0
  6
Continuous
100
AcDbLine
 10
142.3535504913099
 20
142.5704464069771
 30
0.0
 11
142.314856552972
 21
142.5649903313946
 31
0.0
  0
LINE
  5
4F5
330
E3
100
AcDbEntity
  8
0
  6
Continuous
100
AcDbLine
 10
142.314856552972
 20
142.5649903313946
 30
0.0
 11
142.2745581050005
 21
142.5595342558121
 31
0.0
  0
LINE
  5
4F6
330
E3
100
AcDbEntity
  8
0
  6
Continuous
100
AcDbLine
 10
142.2745581050005
 20
142.5595342558121
 30
0.0
 11
142.2329597070945
 21
142.5540781802296
 31
0.0
  0
LINE
  5
4F7
330
E3
100
AcDbEntity
  8
0
  6
Continuous
100
AcDbLine
 10
142.2329597070945
 20
142.5540781802296
 30
0.0
 11
142.1903733472382
 21
142.5486221046471
 31
0.0
  0
LINE
  5
4F8
330
E3
100
AcDbEntity
  8
0
  6
Continuous
100
AcDbLine
 10
142.1903733472382
 20
142.5486221046471
 30
0.0
 11
142.1471258699866
 21
142.5431660290646
 31
0.0
  0
LINE
  5
4F9
330
E3
100
AcDbEntity
  8
0
  6
Continuous
100
AcDbLine
 10
142.1471258699866
 20
142.5431660290646
 30
0.0
 11
142.1035478340374
 21
142.5377099534821
 31
0.0
  0
LINE
  5
4FA
330
E3
100
AcDbEntity
  8
0
  6
Continuous
100
AcDbLine
 10
142.1035478340374
 20
142.5377099534821
 30
0.0
 11
142.0599697980882
 21
142.5322538778996
 31
0.0
  0
LINE
  5
4FB
330
E3
100
AcDbEntity
  8
0
  6
Continuous
100
AcDbLine
 10
142.0599697980882
 20
142.5322538778996
 30
0.0
 11
142.0167260349793
 21
142.5267978023171
 31
0.0
  0
LINE
  5
4FC
330
E3
100
AcDbEntity
  8
0
  6
Continuous
100
AcDbLine
 10
142.0167260349793
 20
142.5267978023171
 30
0.0
 11
141.974139675123
 21
142.521338012592
 31
0.0
  0
LINE
  5
4FD
330
E3
100
AcDbEntity
  8
0
  6
Continuous
100
AcDbLine
 10
141.974139675123
 20
142.521338012592
 30
0.0
 11
141.9325375630743
 21
142.5158819370095
 31
0.0
  0
LINE
  5
4FE
330
E3
100
AcDbEntity
  8
0
  6
Continuous
100
AcDbLine
 10
141.9325375630743
 20
142.5158819370095
 30
0.0
 11
141.8922391151028
 21
142.510425861427
 31
0.0
  0
LINE
  5
4FF
330
E3
100
AcDbEntity
  8
0
  6
Continuous
100
AcDbLine
 10
141.8922391151028
 20
142.510425861427
 30
0.0
 11
141.8535488909075
 21
142.5049697858445
 31
0.0
  0
LINE
  5
500
330
E3
100
AcDbEntity
  8
0
  6
Continuous
100
AcDbLine
 10
141.8535488909075
 20
142.5049697858445
 30
0.0
 11
141.8167603077594
 21
142.499513710262
 31
0.0
  0
LINE
  5
501
330
E3
100
AcDbEntity
  8
0
  6
Continuous
100
AcDbLine
 10
141.8167603077594
 20
142.499513710262
 30
0.0
 11
141.7821556405013
 21
142.4940576346795
 31
0.0
  0
LINE
  5
502
330
E3
100
AcDbEntity
  8
0
  6
Continuous
100
AcDbLine
 10
141.7821556405013
 20
142.4940576346795
 30
0.0
 11
141.7499948791202
 21
142.488601559097
 31
0.0
  0
LINE
  5
503
330
E3
100
AcDbEntity
  8
0
  6
Continuous
100
AcDbLine
 10
141.7499948791202
 20
142.488601559097
 30
0.0
 11
141.720526871175
 21
142.4831454835145
 31
0.0
  0
LINE
  5
504
330
E3
100
AcDbEntity
  8
0
  6
Continuous
100
AcDbLine
 10
141.720526871175
 20
142.4831454835145
 30
0.0
 11
141.6939744652259
 21
142.477689407932
 31
0.0
  0
LINE
  5
505
330
E3
100
AcDbEntity
  8
0
  6
Continuous
100
AcDbLine
 10
141.6939744652259
 20
142.477689407932
 30
0.0
 11
141.6705345108344
 21
142.4722333323495
 31
0.0
  0
LINE
  5
506
330
E3
100
AcDbEntity
  8
0
  6
Continuous
100
AcDbLine
 10
141.6705345108344
 20
142.4722333323495
 30
0.0
 11
141.6503964292767
 21
142.466777256767
 31
0.0
  0
LINE
  5
507
330
E3
100
AcDbEntity
  8
0
  6
Continuous
100
AcDbLine
 10
141.6503964292767
 20
142.466777256767
 30
0.0
 11
141.6337013579742
 21
142.4613211811845
 31
0.0
  0
LINE
  5
508
330
E3
100
AcDbEntity
  8
0
  6
Continuous
100
AcDbLine
 10
141.6337013579742
 20
142.4613211811845
 30
0.0
 11
141.6205867202058
 21
142.455865105602
 31
0.0
  0
LINE
  5
509
330
E3
100
AcDbEntity
  8
0
  6
Continuous
100
AcDbLine
 10
141.6205867202058
 20
142.455865105602
 30
0.0
 11
141.6111453695382
 21
142.4504090300195
 31
0.0
  0
LINE
  5
50A
330
E3
100
AcDbEntity
  8
0
  6
Continuous
100
AcDbLine
 10
141.6111453695382
 20
142.4504090300195
 30
0.0
 11
141.6054516595623
 21
142.4449508937356
 31
0.0
  0
LINE
  5
50B
330
E3
100
AcDbEntity
  8
0
  6
Continuous
100
AcDbLine
 10
141.6054516595623
 20
142.4449508937356
 30
0.0
 11
141.6035490086082
 21
142.4394945445292
 31
0.0
  0
LINE
  5
50C
330
E3
100
AcDbEntity
  8
0
  6
Continuous
100
AcDbLine
 10
142.6035490086082
 20
142.2430659731006
 30
0.0
 11
142.6016463576541
 21
142.2376096238943
 31
0.0
  0
LINE
  5
50D
330
E3
100
AcDbEntity
  8
0
  6
Continuous
100
AcDbLine
 10
142.6016463576541
 20
142.2376096238943
 30
0.0
 11
142.5959528851143
 21
142.2321532746879
 31
0.0
  0
LINE
  5
50E
330
E3
100
AcDbEntity
  8
0
  6
Continuous
100
AcDbLine
 10
142.5959528851143
 20
142.2321532746879
 30
0.0
 11
142.5865126620117
 21
142.2266950745665
 31
0.0
  0
LINE
  5
50F
330
E3
100
AcDbEntity
  8
0
  6
Continuous
100
AcDbLine
 10
142.5865126620117
 20
142.2266950745665
 30
0.0
 11
142.5733943101006
 21
142.221238998984
 31
0.0
  0
LINE
  5
510
330
E3
100
AcDbEntity
  8
0
  6
Continuous
100
AcDbLine
 10
142.5733943101006
 20
142.221238998984
 30
0.0
 11
142.5567029529408
 21
142.2157829234015
 31
0.0
  0
LINE
  5
511
330
E3
100
AcDbEntity
  8
0
  6
Continuous
100
AcDbLine
 10
142.5567029529408
 20
142.2157829234015
 30
0.0
 11
142.5365611572404
 21
142.210326847819
 31
0.0
  0
LINE
  5
512
330
E3
100
AcDbEntity
  8
0
  6
Continuous
100
AcDbLine
 10
142.5365611572404
 20
142.210326847819
 30
0.0
 11
142.5131249169916
 21
142.2048707722365
 31
0.0
  0
LINE
  5
513
330
E3
100
AcDbEntity
  8
0
  6
Continuous
100
AcDbLine
 10
142.5131249169916
 20
142.2048707722365
 30
0.0
 11
142.4865725110425
 21
142.199414696654
 31
0.0
  0
LINE
  5
514
330
E3
100
AcDbEntity
  8
0
  6
Continuous
100
AcDbLine
 10
142.4865725110425
 20
142.199414696654
 30
0.0
 11
142.4571007889546
 21
142.1939586210716
 31
0.0
  0
LINE
  5
515
330
E3
100
AcDbEntity
  8
0
  6
Continuous
100
AcDbLine
 10
142.4571007889546
 20
142.1939586210716
 30
0.0
 11
142.4249437417162
 21
142.1885025454891
 31
0.0
  0
LINE
  5
516
330
E3
100
AcDbEntity
  8
0
  6
Continuous
100
AcDbLine
 10
142.4249437417162
 20
142.1885025454891
 30
0.0
 11
142.3903390744581
 21
142.1830464699066
 31
0.0
  0
LINE
  5
517
330
E3
100
AcDbEntity
  8
0
  6
Continuous
100
AcDbLine
 10
142.3903390744581
 20
142.1830464699066
 30
0.0
 11
142.3535504913099
 21
142.1775903943241
 31
0.0
  0
LINE
  5
518
330
E3
100
AcDbEntity
  8
0
  6
Continuous
100
AcDbLine
 10
142.3535504913099
 20
142.1775903943241
 30
0.0
 11
142.314856552972
 21
142.1721343187416
 31
0.0
  0
LINE
  5
519
330
E3
100
AcDbEntity
  8
0
  6
Continuous
100
AcDbLine
 10
142.314856552972
 20
142.1721343187416
 30
0.0
 11
142.2745581050005
 21
142.1666782431591
 31
0.0
  0
LINE
  5
51A
330
E3
100
AcDbEntity
  8
0
  6
Continuous
100
AcDbLine
 10
142.2745581050005
 20
142.1666782431591
 30
0.0
 11
142.2329597070945
 21
142.1612221675766
 31
0.0
  0
LINE
  5
51B
330
E3
100
AcDbEntity
  8
0
  6
Continuous
100
AcDbLine
 10
142.2329597070945
 20
142.1612221675766
 30
0.0
 11
142.1903733472382
 21
142.1557660919941
 31
0.0
  0
LINE
  5
51C
330
E3
100
AcDbEntity
  8
0
  6
Continuous
100
AcDbLine
 10
142.1903733472382
 20
142.1557660919941
 30
0.0
 11
142.1471258699866
 21
142.1503063022689
 31
0.0
  0
LINE
  5
51D
330
E3
100
AcDbEntity
  8
0
  6
Continuous
100
AcDbLine
 10
142.1471258699866
 20
142.1503063022689
 30
0.0
 11
142.1035478340374
 21
142.1448502266864
 31
0.0
  0
LINE
  5
51E
330
E3
100
AcDbEntity
  8
0
  6
Continuous
100
AcDbLine
 10
142.1035478340374
 20
142.1448502266864
 30
0.0
 11
142.0599697980882
 21
142.1393941511039
 31
0.0
  0
LINE
  5
51F
330
E3
100
AcDbEntity
  8
0
  6
Continuous
100
AcDbLine
 10
142.0599697980882
 20
142.1393941511039
 30
0.0
 11
142.0167260349793
 21
142.1339380755214
 31
0.0
  0
LINE
  5
520
330
E3
100
AcDbEntity
  8
0
  6
Continuous
100
AcDbLine
 10
142.0167260349793
 20
142.1339380755214
 30
0.0
 11
141.974139675123
 21
142.1284819999389
 31
0.0
  0
LINE
  5
521
330
E3
100
AcDbEntity
  8
0
  6
Continuous
100
AcDbLine
 10
141.974139675123
 20
142.1284819999389
 30
0.0
 11
141.9325375630743
 21
142.1230259243564
 31
0.0
  0
LINE
  5
522
330
E3
100
AcDbEntity
  8
0
  6
Continuous
100
AcDbLine
 10
141.9325375630743
 20
142.1230259243564
 30
0.0
 11
141.8922391151028
 21
142.117569848774
 31
0.0
  0
LINE
  5
523
330
E3
100
AcDbEntity
  8
0
  6
Continuous
100
AcDbLine
 10
141.8922391151028
 20
142.117569848774
 30
0.0
 11
141.8535488909075
 21
142.1121137731915
 31
0.0
  0
LINE
  5
524
330
E3
100
AcDbEntity
  8
0
  6
Continuous
100
AcDbLine
 10
141.8535488909075
 20
142.1121137731915
 30
0.0
 11
141.8167603077594
 21
142.106657697609
 31
0.0
  0
LINE
  5
525
330
E3
100
AcDbEntity
  8
0
  6
Continuous
100
AcDbLine
 10
141.8167603077594
 20
142.106657697609
 30
0.0
 11
141.7821556405013
 21
142.1012016220265
 31
0.0
  0
LINE
  5
526
330
E3
100
AcDbEntity
  8
0
  6
Continuous
100
AcDbLine
 10
141.7821556405013
 20
142.1012016220265
 30
0.0
 11
141.7499948791202
 21
142.095745546444
 31
0.0
  0
LINE
  5
527
330
E3
100
AcDbEntity
  8
0
  6
Continuous
100
AcDbLine
 10
141.7499948791202
 20
142.095745546444
 30
0.0
 11
141.720526871175
 21
142.0902894708615
 31
0.0
  0
LINE
  5
528
330
E3
100
AcDbEntity
  8
0
  6
Continuous
100
AcDbLine
 10
141.720526871175
 20
142.0902894708615
 30
0.0
 11
141.6939744652259
 21
142.084833395279
 31
0.0
  0
LINE
  5
529
330
E3
100
AcDbEntity
  8
0
  6
Continuous
100
AcDbLine
 10
141.6939744652259
 20
142.084833395279
 30
0.0
 11
141.6705345108344
 21
142.0793773196965
 31
0.0
  0
LINE
  5
52A
330
E3
100
AcDbEntity
  8
0
  6
Continuous
100
AcDbLine
 10
141.6705345108344
 20
142.0793773196965
 30
0.0
 11
141.6503964292767
 21
142.0739175299713
 31
0.0
  0
LINE
  5
52B
330
E3
100
AcDbEntity
  8
0
  6
Continuous
100
AcDbLine
 10
141.6503964292767
 20
142.0739175299713
 30
0.0
 11
141.6337013579742
 21
142.0684614543889
 31
0.0
  0
LINE
  5
52C
330
E3
100
AcDbEntity
  8
0
  6
Continuous
100
AcDbLine
 10
141.6337013579742
 20
142.0684614543889
 30
0.0
 11
141.6205867202058
 21
142.0630053788063
 31
0.0
  0
LINE
  5
52D
330
E3
100
AcDbEntity
  8
0
  6
Continuous
100
AcDbLine
 10
141.6205867202058
 20
142.0630053788063
 30
0.0
 11
141.6111453695382
 21
142.0575493032239
 31
0.0
  0
LINE
  5
52E
330
E3
100
AcDbEntity
  8
0
  6
Continuous
100
AcDbLine
 10
141.6111453695382
 20
142.0575493032239
 30
0.0
 11
141.6054516595623
 21
142.0520937508784
 31
0.0
  0
LINE
  5
52F
330
E3
100
AcDbEntity
  8
0
  6
Continuous
100
AcDbLine
 10
141.6054516595623
 20
142.0520937508784
 30
0.0
 11
141.6035490086082
 21
142.0466374016721
 31
0.0
  0
LINE
  5
530
330
E3
100
AcDbEntity
  8
0
  6
Continuous
100
AcDbLine
 10
142.6035490086082
 20
141.8502088302435
 30
0.0
 11
142.6016463576541
 21
141.8447524810371
 31
0.0
  0
LINE
  5
531
330
E3
100
AcDbEntity
  8
0
  6
Continuous
100
AcDbLine
 10
142.6016463576541
 20
141.8447524810371
 30
0.0
 11
142.5959528851143
 21
141.8392961318308
 31
0.0
  0
LINE
  5
532
330
E3
100
AcDbEntity
  8
0
  6
Continuous
100
AcDbLine
 10
142.5959528851143
 20
141.8392961318308
 30
0.0
 11
142.5865126620117
 21
141.8338390619135
 31
0.0
  0
LINE
  5
533
330
E3
100
AcDbEntity
  8
0
  6
Continuous
100
AcDbLine
 10
142.5865126620117
 20
141.8338390619135
 30
0.0
 11
142.5733943101006
 21
141.828382986331
 31
0.0
  0
LINE
  5
534
330
E3
100
AcDbEntity
  8
0
  6
Continuous
100
AcDbLine
 10
142.5733943101006
 20
141.828382986331
 30
0.0
 11
142.5567029529408
 21
141.8229269107485
 31
0.0
  0
LINE
  5
535
330
E3
100
AcDbEntity
  8
0
  6
Continuous
100
AcDbLine
 10
142.5567029529408
 20
141.8229269107485
 30
0.0
 11
142.5365611572404
 21
141.817470835166
 31
0.0
  0
LINE
  5
536
330
E3
100
AcDbEntity
  8
0
  6
Continuous
100
AcDbLine
 10
142.5365611572404
 20
141.817470835166
 30
0.0
 11
142.5131249169916
 21
141.8120147595835
 31
0.0
  0
LINE
  5
537
330
E3
100
AcDbEntity
  8
0
  6
Continuous
100
AcDbLine
 10
142.5131249169916
 20
141.8120147595835
 30
0.0
 11
142.4865725110425
 21
141.8065586840011
 31
0.0
  0
LINE
  5
538
330
E3
100
AcDbEntity
  8
0
  6
Continuous
100
AcDbLine
 10
142.4865725110425
 20
141.8065586840011
 30
0.0
 11
142.4571007889546
 21
141.8011026084185
 31
0.0
  0
LINE
  5
539
330
E3
100
AcDbEntity
  8
0
  6
Continuous
100
AcDbLine
 10
142.4571007889546
 20
141.8011026084185
 30
0.0
 11
142.4249437417162
 21
141.7956465328361
 31
0.0
  0
LINE
  5
53A
330
E3
100
AcDbEntity
  8
0
  6
Continuous
100
AcDbLine
 10
142.4249437417162
 20
141.7956465328361
 30
0.0
 11
142.3903390744581
 21
141.7901904572535
 31
0.0
  0
LINE
  5
53B
330
E3
100
AcDbEntity
  8
0
  6
Continuous
100
AcDbLine
 10
142.3903390744581
 20
141.7901904572535
 30
0.0
 11
142.3535504913099
 21
141.7847343816711
 31
0.0
  0
LINE
  5
53C
330
E3
100
AcDbEntity
  8
0
  6
Continuous
100
AcDbLine
 10
142.3535504913099
 20
141.7847343816711
 30
0.0
 11
142.314856552972
 21
141.7792745919459
 31
0.0
  0
LINE
  5
53D
330
E3
100
AcDbEntity
  8
0
  6
Continuous
100
AcDbLine
 10
142.314856552972
 20
141.7792745919459
 30
0.0
 11
142.2745581050005
 21
141.7738185163634
 31
0.0
  0
LINE
  5
53E
330
E3
100
AcDbEntity
  8
0
  6
Continuous
100
AcDbLine
 10
142.2745581050005
 20
141.7738185163634
 30
0.0
 11
142.2329597070945
 21
141.7683624407809
 31
0.0
  0
LINE
  5
53F
330
E3
100
AcDbEntity
  8
0
  6
Continuous
100
AcDbLine
 10
142.2329597070945
 20
141.7683624407809
 30
0.0
 11
142.1903733472382
 21
141.7629063651984
 31
0.0
  0
LINE
  5
540
330
E3
100
AcDbEntity
  8
0
  6
Continuous
100
AcDbLine
 10
142.1903733472382
 20
141.7629063651984
 30
0.0
 11
142.1471258699866
 21
141.7574502896159
 31
0.0
  0
LINE
  5
541
330
E3
100
AcDbEntity
  8
0
  6
Continuous
100
AcDbLine
 10
142.1471258699866
 20
141.7574502896159
 30
0.0
 11
142.1035478340374
 21
141.7519942140334
 31
0.0
  0
LINE
  5
542
330
E3
100
AcDbEntity
  8
0
  6
Continuous
100
AcDbLine
 10
142.1035478340374
 20
141.7519942140334
 30
0.0
 11
142.0599697980882
 21
141.7465381384509
 31
0.0
  0
LINE
  5
543
330
E3
100
AcDbEntity
  8
0
  6
Continuous
100
AcDbLine
 10
142.0599697980882
 20
141.7465381384509
 30
0.0
 11
142.0167260349793
 21
141.7410820628684
 31
0.0
  0
LINE
  5
544
330
E3
100
AcDbEntity
  8
0
  6
Continuous
100
AcDbLine
 10
142.0167260349793
 20
141.7410820628684
 30
0.0
 11
141.974139675123
 21
141.7356259872859
 31
0.0
  0
LINE
  5
545
330
E3
100
AcDbEntity
  8
0
  6
Continuous
100
AcDbLine
 10
141.974139675123
 20
141.7356259872859
 30
0.0
 11
141.9325375630743
 21
141.7301699117034
 31
0.0
  0
LINE
  5
546
330
E3
100
AcDbEntity
  8
0
  6
Continuous
100
AcDbLine
 10
141.9325375630743
 20
141.7301699117034
 30
0.0
 11
141.8922391151028
 21
141.7247138361209
 31
0.0
  0
LINE
  5
547
330
E3
100
AcDbEntity
  8
0
  6
Continuous
100
AcDbLine
 10
141.8922391151028
 20
141.7247138361209
 30
0.0
 11
141.8535488909075
 21
141.7192577605385
 31
0.0
  0
LINE
  5
548
330
E3
100
AcDbEntity
  8
0
  6
Continuous
100
AcDbLine
 10
141.8535488909075
 20
141.7192577605385
 30
0.0
 11
141.8167603077594
 21
141.713801684956
 31
0.0
  0
LINE
  5
549
330
E3
100
AcDbEntity
  8
0
  6
Continuous
100
AcDbLine
 10
141.8167603077594
 20
141.713801684956
 30
0.0
 11
141.7821556405013
 21
141.7083418952308
 31
0.0
  0
LINE
  5
54A
330
E3
100
AcDbEntity
  8
0
  6
Continuous
100
AcDbLine
 10
141.7821556405013
 20
141.7083418952308
 30
0.0
 11
141.7499948791202
 21
141.7028858196483
 31
0.0
  0
LINE
  5
54B
330
E3
100
AcDbEntity
  8
0
  6
Continuous
100
AcDbLine
 10
141.7499948791202
 20
141.7028858196483
 30
0.0
 11
141.720526871175
 21
141.6974297440658
 31
0.0
  0
LINE
  5
54C
330
E3
100
AcDbEntity
  8
0
  6
Continuous
100
AcDbLine
 10
141.720526871175
 20
141.6974297440658
 30
0.0
 11
141.6939744652259
 21
141.6919736684833
 31
0.0
  0
LINE
  5
54D
330
E3
100
AcDbEntity
  8
0
  6
Continuous
100
AcDbLine
 10
141.6939744652259
 20
141.6919736684833
 30
0.0
 11
141.6705345108344
 21
141.6865175929008
 31
0.0
  0
LINE
  5
54E
330
E3
100
AcDbEntity
  8
0
  6
Continuous
100
AcDbLine
 10
141.6705345108344
 20
141.6865175929008
 30
0.0
 11
141.6503964292767
 21
141.6810615173183
 31
0.0
  0
LINE
  5
54F
330
E3
100
AcDbEntity
  8
0
  6
Continuous
100
AcDbLine
 10
141.6503964292767
 20
141.6810615173183
 30
0.0
 11
141.6337013579742
 21
141.6756054417358
 31
0.0
  0
LINE
  5
550
330
E3
100
AcDbEntity
  8
0
  6
Continuous
100
AcDbLine
 10
141.6337013579742
 20
141.6756054417358
 30
0.0
 11
141.6205867202058
 21
141.6701493661533
 31
0.0
  0
LINE
  5
551
330
E3
100
AcDbEntity
  8
0
  6
Continuous
100
AcDbLine
 10
141.6205867202058
 20
141.6701493661533
 30
0.0
 11
141.6111453695382
 21
141.6646932905708
 31
0.0
  0
LINE
  5
552
330
E3
100
AcDbEntity
  8
0
  6
Dashed
100
AcDbLine
 10
140.7652085208352
 20
153.2464709517111
 30
0.0
 11
143.473019091101
 21
153.2464709517111
 31
0.0
  0
MTEXT
  5
553
330
E3
100
AcDbEntity
  8
Doc_ Floor
  6
Continuous
100
AcDbMText
 10
176.3519031885514
 20
137.4547558577829
 30
0.0
 40
2.5
 41
0.0
 71
     4
 72
     1
  1
{ROOF FIXING}
  7
GENERATED_STYLE_1
 73
     1
 44
1.0
  0
LINE
  5
554
330
E3
100
AcDbEntity
  8
Doc_ Floor
  6
Continuous
100
AcDbLine
 10
148.934606461319
 20
141.7947217113112
 30
0.0
 11
152.7983028002571
 21
141.7902387411083
 31
0.0
  0
LINE
  5
555
330
E3
100
AcDbEntity
  8
Doc_ Floor
  6
Continuous
100
AcDbLine
 10
148.934606461319
 20
141.7947217113112
 30
0.0
 11
152.2784268224266
 21
139.8589885486091
 31
0.0
  0
LINE
  5
556
330
E3
100
AcDbEntity
  8
Doc_ Floor
  6
Continuous
100
AcDbLine
 10
152.7983028002571
 20
141.7902387411083
 30
0.0
 11
152.2784268224266
 21
139.8589885486091
 31
0.0
  0
LWPOLYLINE
  5
557
330
E3
100
AcDbEntity
  8
Doc_ Floor
  6
Continuous
100
AcDbPolyline
 90
        6
 70
   128
 43
0.0
 10
152.538365457799
 20
140.8246144885024
 10
159.1145217082085
 20
139.2504457247338
 10
164.8152015568043
 20
138.2152382387
 10
167.4748762007344
 20
137.877230861254
 10
170.0808477885857
 20
137.6469468669463
 10
175.3519031885514
 20
137.4735264460182
  0
ENDBLK
  5
E5
330
E3
100
AcDbEntity
  8
0
100
AcDbBlockEnd
  0
BLOCK
  5
55D
330
55C
100
AcDbEntity
  8
0
100
AcDbBlockBegin
  2
R-TRS6-07 BARGE DETAIL - SIDE_STORY_MARKER
 70
     0
 10
0.0
 20
0.0
 30
0.0
  3
R-TRS6-07 BARGE DETAIL - SIDE_STORY_MARKER
  1

  0
ENDBLK
  5
55E
330
55C
100
AcDbEntity
  8
0
100
AcDbBlockEnd
  0
ENDSEC
  0
SECTION
  2
ENTITIES
  0
HATCH
  5
3F
330
1F
100
AcDbEntity
  8
Doc_ Finishes
  6
Continuous
100
AcDbHatch
 10
0.0
 20
0.0
 30
0.0
210
0.0
220
0.0
230
1.0
  2
SOLID
 70
     1
 71
     0
 91
        1
 92
        3
 72
     0
 73
     1
 93
       54
 10
27.4117749414874
 20
16.87044408857867
 10
26.89356552397386
 20
16.5825499677378
 10
26.5480925789648
 20
16.29465584689693
 10
26.12584786839819
 20
16.02595466744544
 10
25.76118198199976
 20
15.60370995687884
 10
25.39651609560134
 20
15.33500877742737
 10
25.07023609198168
 20
14.89357112547136
 10
24.49444785029994
 20
14.45213347351537
 10
23.93785255000758
 20
14.02988876294876
 10
23.43883607388344
 20
13.81876640766546
 10
22.74789018386533
 20
13.39652169709885
 10
22.09533017662603
 20
12.99346992792163
 10
21.63469958328064
 20
12.55203227596564
 10
20.90536781048376
 20
12.12978756539902
 10
20.59828074825351
 20
11.7459287376112
 10
20.04168544796116
 20
11.28529814426581
 10
19.36993249933246
 20
10.8630534336992
 10
18.73656543348255
 20
10.42161578174319
 10
18.04561954346447
 20
10.15291460229172
 10
17.1051654153843
 20
9.692284008946325
 10
16.39502658397681
 20
9.020531060317637
 10
15.83843128368446
 20
8.598286349751023
 10
15.12829245227699
 20
8.137655756405634
 10
14.84039833143612
 20
7.98411222529051
 10
14.37976773809073
 20
7.81137575278599
 10
14.07268067586046
 20
7.523481631945121
 10
14.0151018516923
 20
7.216394569714853
 10
14.14945244141803
 20
6.890114566095209
 10
14.4373465622589
 20
6.563834562475543
 10
14.8787842142149
 20
6.659799269422514
 10
15.51215128006482
 20
7.06285103859973
 10
16.01116775618899
 20
7.389131042219374
 10
16.33744775980864
 20
7.696218104449641
 10
16.51018423231316
 20
7.907340459732938
 10
17.01303929671522
 20
8.421711288968723
 10
17.33548071205699
 20
8.652026585641417
 10
17.75004824606785
 20
8.99749953065046
 10
18.14158425041142
 20
9.204783297655894
 10
19.24709767444037
 20
9.75754000967037
 10
20.23745345013295
 20
10.47151742935572
 10
21.4120614631637
 20
11.1624633193738
 10
21.84966052684182
 20
11.64612544238645
 10
22.49454335752537
 20
12.06069297639732
 10
23.78430901889248
 20
12.9819541630881
 10
24.3600972605742
 20
13.25833251909534
 10
25.6498629219413
 20
14.24868829478776
 10
25.85714668894673
 20
14.64022429913134
 10
26.68628175696843
 20
15.23904407048036
 10
27.28510152831745
 20
15.72270619349301
 10
27.81482671066464
 20
16.1142421978366
 10
28.27545730401003
 20
16.52880973184745
 10
28.22939424467549
 20
16.7821565581874
 10
28.09120506667188
 20
16.89731420652375
 10
27.56147988432467
 20
16.89731420652375
 97
        0
 75
     0
 76
     1
 98
        0
  0
LINE
  5
41
330
1F
100
AcDbEntity
  8
Doc_ Finishes
  6
Continuous
100
AcDbLine
 10
27.41177566876475
 20
16.87044600708104
 30
0.0
 11
26.89356756490952
 21
16.58254868214004
 31
0.0
  0
LINE
  5
42
330
1F
100
AcDbEntity
  8
Doc_ Finishes
  6
Continuous
100
AcDbLine
 10
26.89356756490952
 20
16.58254868214004
 30
0.0
 11
26.54809254523997
 21
16.29465578284815
 31
0.0
  0
LINE
  5
43
330
1F
100
AcDbEntity
  8
Doc_ Finishes
  6
Continuous
100
AcDbLine
 10
26.54809254523997
 20
16.29465578284815
 30
0.0
 11
26.12584579071597
 21
16.02595249803305
 31
0.0
  0
LINE
  5
44
330
1F
100
AcDbEntity
  8
Doc_ Finishes
  6
Continuous
100
AcDbLine
 10
26.12584579071597
 20
16.02595249803305
 30
0.0
 11
25.76118115656963
 21
15.60371016915814
 31
0.0
  0
LINE
  5
45
330
1F
100
AcDbEntity
  8
Doc_ Finishes
  6
Continuous
100
AcDbLine
 10
25.76118115656963
 20
15.60371016915814
 30
0.0
 11
25.39651652242329
 21
15.33500688434304
 31
0.0
  0
LINE
  5
46
330
1F
100
AcDbEntity
  8
Doc_ Finishes
  6
Continuous
100
AcDbLine
 10
25.39651652242329
 20
15.33500688434304
 30
0.0
 11
25.07023554287962
 21
14.89357051534225
 31
0.0
  0
LINE
  5
47
330
1F
100
AcDbEntity
  8
Doc_ Finishes
  6
Continuous
100
AcDbLine
 10
25.07023554287962
 20
14.89357051534225
 30
0.0
 11
24.49444974429583
 21
14.45213414634146
 31
0.0
  0
LINE
  5
48
330
1F
100
AcDbEntity
  8
Doc_ Finishes
  6
Continuous
100
AcDbLine
 10
24.49444974429583
 20
14.45213414634146
 30
0.0
 11
23.93785356018882
 21
14.02988739181747
 31
0.0
  0
LINE
  5
49
330
1F
100
AcDbEntity
  8
Doc_ Finishes
  6
Continuous
100
AcDbLine
 10
23.93785356018882
 20
14.02988739181747
 30
0.0
 11
23.43883507081038
 21
13.81876622738001
 31
0.0
  0
LINE
  5
4A
330
1F
100
AcDbEntity
  8
Doc_ Finishes
  6
Continuous
100
AcDbLine
 10
23.43883507081038
 20
13.81876622738001
 30
0.0
 11
22.74788945712038
 21
13.39652389850511
 31
0.0
  0
LINE
  5
4B
330
1F
100
AcDbEntity
  8
Doc_ Finishes
  6
Continuous
100
AcDbLine
 10
22.74788945712038
 20
13.39652389850511
 30
0.0
 11
22.09533192368214
 21
12.993471184107
 31
0.0
  0
LINE
  5
4C
330
1F
100
AcDbEntity
  8
Doc_ Finishes
  6
Continuous
100
AcDbLine
 10
22.09533192368214
 20
12.993471184107
 30
0.0
 11
21.63470151455547
 21
12.55203038945712
 31
0.0
  0
LINE
  5
4D
330
1F
100
AcDbEntity
  8
Doc_ Finishes
  6
Continuous
100
AcDbLine
 10
21.63470151455547
 20
12.55203038945712
 30
0.0
 11
20.90536782061369
 21
12.12978806058222
 31
0.0
  0
LINE
  5
4E
330
1F
100
AcDbEntity
  8
Doc_ Finishes
  6
Continuous
100
AcDbLine
 10
20.90536782061369
 20
12.12978806058222
 30
0.0
 11
20.59828088119591
 21
11.74592938630999
 31
0.0
  0
LINE
  5
4F
330
1F
100
AcDbEntity
  8
Doc_ Finishes
  6
Continuous
100
AcDbLine
 10
20.59828088119591
 20
11.74592938630999
 30
0.0
 11
20.0416846970889
 21
11.28529897718332
 31
0.0
  0
LINE
  5
50
330
1F
100
AcDbEntity
  8
Doc_ Finishes
  6
Continuous
100
AcDbLine
 10
20.0416846970889
 20
11.28529897718332
 30
0.0
 11
19.36993312352478
 21
10.86305222265932
 31
0.0
  0
LINE
  5
51
330
1F
100
AcDbEntity
  8
Doc_ Finishes
  6
Continuous
100
AcDbLine
 10
19.36993312352478
 20
10.86305222265932
 30
0.0
 11
18.73656520456333
 21
10.42161585365854
 31
0.0
  0
LINE
  5
52
330
1F
100
AcDbEntity
  8
Doc_ Finishes
  6
Continuous
100
AcDbLine
 10
18.73656520456333
 20
10.42161585365854
 30
0.0
 11
18.04561959087333
 21
10.15291256884343
 31
0.0
  0
LINE
  5
53
330
1F
100
AcDbEntity
  8
Doc_ Finishes
  6
Continuous
100
AcDbLine
 10
18.04561959087333
 20
10.15291256884343
 30
0.0
 11
17.1051647324941
 21
9.692282159716758
 31
0.0
  0
LINE
  5
54
330
1F
100
AcDbEntity
  8
Doc_ Finishes
  6
Continuous
100
AcDbLine
 10
17.1051647324941
 20
9.692282159716758
 30
0.0
 11
16.3950250786782
 21
9.020530586152635
 31
0.0
  0
LINE
  5
55
330
1F
100
AcDbEntity
  8
Doc_ Finishes
  6
Continuous
100
AcDbLine
 10
16.3950250786782
 20
9.020530586152635
 30
0.0
 11
15.8384333202203
 21
8.598288257277733
 31
0.0
  0
LINE
  5
56
330
1F
100
AcDbEntity
  8
Doc_ Finishes
  6
Continuous
100
AcDbLine
 10
15.8384333202203
 20
8.598288257277733
 30
0.0
 11
15.1282936664044
 21
8.137657848151063
 31
0.0
  0
LINE
  5
57
330
1F
100
AcDbEntity
  8
Doc_ Finishes
  6
Continuous
100
AcDbLine
 10
15.1282936664044
 20
8.137657848151063
 30
0.0
 11
14.84039634146341
 21
7.984114378442171
 31
0.0
  0
LINE
  5
58
330
1F
100
AcDbEntity
  8
Doc_ Finishes
  6
Continuous
100
AcDbLine
 10
14.84039634146341
 20
7.984114378442171
 30
0.0
 11
14.37976593233674
 21
7.811376868607396
 31
0.0
  0
LINE
  5
59
330
1F
100
AcDbEntity
  8
Doc_ Finishes
  6
Continuous
100
AcDbLine
 10
14.37976593233674
 20
7.811376868607396
 30
0.0
 11
14.07267899291896
 21
7.523479543666405
 31
0.0
  0
LINE
  5
5A
330
1F
100
AcDbEntity
  8
Doc_ Finishes
  6
Continuous
100
AcDbLine
 10
14.07267899291896
 20
7.523479543666405
 30
0.0
 11
14.0151012981904
 21
7.216392604248622
 31
0.0
  0
LINE
  5
5B
330
1F
100
AcDbEntity
  8
Doc_ Finishes
  6
Continuous
100
AcDbLine
 10
14.0151012981904
 20
7.216392604248622
 30
0.0
 11
14.14945072777341
 21
6.890116050354051
 31
0.0
  0
LINE
  5
5C
330
1F
100
AcDbEntity
  8
Doc_ Finishes
  6
Continuous
100
AcDbLine
 10
14.14945072777341
 20
6.890116050354051
 30
0.0
 11
14.4373480527144
 21
6.563835070810386
 31
0.0
  0
LINE
  5
5D
330
1F
100
AcDbEntity
  8
Doc_ Finishes
  6
Continuous
100
AcDbLine
 10
14.4373480527144
 20
6.563835070810386
 30
0.0
 11
14.87878442171519
 21
6.659800845790715
 31
0.0
  0
LINE
  5
5E
330
1F
100
AcDbEntity
  8
Doc_ Finishes
  6
Continuous
100
AcDbLine
 10
14.87878442171519
 20
6.659800845790715
 30
0.0
 11
15.51215234067663
 21
7.062849134539732
 31
0.0
  0
LINE
  5
5F
330
1F
100
AcDbEntity
  8
Doc_ Finishes
  6
Continuous
100
AcDbLine
 10
15.51215234067663
 20
7.062849134539732
 30
0.0
 11
16.01116640440598
 21
7.389130114083398
 31
0.0
  0
LINE
  5
60
330
1F
100
AcDbEntity
  8
Doc_ Finishes
  6
Continuous
100
AcDbLine
 10
16.01116640440598
 20
7.389130114083398
 30
0.0
 11
16.33744738394964
 21
7.69621705350118
 31
0.0
  0
LINE
  5
61
330
1F
100
AcDbEntity
  8
Doc_ Finishes
  6
Continuous
100
AcDbLine
 10
16.33744738394964
 20
7.69621705350118
 30
0.0
 11
16.51018489378442
 21
7.907342643587726
 31
0.0
  0
LINE
  5
62
330
1F
100
AcDbEntity
  8
Doc_ Finishes
  6
Continuous
100
AcDbLine
 10
16.51018489378442
 20
7.907342643587726
 30
0.0
 11
17.0130404209284
 21
8.421709284028323
 31
0.0
  0
LINE
  5
63
330
1F
100
AcDbEntity
  8
Doc_ Finishes
  6
Continuous
100
AcDbLine
 10
17.0130404209284
 20
8.421709284028323
 30
0.0
 11
17.33547993705743
 21
8.65202448859166
 31
0.0
  0
LINE
  5
64
330
1F
100
AcDbEntity
  8
Doc_ Finishes
  6
Continuous
100
AcDbLine
 10
17.33547993705743
 20
8.65202448859166
 30
0.0
 11
17.75004819040126
 21
8.997499508261212
 31
0.0
  0
LINE
  5
65
330
1F
100
AcDbEntity
  8
Doc_ Finishes
  6
Continuous
100
AcDbLine
 10
17.75004819040126
 20
8.997499508261212
 30
0.0
 11
18.14158536585366
 21
9.204783634933122
 31
0.0
  0
LINE
  5
66
330
1F
100
AcDbEntity
  8
Doc_ Finishes
  6
Continuous
100
AcDbLine
 10
18.14158536585366
 20
9.204783634933122
 30
0.0
 11
19.24709923288749
 21
9.75753835562549
 31
0.0
  0
LINE
  5
67
330
1F
100
AcDbEntity
  8
Doc_ Finishes
  6
Continuous
100
AcDbLine
 10
19.24709923288749
 20
9.75753835562549
 30
0.0
 11
20.23745328481511
 21
10.47151947285602
 31
0.0
  0
LINE
  5
68
330
1F
100
AcDbEntity
  8
Doc_ Finishes
  6
Continuous
100
AcDbLine
 10
20.23745328481511
 20
10.47151947285602
 30
0.0
 11
21.41206038552321
 21
11.16246508654602
 31
0.0
  0
LINE
  5
69
330
1F
100
AcDbEntity
  8
Doc_ Finishes
  6
Continuous
100
AcDbLine
 10
21.41206038552321
 20
11.16246508654602
 30
0.0
 11
21.84965971675846
 21
11.64612657356412
 31
0.0
  0
LINE
  5
6A
330
1F
100
AcDbEntity
  8
Doc_ Finishes
  6
Continuous
100
AcDbLine
 10
21.84965971675846
 20
11.64612657356412
 30
0.0
 11
22.49454317466562
 21
12.06069482690795
 31
0.0
  0
LINE
  5
6B
330
1F
100
AcDbEntity
  8
Doc_ Finishes
  6
Continuous
100
AcDbLine
 10
22.49454317466562
 20
12.06069482690795
 30
0.0
 11
23.78431009047993
 21
12.98195564516129
 31
0.0
  0
LINE
  5
6C
330
1F
100
AcDbEntity
  8
Doc_ Finishes
  6
Continuous
100
AcDbLine
 10
23.78431009047993
 20
12.98195564516129
 30
0.0
 11
24.36009588906373
 21
13.25833300550747
 31
0.0
  0
LINE
  5
6D
330
1F
100
AcDbEntity
  8
Doc_ Finishes
  6
Continuous
100
AcDbLine
 10
24.36009588906373
 20
13.25833300550747
 30
0.0
 11
25.64986280487805
 21
14.24868705743509
 31
0.0
  0
LINE
  5
6E
330
1F
100
AcDbEntity
  8
Doc_ Finishes
  6
Continuous
100
AcDbLine
 10
25.64986280487805
 20
14.24868705743509
 30
0.0
 11
25.85714693154996
 21
14.64022423288749
 31
0.0
  0
LINE
  5
6F
330
1F
100
AcDbEntity
  8
Doc_ Finishes
  6
Continuous
100
AcDbLine
 10
25.85714693154996
 20
14.64022423288749
 30
0.0
 11
26.68628343823761
 21
15.2390455350118
 31
0.0
  0
LINE
  5
70
330
1F
100
AcDbEntity
  8
Doc_ Finishes
  6
Continuous
100
AcDbLine
 10
26.68628343823761
 20
15.2390455350118
 30
0.0
 11
27.28510031471282
 21
15.7227070220299
 31
0.0
  0
LINE
  5
71
330
1F
100
AcDbEntity
  8
Doc_ Finishes
  6
Continuous
100
AcDbLine
 10
27.28510031471282
 20
15.7227070220299
 30
0.0
 11
27.81482838316287
 21
16.1142441974823
 31
0.0
  0
LINE
  5
72
330
1F
100
AcDbEntity
  8
Doc_ Finishes
  6
Continuous
100
AcDbLine
 10
27.81482838316287
 20
16.1142441974823
 30
0.0
 11
28.27545879228953
 21
16.52880802517702
 31
0.0
  0
LINE
  5
73
330
1F
100
AcDbEntity
  8
Doc_ Finishes
  6
Continuous
100
AcDbLine
 10
28.27545879228953
 20
16.52880802517702
 30
0.0
 11
28.22939221085759
 21
16.78215873328088
 31
0.0
  0
LINE
  5
74
330
1F
100
AcDbEntity
  8
Doc_ Finishes
  6
Continuous
100
AcDbLine
 10
28.22939221085759
 20
16.78215873328088
 30
0.0
 11
28.09120574350905
 21
16.897314122738
 31
0.0
  0
LINE
  5
75
330
1F
100
AcDbEntity
  8
Doc_ Finishes
  6
Continuous
100
AcDbLine
 10
28.09120574350905
 20
16.897314122738
 30
0.0
 11
27.56147767505901
 21
16.897314122738
 31
0.0
  0
LINE
  5
76
330
1F
100
AcDbEntity
  8
Doc_ Finishes
  6
Continuous
100
AcDbLine
 10
27.56147767505901
 20
16.897314122738
 30
0.0
 11
27.41177566876475
 21
16.87044600708104
 31
0.0
  0
HATCH
  5
77
330
1F
100
AcDbEntity
  8
Doc_ Finishes
  6
Continuous
100
AcDbHatch
 10
0.0
 20
0.0
 30
0.0
210
0.0
220
0.0
230
1.0
  2
SOLID
 70
     1
 71
     0
 91
        1
 92
        3
 72
     0
 73
     1
 93
       39
 10
27.65360600299377
 20
13.12014334109181
 10
27.21600693931564
 20
12.77467039608275
 10
26.54809257896482
 20
12.24494521373555
 10
25.92624127794851
 20
11.85340920939199
 10
25.32742150659951
 20
11.32368402704478
 10
24.72860173525052
 20
11.04730567103754
 10
24.08371890456698
 20
10.56364354802488
 10
23.62308831122158
 20
10.33332825135219
 10
23.231552306878
 20
10.03391836567767
 10
22.81698477286715
 20
9.619350831666825
 10
22.40241723885631
 20
9.38903553499415
 10
21.91875511584363
 20
9.043562589985086
 10
21.66540828950367
 20
8.859310352646935
 10
21.25084075549282
 20
8.582931996639696
 10
20.09926427212933
 20
7.753796928618002
 10
19.75379132712029
 20
7.477418572610764
 10
19.2931607337749
 20
7.316197864939873
 10
19.22406614477309
 20
6.993756449598113
 10
19.3622553227767
 20
6.717378093590874
 10
19.63863367878394
 20
6.602220445254527
 10
20.00713815346026
 20
6.8325357419272
 10
20.26048497980021
 20
7.131945627601722
 10
20.55989486547472
 20
7.362260924274415
 10
21.31993534449462
 20
7.707733869283458
 10
21.84966052684182
 20
8.122301403294307
 10
22.88607936186895
 20
8.882341882314256
 10
23.20852077721072
 20
9.342972475659646
 10
24.01462431556515
 20
9.734508480003234
 10
24.5673810275796
 20
10.05694989534501
 10
25.46561068460312
 20
10.60970660735953
 10
25.88017821861399
 20
11.07033720070492
 10
26.31777728229212
 20
11.34671555671216
 10
26.70931328663569
 20
11.30065249737762
 10
27.21600693931562
 20
11.55399932371759
 10
28.0681735370046
 20
12.17585062473387
 10
28.41364648201364
 20
12.49829204007566
 10
28.39061495234636
 20
12.77467039608289
 10
28.22939424467547
 20
13.00498569275559
 10
28.04514200733732
 20
13.05104875209013
 97
        0
 75
     0
 76
     1
 98
        0
  0
LINE
  5
78
330
1F
100
AcDbEntity
  8
Doc_ Finishes
  6
Continuous
100
AcDbLine
 10
27.6536064122738
 20
13.12014211250983
 30
0.0
 11
27.21600708103855
 21
12.77467151848938
 31
0.0
  0
LINE
  5
79
330
1F
100
AcDbEntity
  8
Doc_ Finishes
  6
Continuous
100
AcDbLine
 10
27.21600708103855
 20
12.77467151848938
 30
0.0
 11
26.54809254523997
 21
12.24494345003934
 31
0.0
  0
LINE
  5
7A
330
1F
100
AcDbEntity
  8
Doc_ Finishes
  6
Continuous
100
AcDbLine
 10
26.54809254523997
 20
12.24494345003934
 30
0.0
 11
25.92624016522423
 21
11.85341070023603
 31
0.0
  0
LINE
  5
7B
330
1F
100
AcDbEntity
  8
Doc_ Finishes
  6
Continuous
100
AcDbLine
 10
25.92624016522423
 20
11.85341070023603
 30
0.0
 11
25.32742328874902
 21
11.32368263178599
 31
0.0
  0
LINE
  5
7C
330
1F
100
AcDbEntity
  8
Doc_ Finishes
  6
Continuous
100
AcDbLine
 10
25.32742328874902
 20
11.32368263178599
 30
0.0
 11
24.72860198662471
 21
11.04730527143981
 31
0.0
  0
LINE
  5
7D
330
1F
100
AcDbEntity
  8
Doc_ Finishes
  6
Continuous
100
AcDbLine
 10
24.72860198662471
 20
11.04730527143981
 30
0.0
 11
24.08371852871754
 21
10.56364378442171
 31
0.0
  0
LINE
  5
7E
330
1F
100
AcDbEntity
  8
Doc_ Finishes
  6
Continuous
100
AcDbLine
 10
24.08371852871754
 20
10.56364378442171
 30
0.0
 11
23.62308811959087
 21
10.33332857985838
 31
0.0
  0
LINE
  5
7F
330
1F
100
AcDbEntity
  8
Doc_ Finishes
  6
Continuous
100
AcDbLine
 10
23.62308811959087
 20
10.33332857985838
 30
0.0
 11
23.23155094413847
 21
10.03392014162077
 31
0.0
  0
LINE
  5
80
330
1F
100
AcDbEntity
  8
Doc_ Finishes
  6
Continuous
100
AcDbLine
 10
23.23155094413847
 20
10.03392014162077
 30
0.0
 11
22.81698269079465
 21
9.619351888276947
 31
0.0
  0
LINE
  5
81
330
1F
100
AcDbEntity
  8
Doc_ Finishes
  6
Continuous
100
AcDbLine
 10
22.81698269079465
 20
9.619351888276947
 30
0.0
 11
22.40241886309992
 21
9.389036683713611
 31
0.0
  0
LINE
  5
82
330
1F
100
AcDbEntity
  8
Doc_ Finishes
  6
Continuous
100
AcDbLine
 10
22.40241886309992
 20
9.389036683713611
 30
0.0
 11
21.91875295043273
 21
9.04356166404406
 31
0.0
  0
LINE
  5
83
330
1F
100
AcDbEntity
  8
Doc_ Finishes
  6
Continuous
100
AcDbLine
 10
21.91875295043273
 20
9.04356166404406
 30
0.0
 11
21.66540666797797
 21
8.859308615263572
 31
0.0
  0
LINE
  5
84
330
1F
100
AcDbEntity
  8
Doc_ Finishes
  6
Continuous
100
AcDbLine
 10
21.66540666797797
 20
8.859308615263572
 30
0.0
 11
21.25084284028324
 21
8.582931254917387
 31
0.0
  0
LINE
  5
85
330
1F
100
AcDbEntity
  8
Doc_ Finishes
  6
Continuous
100
AcDbLine
 10
21.25084284028324
 20
8.582931254917387
 30
0.0
 11
20.09926239181747
 21
7.75379474822974
 31
0.0
  0
LINE
  5
86
330
1F
100
AcDbEntity
  8
Doc_ Finishes
  6
Continuous
100
AcDbLine
 10
20.09926239181747
 20
7.75379474822974
 30
0.0
 11
19.75379179779701
 21
7.477417387883556
 31
0.0
  0
LINE
  5
87
330
1F
100
AcDbEntity
  8
Doc_ Finishes
  6
Continuous
100
AcDbLine
 10
19.75379179779701
 20
7.477417387883556
 30
0.0
 11
19.29316138867033
 21
7.316199842643588
 31
0.0
  0
LINE
  5
88
330
1F
100
AcDbEntity
  8
Doc_ Finishes
  6
Continuous
100
AcDbLine
 10
19.29316138867033
 20
7.316199842643588
 30
0.0
 11
19.22406815499606
 21
6.993755900865461
 31
0.0
  0
LINE
  5
89
330
1F
100
AcDbEntity
  8
Doc_ Finishes
  6
Continuous
100
AcDbLine
 10
19.22406815499606
 20
6.993755900865461
 30
0.0
 11
19.36225462234461
 21
6.717378540519276
 31
0.0
  0
LINE
  5
8A
330
1F
100
AcDbEntity
  8
Doc_ Finishes
  6
Continuous
100
AcDbLine
 10
19.36225462234461
 20
6.717378540519276
 30
0.0
 11
19.63863198269079
 21
6.602218725413059
 31
0.0
  0
LINE
  5
8B
330
1F
100
AcDbEntity
  8
Doc_ Finishes
  6
Continuous
100
AcDbLine
 10
19.63863198269079
 20
6.602218725413059
 30
0.0
 11
20.00713808025177
 21
6.832533929976396
 31
0.0
  0
LINE
  5
8C
330
1F
100
AcDbEntity
  8
Doc_ Finishes
  6
Continuous
100
AcDbLine
 10
20.00713808025177
 20
6.832533929976396
 30
0.0
 11
20.26048436270653
 21
7.1319467938631
 31
0.0
  0
LINE
  5
8D
330
1F
100
AcDbEntity
  8
Doc_ Finishes
  6
Continuous
100
AcDbLine
 10
20.26048436270653
 20
7.1319467938631
 30
0.0
 11
20.55989280094414
 21
7.362261998426435
 31
0.0
  0
LINE
  5
8E
330
1F
100
AcDbEntity
  8
Doc_ Finishes
  6
Continuous
100
AcDbLine
 10
20.55989280094414
 20
7.362261998426435
 30
0.0
 11
21.31993607395751
 21
7.707732592446892
 31
0.0
  0
LINE
  5
8F
330
1F
100
AcDbEntity
  8
Doc_ Finishes
  6
Continuous
100
AcDbLine
 10
21.31993607395751
 20
7.707732592446892
 30
0.0
 11
21.84965971675846
 21
8.122300845790717
 31
0.0
  0
LINE
  5
90
330
1F
100
AcDbEntity
  8
Doc_ Finishes
  6
Continuous
100
AcDbLine
 10
21.84965971675846
 20
8.122300845790717
 30
0.0
 11
22.88608035011802
 21
8.882339693154996
 31
0.0
  0
LINE
  5
91
330
1F
100
AcDbEntity
  8
Doc_ Finishes
  6
Continuous
100
AcDbLine
 10
22.88608035011802
 20
8.882339693154996
 30
0.0
 11
23.20851986624705
 21
9.342974527930762
 31
0.0
  0
LINE
  5
92
330
1F
100
AcDbEntity
  8
Doc_ Finishes
  6
Continuous
100
AcDbLine
 10
23.20851986624705
 20
9.342974527930762
 30
0.0
 11
24.01462529504327
 21
9.734507277734066
 31
0.0
  0
LINE
  5
93
330
1F
100
AcDbEntity
  8
Doc_ Finishes
  6
Continuous
100
AcDbLine
 10
24.01462529504327
 20
9.734507277734066
 30
0.0
 11
24.56738001573564
 21
10.05695121951219
 31
0.0
  0
LINE
  5
94
330
1F
100
AcDbEntity
  8
Doc_ Finishes
  6
Continuous
100
AcDbLine
 10
24.56738001573564
 20
10.05695121951219
 30
0.0
 11
25.46560975609756
 21
10.60970594020456
 31
0.0
  0
LINE
  5
95
330
1F
100
AcDbEntity
  8
Doc_ Finishes
  6
Continuous
100
AcDbLine
 10
25.46560975609756
 20
10.60970594020456
 30
0.0
 11
25.88017800944139
 21
11.07033634933124
 31
0.0
  0
LINE
  5
96
330
1F
100
AcDbEntity
  8
Doc_ Finishes
  6
Continuous
100
AcDbLine
 10
25.88017800944139
 20
11.07033634933124
 30
0.0
 11
26.31777734067663
 21
11.34671370967742
 31
0.0
  0
LINE
  5
97
330
1F
100
AcDbEntity
  8
Doc_ Finishes
  6
Continuous
100
AcDbLine
 10
26.31777734067663
 20
11.34671370967742
 30
0.0
 11
26.70931451612903
 21
11.30065155389457
 31
0.0
  0
LINE
  5
98
330
1F
100
AcDbEntity
  8
Doc_ Finishes
  6
Continuous
100
AcDbLine
 10
26.70931451612903
 20
11.30065155389457
 30
0.0
 11
27.21600708103855
 21
11.55399783634933
 31
0.0
  0
LINE
  5
99
330
1F
100
AcDbEntity
  8
Doc_ Finishes
  6
Continuous
100
AcDbLine
 10
27.21600708103855
 20
11.55399783634933
 30
0.0
 11
28.06817466561763
 21
12.17585021636507
 31
0.0
  0
LINE
  5
9A
330
1F
100
AcDbEntity
  8
Doc_ Finishes
  6
Continuous
100
AcDbLine
 10
28.06817466561763
 20
12.17585021636507
 30
0.0
 11
28.41364525963808
 21
12.49829415814319
 31
0.0
  0
LINE
  5
9B
330
1F
100
AcDbEntity
  8
Doc_ Finishes
  6
Continuous
100
AcDbLine
 10
28.41364525963808
 20
12.49829415814319
 30
0.0
 11
28.39061418174666
 21
12.77467151848938
 31
0.0
  0
LINE
  5
9C
330
1F
100
AcDbEntity
  8
Doc_ Finishes
  6
Continuous
100
AcDbLine
 10
28.39061418174666
 20
12.77467151848938
 30
0.0
 11
28.22939221085759
 21
13.00498672305271
 31
0.0
  0
LINE
  5
9D
330
1F
100
AcDbEntity
  8
Doc_ Finishes
  6
Continuous
100
AcDbLine
 10
28.22939221085759
 20
13.00498672305271
 30
0.0
 11
28.04514358772619
 21
13.05104887883556
 31
0.0
  0
LINE
  5
9E
330
1F
100
AcDbEntity
  8
Doc_ Finishes
  6
Continuous
100
AcDbLine
 10
28.04514358772619
 20
13.05104887883556
 30
0.0
 11
27.6536064122738
 21
13.12014211250983
 31
0.0
  0
HATCH
  5
9F
330
1F
100
AcDbEntity
  8
Doc_ Finishes
  6
Continuous
100
AcDbHatch
 10
0.0
 20
0.0
 30
0.0
210
0.0
220
0.0
230
1.0
  2
SOLID
 70
     1
 71
     0
 91
        1
 92
        3
 72
     0
 73
     1
 93
       47
 10
28.06817353700456
 20
15.74573772316067
 10
28.30309513961077
 20
15.62136746295728
 10
28.4412843176144
 20
15.4002647781515
 10
28.93876535842742
 20
15.17916209334572
 10
29.82317609765057
 20
14.40530269652538
 10
30.92868952167951
 20
13.74199464210799
 10
31.59199757609689
 20
13.3827027792986
 10
32.20002995931279
 20
13.07868658769064
 10
33.55428390374828
 20
12.08372450606458
 10
34.07940278016201
 20
11.69679480765445
 10
34.88090001258301
 20
11.08876242443854
 10
35.59948373820179
 20
10.50836787682334
 10
36.5668079842271
 20
9.817421986805197
 10
37.06428902504012
 20
9.458130123995785
 10
37.81051058625966
 20
8.933011247582023
 10
38.61200781868061
 20
8.407892371168286
 10
38.77783483228498
 20
8.186789686362482
 10
39.38586721550092
 20
7.744584316750918
 10
40.18736444792187
 20
6.915449248729224
 10
40.7953968311378
 20
6.44560604351692
 10
41.56925622795804
 20
6.169227687509681
 10
42.23256428237543
 20
6.086314180707507
 10
42.48130480278193
 20
6.30741686551329
 10
42.14965077557326
 20
6.611433057121246
 10
41.48634272115586
 20
6.998362755531397
 10
40.76775899553709
 20
7.357654618340788
 10
40.18736444792187
 20
8.048600508358874
 10
38.99893751709079
 20
8.822459905179112
 10
38.47381864067705
 20
9.319940945992132
 10
38.22507812027052
 20
9.734508480003
 10
37.17484036744301
 20
10.31490302761817
 10
36.73263499783144
 20
10.78474623283046
 10
36.2351539570184
 20
11.17167593124059
 10
35.48893239579888
 20
11.61388130085215
 10
34.85326217698223
 20
12.16663801286669
 10
34.35578113616919
 20
12.58120554687754
 10
33.69247308175183
 20
12.99577308088841
 10
33.22262987653953
 20
13.32742710809708
 10
32.7251488357265
 20
13.5761676285036
 10
31.93747052110588
 20
14.06443605744977
 10
31.43077686842594
 20
14.38687747279155
 10
30.92408321574601
 20
14.70931888813342
 10
30.62467333007151
 20
15.100854892477
 10
29.95675896972068
 20
15.67664313415887
 10
29.47309684670803
 20
15.9530214901661
 10
28.82821401602447
 20
16.36758902417695
 10
28.50577260068269
 20
16.22939984617334
 97
        0
 75
     0
 76
     1
 98
        0
  0
LINE
  5
A0
330
1F
100
AcDbEntity
  8
Doc_ Finishes
  6
Continuous
100
AcDbLine
 10
28.30309697088906
 20
15.62136850904799
 30
0.0
 11
28.06817466561763
 21
15.74573809992132
 31
0.0
  0
LINE
  5
A1
330
1F
100
AcDbEntity
  8
Doc_ Finishes
  6
Continuous
100
AcDbLine
 10
28.44128343823761
 20
15.40026308025177
 30
0.0
 11
28.30309697088906
 21
15.62136850904799
 31
0.0
  0
LINE
  5
A2
330
1F
100
AcDbEntity
  8
Doc_ Finishes
  6
Continuous
100
AcDbLine
 10
28.93876622738001
 20
15.17916207710464
 30
0.0
 11
28.44128343823761
 21
15.40026308025177
 31
0.0
  0
LINE
  5
A3
330
1F
100
AcDbEntity
  8
Doc_ Finishes
  6
Continuous
100
AcDbLine
 10
29.82317466561762
 20
14.40530192761605
 30
0.0
 11
28.93876622738001
 21
15.17916207710464
 31
0.0
  0
LINE
  5
A4
330
1F
100
AcDbEntity
  8
Doc_ Finishes
  6
Continuous
100
AcDbLine
 10
30.92868853265146
 20
13.74199449252557
 30
0.0
 11
29.82317466561762
 21
14.40530192761605
 31
0.0
  0
LINE
  5
A5
330
1F
100
AcDbEntity
  8
Doc_ Finishes
  6
Continuous
100
AcDbLine
 10
31.59199596774193
 20
13.3827025963808
 30
0.0
 11
30.92868853265146
 21
13.74199449252557
 31
0.0
  0
LINE
  5
A6
330
1F
100
AcDbEntity
  8
Doc_ Finishes
  6
Continuous
100
AcDbLine
 10
32.20003147128246
 20
13.07868705743509
 30
0.0
 11
31.59199596774193
 21
13.3827025963808
 31
0.0
  0
LINE
  5
A7
330
1F
100
AcDbEntity
  8
Doc_ Finishes
  6
Continuous
100
AcDbLine
 10
33.55428452006294
 20
12.08372590479937
 30
0.0
 11
32.20003147128246
 21
13.07868705743509
 31
0.0
  0
LINE
  5
A8
330
1F
100
AcDbEntity
  8
Doc_ Finishes
  6
Continuous
100
AcDbLine
 10
34.07940106215578
 20
11.69679583005508
 30
0.0
 11
33.55428452006294
 21
12.08372590479937
 31
0.0
  0
LINE
  5
A9
330
1F
100
AcDbEntity
  8
Doc_ Finishes
  6
Continuous
100
AcDbLine
 10
34.8808993902439
 20
11.08876032651456
 30
0.0
 11
34.07940106215578
 21
11.69679583005508
 31
0.0
  0
LINE
  5
AA
330
1F
100
AcDbEntity
  8
Doc_ Finishes
  6
Continuous
100
AcDbLine
 10
35.59948318253343
 20
10.50836742722266
 30
0.0
 11
34.8808993902439
 21
11.08876032651456
 31
0.0
  0
LINE
  5
AB
330
1F
100
AcDbEntity
  8
Doc_ Finishes
  6
Continuous
100
AcDbLine
 10
36.56680615656963
 20
9.817421813532652
 30
0.0
 11
35.59948318253343
 21
10.50836742722266
 31
0.0
  0
LINE
  5
AC
330
1F
100
AcDbEntity
  8
Doc_ Finishes
  6
Continuous
100
AcDbLine
 10
37.06428894571204
 20
9.458129917387884
 30
0.0
 11
36.56680615656963
 21
9.817421813532652
 31
0.0
  0
LINE
  5
AD
330
1F
100
AcDbEntity
  8
Doc_ Finishes
  6
Continuous
100
AcDbLine
 10
37.8105109166011
 20
8.933013375295044
 30
0.0
 11
37.06428894571204
 21
9.458129917387884
 31
0.0
  0
LINE
  5
AE
330
1F
100
AcDbEntity
  8
Doc_ Finishes
  6
Continuous
100
AcDbLine
 10
38.61200924468922
 20
8.407892407553108
 30
0.0
 11
37.8105109166011
 21
8.933013375295044
 31
0.0
  0
LINE
  5
AF
330
1F
100
AcDbEntity
  8
Doc_ Finishes
  6
Continuous
100
AcDbLine
 10
38.77783389063729
 20
8.18679140440598
 30
0.0
 11
38.61200924468922
 21
8.407892407553108
 31
0.0
  0
LINE
  5
B0
330
1F
100
AcDbEntity
  8
Doc_ Finishes
  6
Continuous
100
AcDbLine
 10
39.3858693941778
 20
7.744584972462627
 30
0.0
 11
38.77783389063729
 21
8.18679140440598
 31
0.0
  0
LINE
  5
B1
330
1F
100
AcDbEntity
  8
Doc_ Finishes
  6
Continuous
100
AcDbLine
 10
40.18736329661684
 20
6.915448465774981
 30
0.0
 11
39.3858693941778
 21
7.744584972462627
 31
0.0
  0
LINE
  5
B2
330
1F
100
AcDbEntity
  8
Doc_ Finishes
  6
Continuous
100
AcDbLine
 10
40.79539880015735
 20
6.4456038552321
 30
0.0
 11
40.18736329661684
 21
6.915448465774981
 31
0.0
  0
LINE
  5
B3
330
1F
100
AcDbEntity
  8
Doc_ Finishes
  6
Continuous
100
AcDbLine
 10
41.56925452399685
 20
6.169226494885916
 30
0.0
 11
40.79539880015735
 21
6.4456038552321
 31
0.0
  0
LINE
  5
B4
330
1F
100
AcDbEntity
  8
Doc_ Finishes
  6
Continuous
100
AcDbLine
 10
42.23256638473643
 20
6.086316384736428
 30
0.0
 11
41.56925452399685
 21
6.169226494885916
 31
0.0
  0
LINE
  5
B5
330
1F
100
AcDbEntity
  8
Doc_ Finishes
  6
Continuous
100
AcDbLine
 10
42.48130556648308
 20
6.307417387883556
 30
0.0
 11
42.23256638473643
 21
6.086316384736428
 31
0.0
  0
LINE
  5
B6
330
1F
100
AcDbEntity
  8
Doc_ Finishes
  6
Continuous
100
AcDbLine
 10
42.14965184893784
 20
6.611432926829268
 30
0.0
 11
42.48130556648308
 21
6.307417387883556
 31
0.0
  0
LINE
  5
B7
330
1F
100
AcDbEntity
  8
Doc_ Finishes
  6
Continuous
100
AcDbLine
 10
41.48634441384736
 20
6.998363001573564
 30
0.0
 11
42.14965184893784
 21
6.611432926829268
 31
0.0
  0
LINE
  5
B8
330
1F
100
AcDbEntity
  8
Doc_ Finishes
  6
Continuous
100
AcDbLine
 10
40.76776062155783
 20
7.357654897718332
 30
0.0
 11
41.48634441384736
 21
6.998363001573564
 31
0.0
  0
LINE
  5
B9
330
1F
100
AcDbEntity
  8
Doc_ Finishes
  6
Continuous
100
AcDbLine
 10
40.18736329661684
 20
8.048600511408338
 30
0.0
 11
40.76776062155783
 21
7.357654897718332
 31
0.0
  0
LINE
  5
BA
330
1F
100
AcDbEntity
  8
Doc_ Finishes
  6
Continuous
100
AcDbLine
 10
38.99893931943352
 20
8.822460660896931
 30
0.0
 11
40.18736329661684
 21
8.048600511408338
 31
0.0
  0
LINE
  5
BB
330
1F
100
AcDbEntity
  8
Doc_ Finishes
  6
Continuous
100
AcDbLine
 10
38.47381835169158
 20
9.319939024390242
 30
0.0
 11
38.99893931943352
 21
8.822460660896931
 31
0.0
  0
LINE
  5
BC
330
1F
100
AcDbEntity
  8
Doc_ Finishes
  6
Continuous
100
AcDbLine
 10
38.22507916994492
 20
9.734507277734066
 30
0.0
 11
38.47381835169158
 21
9.319939024390242
 31
0.0
  0
LINE
  5
BD
330
1F
100
AcDbEntity
  8
Doc_ Finishes
  6
Continuous
100
AcDbLine
 10
37.17484166011014
 20
10.31490460267506
 30
0.0
 11
38.22507916994492
 21
9.734507277734066
 31
0.0
  0
LINE
  5
BE
330
1F
100
AcDbEntity
  8
Doc_ Finishes
  6
Continuous
100
AcDbLine
 10
36.7326352281668
 20
10.78474478756884
 30
0.0
 11
37.17484166011014
 21
10.31490460267506
 31
0.0
  0
LINE
  5
BF
330
1F
100
AcDbEntity
  8
Doc_ Finishes
  6
Continuous
100
AcDbLine
 10
36.23515243902439
 20
11.17167486231314
 30
0.0
 11
36.7326352281668
 21
10.78474478756884
 31
0.0
  0
LINE
  5
C0
330
1F
100
AcDbEntity
  8
Doc_ Finishes
  6
Continuous
100
AcDbLine
 10
35.48893046813532
 20
11.61388129425649
 30
0.0
 11
36.23515243902439
 21
11.17167486231314
 31
0.0
  0
LINE
  5
C1
330
1F
100
AcDbEntity
  8
Doc_ Finishes
  6
Continuous
100
AcDbLine
 10
34.85326121164437
 20
12.16663601494886
 30
0.0
 11
35.48893046813532
 21
11.61388129425649
 31
0.0
  0
LINE
  5
C2
330
1F
100
AcDbEntity
  8
Doc_ Finishes
  6
Continuous
100
AcDbLine
 10
34.35578284815106
 20
12.58120426829268
 30
0.0
 11
34.85326121164437
 21
12.16663601494886
 31
0.0
  0
LINE
  5
C3
330
1F
100
AcDbEntity
  8
Doc_ Finishes
  6
Continuous
100
AcDbLine
 10
33.69247098741149
 20
12.99577252163651
 30
0.0
 11
34.35578284815106
 21
12.58120426829268
 31
0.0
  0
LINE
  5
C4
330
1F
100
AcDbEntity
  8
Doc_ Finishes
  6
Continuous
100
AcDbLine
 10
33.2226308025177
 20
13.32742623918175
 30
0.0
 11
33.69247098741149
 21
12.99577252163651
 31
0.0
  0
LINE
  5
C5
330
1F
100
AcDbEntity
  8
Doc_ Finishes
  6
Continuous
100
AcDbLine
 10
32.7251480133753
 20
13.5761654209284
 30
0.0
 11
33.2226308025177
 21
13.32742623918175
 31
0.0
  0
LINE
  5
C6
330
1F
100
AcDbEntity
  8
Doc_ Finishes
  6
Continuous
100
AcDbLine
 10
31.93747098741148
 20
14.0644340086546
 30
0.0
 11
32.7251480133753
 21
13.5761654209284
 31
0.0
  0
LINE
  5
C7
330
1F
100
AcDbEntity
  8
Doc_ Finishes
  6
Continuous
100
AcDbLine
 10
31.43077842250197
 20
14.38687795043273
 30
0.0
 11
31.93747098741148
 21
14.0644340086546
 31
0.0
  0
LINE
  5
C8
330
1F
100
AcDbEntity
  8
Doc_ Finishes
  6
Continuous
100
AcDbLine
 10
30.92408143194335
 20
14.70931746656176
 30
0.0
 11
31.43077842250197
 21
14.38687795043273
 31
0.0
  0
LINE
  5
C9
330
1F
100
AcDbEntity
  8
Doc_ Finishes
  6
Continuous
100
AcDbLine
 10
30.62467299370574
 20
15.10085464201416
 30
0.0
 11
30.92408143194335
 21
14.70931746656176
 31
0.0
  0
LINE
  5
CA
330
1F
100
AcDbEntity
  8
Doc_ Finishes
  6
Continuous
100
AcDbLine
 10
29.95675845790716
 20
15.67664486624705
 30
0.0
 11
30.62467299370574
 21
15.10085464201416
 31
0.0
  0
LINE
  5
CB
330
1F
100
AcDbEntity
  8
Doc_ Finishes
  6
Continuous
100
AcDbLine
 10
29.47309697088906
 20
15.95302222659323
 30
0.0
 11
29.95675845790716
 21
15.67664486624705
 31
0.0
  0
LINE
  5
CC
330
1F
100
AcDbEntity
  8
Doc_ Finishes
  6
Continuous
100
AcDbLine
 10
28.8282135129819
 20
16.36759047993706
 30
0.0
 11
29.47309697088906
 21
15.95302222659323
 31
0.0
  0
LINE
  5
CD
330
1F
100
AcDbEntity
  8
Doc_ Finishes
  6
Continuous
100
AcDbLine
 10
28.50577399685287
 20
16.22939958693942
 30
0.0
 11
28.8282135129819
 21
16.36759047993706
 31
0.0
  0
LINE
  5
CE
330
1F
100
AcDbEntity
  8
Doc_ Finishes
  6
Continuous
100
AcDbLine
 10
28.06817466561763
 20
15.74573809992132
 30
0.0
 11
28.50577399685287
 21
16.22939958693942
 31
0.0
  0
LINE
  5
CF
330
1F
100
AcDbEntity
  8
Doc_ Finishes
  6
Continuous
 62
   254
370
    18
100
AcDbLine
 10
97.43333792289535
 20
5.093360051140834
 30
0.0
 11
97.43333792289535
 21
20.69901750590086
 31
0.0
  0
LINE
  5
D0
330
1F
100
AcDbEntity
  8
Doc_ Finishes
  6
Continuous
 62
   254
370
    18
100
AcDbLine
 10
7.000000491738787
 20
20.69901750590086
 30
0.0
 11
290.2406840086546
 21
20.69901750590086
 31
0.0
  0
LINE
  5
D1
330
1F
100
AcDbEntity
  8
Doc_ Finishes
  6
Continuous
 62
   254
370
    18
100
AcDbLine
 10
290.2406840086546
 20
20.69901750590086
 30
0.0
 11
290.2406840086546
 21
5.000000983477577
 31
0.0
  0
LINE
  5
D2
330
1F
100
AcDbEntity
  8
Doc_ Finishes
  6
Continuous
 62
   254
370
    18
100
AcDbLine
 10
290.2406840086546
 20
5.000000983477577
 30
0.0
 11
7.000000491738787
 21
5.000000983477577
 31
0.0
  0
LINE
  5
D3
330
1F
100
AcDbEntity
  8
Doc_ Finishes
  6
Continuous
 62
   254
370
    18
100
AcDbLine
 10
7.000000491738787
 20
20.69901750590086
 30
0.0
 11
7.000000491738787
 21
5.000000983477577
 31
0.0
  0
LINE
  5
D4
330
1F
100
AcDbEntity
  8
Doc_ Finishes
  6
Continuous
 62
   254
370
    18
100
AcDbLine
 10
190.2919443351691
 20
5.093360051140834
 30
0.0
 11
190.2919443351691
 21
20.69901750590086
 31
0.0
  0
LINE
  5
D5
330
1F
100
AcDbEntity
  8
Doc_ Finishes
  6
Continuous
 62
   254
370
    18
100
AcDbLine
 10
190.2919443351691
 20
12.8961909913454
 30
0.0
 11
290.2406840086546
 21
12.8961909913454
 31
0.0
  0
MTEXT
  5
D7
330
1F
100
AcDbEntity
  8
0
  6
Continuous
100
AcDbMText
 10
210.3494767103412
 20
15.00228372306228
 30
0.0
 40
2.25
 41
0.0
 71
     7
 72
     1
  1
{R-TRS6-07}
  7
GENERATED_STYLE_1
 73
     1
 44
1.0
  0
MTEXT
  5
D8
330
1F
100
AcDbEntity
  8
0
  6
Continuous
100
AcDbMText
 10
210.3494767103412
 20
11.03300550383743
 30
0.0
 40
3.0
 41
0.0
 71
     1
 72
     1
  1
{BARGE DETAIL - SIDE}
  7
GENERATED_STYLE_1
 73
     1
 44
1.0
  0
MTEXT
  5
DA
330
1F
100
AcDbEntity
  8
Doc_ Floor
  6
Continuous
100
AcDbMText
 10
29.78353726544612
 20
13.33283672870609
 30
0.0
 40
5.603347280334726
 41
0.0
 71
     1
 72
     1
  1
{The Roofing Store}
  7
GENERATED_STYLE_2
 73
     1
 44
1.0
  0
MTEXT
  5
DC
102
{ACAD_XDICTIONARY
360
58A
102
}
330
1F
100
AcDbEntity
  8
0
  6
Continuous
100
AcDbMText
 10
102.7389238446655
 20
6.378784417288156
 30
0.0
 40
1.5
 41
0.0
 71
     7
 72
     1
  1
{P: HEAD OFFICE              09 277 2717\P    ALBANY             09 972 0060\P    KATIKAIT            07 549 5190\P    WELLINGTON              04 974 5792\P    CHRISTCHURCH          03 348 6528}
  7
GENERATED_STYLE_1
 73
     1
 44
1.062946161486498
  0
MTEXT
  5
DD
330
1F
100
AcDbEntity
  8
0
  6
Continuous
100
AcDbMText
 10
149.4184566143587
 20
9.199084231526156
 30
0.0
 40
1.5
 41
0.0
 71
     7
 72
     1
  1
{WEB: www.theroofingstore.co.nz}
  7
GENERATED_STYLE_1
 73
     1
 44
1.0
  0
MTEXT
  5
DE
330
1F
100
AcDbEntity
  8
0
  6
Continuous
100
AcDbMText
 10
149.4184566143587
 20
6.620946023411263
 30
0.0
 40
1.5
 41
0.0
 71
     7
 72
     1
  1
{Copyright \U+00A9 The Roofing Store 2013}
  7
GENERATED_STYLE_1
 73
     1
 44
1.0
  0
MTEXT
  5
DF
330
1F
100
AcDbEntity
  8
0
  6
Continuous
100
AcDbMText
 10
273.9546684065315
 20
15.01595205690762
 30
0.0
 40
2.25
 41
0.0
 71
     7
 72
     1
  1
{1:5}
  7
GENERATED_STYLE_1
 73
     1
 44
1.0
  0
MTEXT
  5
E0
330
1F
100
AcDbEntity
  8
0
  6
Continuous
100
AcDbMText
 10
264.8396605309016
 20
15.51746459162148
 30
0.0
 40
1.5
 41
0.0
 71
     7
 72
     1
  1
{SCALE:}
  7
GENERATED_STYLE_1
 73
     1
 44
1.0
  0
MTEXT
  5
E1
330
1F
100
AcDbEntity
  8
0
  6
Continuous
100
AcDbMText
 10
191.5066235617487
 20
15.48695559872207
 30
0.0
 40
1.5
 41
0.0
 71
     7
 72
     1
  1
{DETAIL NUMBER:}
  7
GENERATED_STYLE_1
 73
     1
 44
1.0
  0
MTEXT
  5
E2
330
1F
100
AcDbEntity
  8
0
  6
Continuous
100
AcDbMText
 10
191.5066235617487
 20
9.005462392315325
 30
0.0
 40
1.5
 41
0.0
 71
     7
 72
     1
  1
{TITLE:}
  7
GENERATED_STYLE_1
 73
     1
 44
1.0
  0
INSERT
  5
558
102
{ACAD_XDICTIONARY
360
559
102
}
330
1F
100
AcDbEntity
  8
0
  6
Continuous
100
AcDbBlockReference
  2
Drawing_1_2
 10
156.5565397722182
 20
110.7696525037415
 30
0.0
  0
ENDSEC
  0
SECTION
  2
OBJECTS
  0
DICTIONARY
  5
C
330
0
100
AcDbDictionary
281
     1
  3
ACAD_GROUP
350
D
  3
ACAD_LAYOUT
350
1A
  3
ACAD_MATERIAL
350
3B
  3
ACAD_MLEADERSTYLE
350
585
  3
ACAD_MLINESTYLE
350
17
  3
ACAD_PLOTSETTINGS
350
19
  3
ACAD_PLOTSTYLENAME
350
E
  3
ACAD_SCALELIST
350
55F
  3
ACAD_VISUALSTYLE
350
2A
  3
AcDbVariableDictionary
350
583
  3
WATERMARKS
350
581
  0
DICTIONARY
  5
58A
330
DC
100
AcDbDictionary
280
     1
281
     1
  3
ACAD_MTEXT_RT
360
58B
  0
DICTIONARY
  5
559
330
558
100
AcDbDictionary
280
     1
281
     1
  3
ACAD_FILTER
360
55A
  0
DICTIONARY
  5
D
102
{ACAD_REACTORS
330
C
102
}
330
C
100
AcDbDictionary
281
     1
  0
DICTIONARY
  5
1A
102
{ACAD_REACTORS
330
C
102
}
330
C
100
AcDbDictionary
281
     1
  3
Layout1
350
1E
  3
Model
350
22
  0
DICTIONARY
  5
3B
102
{ACAD_REACTORS
330
C
102
}
330
C
100
AcDbDictionary
281
     1
  3
ByBlock
350
3D
  3
ByLayer
350
3C
  3
Global
350
3E
  0
DICTIONARY
  5
585
102
{ACAD_REACTORS
330
C
102
}
330
C
100
AcDbDictionary
281
     1
  0
DICTIONARY
  5
17
102
{ACAD_REACTORS
330
C
102
}
330
C
100
AcDbDictionary
281
     1
  3
Standard
350
18
  0
DICTIONARY
  5
19
102
{ACAD_REACTORS
330
C
102
}
330
C
100
AcDbDictionary
281
     1
  0
ACDBDICTIONARYWDFLT
  5
E
102
{ACAD_REACTORS
330
C
102
}
330
C
100
AcDbDictionary
281
     1
  3
Normal
350
F
100
AcDbDictionaryWithDefault
340
F
  0
DICTIONARY
  5
55F
102
{ACAD_REACTORS
330
C
102
}
330
C
100
AcDbDictionary
281
     1
  3
A0
350
560
  3
A1
350
561
  3
A2
350
562
  3
A3
350
563
  3
A4
350
564
  3
A5
350
565
  3
A6
350
566
  3
A7
350
567
  3
A8
350
568
  3
A9
350
569
  3
B0
350
56A
  3
B1
350
56B
  3
B2
350
56C
  3
B3
350
56D
  3
B4
350
56E
  3
B5
350
56F
  3
B6
350
570
  3
B7
350
571
  3
B8
350
572
  3
B9
350
573
  3
C0
350
574
  3
C1
350
575
  3
C2
350
576
  3
C3
350
577
  3
C4
350
578
  3
C5
350
579
  3
C6
350
57A
  3
C7
350
57B
  3
C8
350
57C
  3
C9
350
57D
  3
D0
350
57E
  3
D1
350
57F
  3
D2
350
580
  0
DICTIONARY
  5
2A
102
{ACAD_REACTORS
330
C
102
}
330
C
100
AcDbDictionary
281
     1
  3
2dWireframe
350
2F
  3
3D Hidden
350
31
  3
3dWireframe
350
30
  3
Basic
350
32
  3
Brighten
350
36
  3
ColorChange
350
3A
  3
Conceptual
350
34
  3
Dim
350
35
  3
Facepattern
350
39
  3
Flat
350
2B
  3
FlatWithEdges
350
2C
  3
Gouraud
350
2D
  3
GouraudWithEdges
350
2E
  3
Linepattern
350
38
  3
Realistic
350
33
  3
Thicken
350
37
  0
DICTIONARY
  5
583
102
{ACAD_REACTORS
330
C
102
}
330
C
100
AcDbDictionary
281
     1
  3
CANNOSCALE
350
587
  3
DIMASSOC
350
588
  3
HIDETEXT
350
589
  3
XCLIPFRAME
350
586
  0
DICTIONARY
  5
581
102
{ACAD_REACTORS
330
C
102
}
330
C
100
AcDbDictionary
281
     1
  3
AC_WATERMARK
350
582
  0
XRECORD
  5
58B
102
{ACAD_REACTORS
330
58A
102
}
330
58A
100
AcDbXrecord
280
     1
 40
956118.0
  1
{P: HEAD OFFICE ^I^I09 277 2717\P    ALBANY ^I^I09 972 0060\P    KATIKAIT^I^I07 549 5190\P    WELLINGTON^I^I04 974 5792\P    CHRISTCHURCH^I^I03 348 6528}
  0
DICTIONARY
  5
55A
102
{ACAD_REACTORS
330
559
102
}
330
559
100
AcDbDictionary
280
     1
281
     1
  3
SPATIAL
360
55B
  0
LAYOUT
  5
1E
102
{ACAD_REACTORS
330
1A
102
}
330
1A
100
AcDbPlotSettings
  1

  2
none_device
  4

  6

 40
0.0
 41
0.0
 42
0.0
 43
0.0
 44
0.0
 45
0.0
 46
0.0
 47
0.0
 48
0.0
 49
0.0
140
0.0
141
0.0
142
1.0
143
1.0
 70
   688
 72
     0
 73
     0
 74
     5
  7

 75
    16
147
1.0
148
0.0
149
0.0
100
AcDbLayout
  1
Layout1
 70
     1
 71
     1
 10
0.0
 20
0.0
 11
12.0
 21
9.0
 12
0.0
 22
0.0
 32
0.0
 14
1.000000000000000E+20
 24
1.000000000000000E+20
 34
1.000000000000000E+20
 15
-1.000000000000000E+20
 25
-1.000000000000000E+20
 35
-1.000000000000000E+20
146
0.0
 13
0.0
 23
0.0
 33
0.0
 16
1.0
 26
0.0
 36
0.0
 17
0.0
 27
1.0
 37
0.0
 76
     0
330
1B
  0
LAYOUT
  5
22
102
{ACAD_REACTORS
330
1A
102
}
330
1A
100
AcDbPlotSettings
  1

  2
none_device
  4

  6

 40
0.0
 41
0.0
 42
0.0
 43
0.0
 44
0.0
 45
0.0
 46
0.0
 47
0.0
 48
0.0
 49
0.0
140
0.0
141
0.0
142
1.0
143
1.0
 70
  1712
 72
     0
 73
     0
 74
     0
  7

 75
     0
147
1.0
148
0.0
149
0.0
100
AcDbLayout
  1
Model
 70
     1
 71
     0
 10
0.0
 20
0.0
 11
12.0
 21
9.0
 12
0.0
 22
0.0
 32
0.0
 14
1.000000000000000E+20
 24
1.000000000000000E+20
 34
1.000000000000000E+20
 15
-1.000000000000000E+20
 25
-1.000000000000000E+20
 35
-1.000000000000000E+20
146
0.0
 13
0.0
 23
0.0
 33
0.0
 16
1.0
 26
0.0
 36
0.0
 17
0.0
 27
1.0
 37
0.0
 76
     0
330
1F
331
29
  0
MATERIAL
  5
3D
102
{ACAD_REACTORS
330
3B
102
}
102
{ACAD_XDICTIONARY
360
5AE
102
}
330
3B
100
AcDbMaterial
  1
ByBlock
  0
MATERIAL
  5
3C
102
{ACAD_REACTORS
330
3B
102
}
102
{ACAD_XDICTIONARY
360
5AC
102
}
330
3B
100
AcDbMaterial
  1
ByLayer
  0
MATERIAL
  5
3E
102
{ACAD_REACTORS
330
3B
102
}
102
{ACAD_XDICTIONARY
360
5B0
102
}
330
3B
100
AcDbMaterial
  1
Global
  0
MLINESTYLE
  5
18
102
{ACAD_REACTORS
330
17
102
}
330
17
100
AcDbMlineStyle
  2
Standard
 70
     0
  3

 62
   256
 51
90.0
 52
90.0
 71
     2
 49
0.5
 62
   256
  6
BYLAYER
 49
-0.5
 62
   256
  6
BYLAYER
  0
ACDBPLACEHOLDER
  5
F
102
{ACAD_REACTORS
330
E
102
}
330
E
  0
SCALE
  5
560
102
{ACAD_REACTORS
330
55F
102
}
330
55F
100
AcDbScale
 70
     0
300
1:1
140
1.0
141
1.0
290
     1
  0
SCALE
  5
561
102
{ACAD_REACTORS
330
55F
102
}
330
55F
100
AcDbScale
 70
     0
300
1:2
140
1.0
141
2.0
290
     0
  0
SCALE
  5
562
102
{ACAD_REACTORS
330
55F
102
}
330
55F
100
AcDbScale
 70
     0
300
1:4
140
1.0
141
4.0
290
     0
  0
SCALE
  5
563
102
{ACAD_REACTORS
330
55F
102
}
330
55F
100
AcDbScale
 70
     0
300
1:5
140
1.0
141
5.0
290
     0
  0
SCALE
  5
564
102
{ACAD_REACTORS
330
55F
102
}
330
55F
100
AcDbScale
 70
     0
300
1:8
140
1.0
141
8.0
290
     0
  0
SCALE
  5
565
102
{ACAD_REACTORS
330
55F
102
}
330
55F
100
AcDbScale
 70
     0
300
1:10
140
1.0
141
10.0
290
     0
  0
SCALE
  5
566
102
{ACAD_REACTORS
330
55F
102
}
330
55F
100
AcDbScale
 70
     0
300
1:16
140
1.0
141
16.0
290
     0
  0
SCALE
  5
567
102
{ACAD_REACTORS
330
55F
102
}
330
55F
100
AcDbScale
 70
     0
300
1:20
140
1.0
141
20.0
290
     0
  0
SCALE
  5
568
102
{ACAD_REACTORS
330
55F
102
}
330
55F
100
AcDbScale
 70
     0
300
1:30
140
1.0
141
30.0
290
     0
  0
SCALE
  5
569
102
{ACAD_REACTORS
330
55F
102
}
330
55F
100
AcDbScale
 70
     0
300
1:40
140
1.0
141
40.0
290
     0
  0
SCALE
  5
56A
102
{ACAD_REACTORS
330
55F
102
}
330
55F
100
AcDbScale
 70
     0
300
1:50
140
1.0
141
50.0
290
     0
  0
SCALE
  5
56B
102
{ACAD_REACTORS
330
55F
102
}
330
55F
100
AcDbScale
 70
     0
300
1:100
140
1.0
141
100.0
290
     0
  0
SCALE
  5
56C
102
{ACAD_REACTORS
330
55F
102
}
330
55F
100
AcDbScale
 70
     0
300
2:1
140
2.0
141
1.0
290
     0
  0
SCALE
  5
56D
102
{ACAD_REACTORS
330
55F
102
}
330
55F
100
AcDbScale
 70
     0
300
4:1
140
4.0
141
1.0
290
     0
  0
SCALE
  5
56E
102
{ACAD_REACTORS
330
55F
102
}
330
55F
100
AcDbScale
 70
     0
300
8:1
140
8.0
141
1.0
290
     0
  0
SCALE
  5
56F
102
{ACAD_REACTORS
330
55F
102
}
330
55F
100
AcDbScale
 70
     0
300
10:1
140
10.0
141
1.0
290
     0
  0
SCALE
  5
570
102
{ACAD_REACTORS
330
55F
102
}
330
55F
100
AcDbScale
 70
     0
300
100:1
140
100.0
141
1.0
290
     0
  0
SCALE
  5
571
102
{ACAD_REACTORS
330
55F
102
}
330
55F
100
AcDbScale
 70
     0
300
1/128" = 1'-0"
140
0.0078125
141
12.0
290
     0
  0
SCALE
  5
572
102
{ACAD_REACTORS
330
55F
102
}
330
55F
100
AcDbScale
 70
     0
300
1/64" = 1'-0"
140
0.015625
141
12.0
290
     0
  0
SCALE
  5
573
102
{ACAD_REACTORS
330
55F
102
}
330
55F
100
AcDbScale
 70
     0
300
1/32" = 1'-0"
140
0.03125
141
12.0
290
     0
  0
SCALE
  5
574
102
{ACAD_REACTORS
330
55F
102
}
330
55F
100
AcDbScale
 70
     0
300
1/16" = 1'-0"
140
0.0625
141
12.0
290
     0
  0
SCALE
  5
575
102
{ACAD_REACTORS
330
55F
102
}
330
55F
100
AcDbScale
 70
     0
300
3/32" = 1'-0"
140
0.09375
141
12.0
290
     0
  0
SCALE
  5
576
102
{ACAD_REACTORS
330
55F
102
}
330
55F
100
AcDbScale
 70
     0
300
1/8" = 1'-0"
140
0.125
141
12.0
290
     0
  0
SCALE
  5
577
102
{ACAD_REACTORS
330
55F
102
}
330
55F
100
AcDbScale
 70
     0
300
3/16" = 1'-0"
140
0.1875
141
12.0
290
     0
  0
SCALE
  5
578
102
{ACAD_REACTORS
330
55F
102
}
330
55F
100
AcDbScale
 70
     0
300
1/4" = 1'-0"
140
0.25
141
12.0
290
     0
  0
SCALE
  5
579
102
{ACAD_REACTORS
330
55F
102
}
330
55F
100
AcDbScale
 70
     0
300
3/8" = 1'-0"
140
0.375
141
12.0
290
     0
  0
SCALE
  5
57A
102
{ACAD_REACTORS
330
55F
102
}
330
55F
100
AcDbScale
 70
     0
300
1/2" = 1'-0"
140
0.5
141
12.0
290
     0
  0
SCALE
  5
57B
102
{ACAD_REACTORS
330
55F
102
}
330
55F
100
AcDbScale
 70
     0
300
3/4" = 1'-0"
140
0.75
141
12.0
290
     0
  0
SCALE
  5
57C
102
{ACAD_REACTORS
330
55F
102
}
330
55F
100
AcDbScale
 70
     0
300
1" = 1'-0"
140
1.0
141
12.0
290
     0
  0
SCALE
  5
57D
102
{ACAD_REACTORS
330
55F
102
}
330
55F
100
AcDbScale
 70
     0
300
1-1/2" = 1'-0"
140
1.5
141
12.0
290
     0
  0
SCALE
  5
57E
102
{ACAD_REACTORS
330
55F
102
}
330
55F
100
AcDbScale
 70
     0
300
3" = 1'-0"
140
3.0
141
12.0
290
     0
  0
SCALE
  5
57F
102
{ACAD_REACTORS
330
55F
102
}
330
55F
100
AcDbScale
 70
     0
300
6" = 1'-0"
140
6.0
141
12.0
290
     0
  0
SCALE
  5
580
102
{ACAD_REACTORS
330
55F
102
}
330
55F
100
AcDbScale
 70
     0
300
1'-0" = 1'-0"
140
12.0
141
12.0
290
     0
  0
VISUALSTYLE
  5
2F
102
{ACAD_REACTORS
330
2A
102
}
102
{ACAD_XDICTIONARY
360
594
102
}
330
2A
100
AcDbVisualStyle
  2
2dWireframe
 70
     4
 71
     0
 72
     2
 73
     0
 90
        0
 40
-0.6
 41
-30.0
 62
     5
 63
     7
 74
     1
 91
        4
 64
     7
 65
   257
 75
     1
175
     1
 42
1.0
 92
        0
 66
   257
 43
1.0
 76
     1
 77
     6
 78
     2
 67
     7
 79
     5
170
     0
171
     0
290
     0
174
     0
 93
        1
 44
0.0
173
     0
291
     0
 45
0.0
1001
ACAD
1000
AcDbSavedByObjectVersion
1070
     0
  0
VISUALSTYLE
  5
31
102
{ACAD_REACTORS
330
2A
102
}
102
{ACAD_XDICTIONARY
360
598
102
}
330
2A
100
AcDbVisualStyle
  2
3D Hidden
 70
     6
 71
     1
 72
     2
 73
     2
 90
        0
 40
-0.6
 41
-30.0
 62
     5
 63
     7
 74
     2
 91
        2
 64
     7
 65
   257
 75
     2
175
     1
 42
40.0
 92
        0
 66
   257
 43
1.0
 76
     1
 77
     6
 78
     2
 67
     7
 79
     3
170
     0
171
     0
290
     0
174
     0
 93
        1
 44
0.0
173
     0
291
     0
 45
0.0
1001
ACAD
1000
AcDbSavedByObjectVersion
1070
     0
  0
VISUALSTYLE
  5
30
102
{ACAD_REACTORS
330
2A
102
}
102
{ACAD_XDICTIONARY
360
596
102
}
330
2A
100
AcDbVisualStyle
  2
3dWireframe
 70
     5
 71
     0
 72
     2
 73
     0
 90
        0
 40
-0.6
 41
-30.0
 62
     5
 63
     7
 74
     1
 91
        4
 64
     7
 65
   257
 75
     1
175
     1
 42
1.0
 92
        0
 66
   257
 43
1.0
 76
     1
 77
     6
 78
     2
 67
     7
 79
     5
170
     0
171
     0
290
     0
174
     0
 93
        1
 44
0.0
173
     0
291
     0
 45
0.0
1001
ACAD
1000
AcDbSavedByObjectVersion
1070
     0
  0
VISUALSTYLE
  5
32
102
{ACAD_REACTORS
330
2A
102
}
102
{ACAD_XDICTIONARY
360
59A
102
}
330
2A
100
AcDbVisualStyle
  2
Basic
 70
     7
 71
     1
 72
     0
 73
     1
 90
        0
 40
-0.6
 41
-30.0
 62
     5
 63
     7
 74
     0
 91
        4
 64
     7
 65
   257
 75
     1
175
     1
 42
1.0
 92
        8
 66
     7
 43
1.0
 76
     1
 77
     6
 78
     2
 67
     7
 79
     5
170
     0
171
     0
290
     0
174
     0
 93
        1
 44
0.0
173
     0
291
     1
 45
0.0
1001
ACAD
1000
AcDbSavedByObjectVersion
1070
     0
  0
VISUALSTYLE
  5
36
102
{ACAD_REACTORS
330
2A
102
}
102
{ACAD_XDICTIONARY
360
5A2
102
}
330
2A
100
AcDbVisualStyle
  2
Brighten
 70
    12
 71
     2
 72
     2
 73
     0
 90
        0
 40
-0.6
 41
-30.0
 62
     5
 63
     7
 74
     1
 91
        4
 64
     7
 65
   257
 75
     1
175
     1
 42
1.0
 92
        8
 66
     7
 43
1.0
 76
     1
 77
     6
 78
     2
 67
     7
 79
     5
170
     0
171
     0
290
     0
174
     0
 93
        1
 44
50.0
173
     0
291
     1
 45
0.0
1001
ACAD
1000
AcDbSavedByObjectVersion
1070
     0
  0
VISUALSTYLE
  5
3A
102
{ACAD_REACTORS
330
2A
102
}
102
{ACAD_XDICTIONARY
360
5AA
102
}
330
2A
100
AcDbVisualStyle
  2
ColorChange
 70
    16
 71
     2
 72
     2
 73
     3
 90
        0
 40
-0.6
 41
-30.0
 62
     5
 63
     8
 74
     1
 91
        4
 64
     7
 65
   257
 75
     1
175
     1
 42
1.0
 92
        8
 66
     8
 43
1.0
 76
     1
 77
     6
 78
     2
 67
     7
 79
     5
170
     0
171
     0
290
     0
174
     0
 93
        1
 44
0.0
173
     0
291
     1
 45
0.0
1001
ACAD
1000
AcDbSavedByObjectVersion
1070
     0
  0
VISUALSTYLE
  5
34
102
{ACAD_REACTORS
330
2A
102
}
102
{ACAD_XDICTIONARY
360
59E
102
}
330
2A
100
AcDbVisualStyle
  2
Conceptual
 70
     9
 71
     3
 72
     2
 73
     0
 90
        0
 40
-0.6
 41
-30.0
 62
     5
 63
     7
 74
     2
 91
        2
 64
     7
 65
   257
 75
     1
175
     1
 42
40.0
 92
        8
 66
     7
 43
1.0
 76
     1
 77
     6
 78
     2
 67
     7
 79
     3
170
     0
171
     0
290
     0
174
     0
 93
        1
 44
0.0
173
     0
291
     0
 45
0.0
1001
ACAD
1000
AcDbSavedByObjectVersion
1070
     0
  0
VISUALSTYLE
  5
35
102
{ACAD_REACTORS
330
2A
102
}
102
{ACAD_XDICTIONARY
360
5A0
102
}
330
2A
100
AcDbVisualStyle
  2
Dim
 70
    11
 71
     2
 72
     2
 73
     0
 90
        0
 40
-0.6
 41
-30.0
 62
     5
 63
     7
 74
     1
 91
        4
 64
     7
 65
   257
 75
     1
175
     1
 42
1.0
 92
        8
 66
     7
 43
1.0
 76
     1
 77
     6
 78
     2
 67
     7
 79
     5
170
     0
171
     0
290
     0
174
     0
 93
        1
 44
-50.0
173
     0
291
     1
 45
0.0
1001
ACAD
1000
AcDbSavedByObjectVersion
1070
     0
  0
VISUALSTYLE
  5
39
102
{ACAD_REACTORS
330
2A
102
}
102
{ACAD_XDICTIONARY
360
5A8
102
}
330
2A
100
AcDbVisualStyle
  2
Facepattern
 70
    15
 71
     2
 72
     2
 73
     0
 90
        0
 40
-0.6
 41
-30.0
 62
     5
 63
     7
 74
     1
 91
        4
 64
     7
 65
   257
 75
     1
175
     1
 42
1.0
 92
        8
 66
     7
 43
1.0
 76
     1
 77
     6
 78
     2
 67
     7
 79
     5
170
     0
171
     0
290
     0
174
     0
 93
        1
 44
0.0
173
     0
291
     1
 45
0.0
1001
ACAD
1000
AcDbSavedByObjectVersion
1070
     0
  0
VISUALSTYLE
  5
2B
102
{ACAD_REACTORS
330
2A
102
}
102
{ACAD_XDICTIONARY
360
58C
102
}
330
2A
100
AcDbVisualStyle
  2
Flat
 70
     0
 71
     2
 72
     1
 73
     1
 90
        2
 40
-0.6
 41
30.0
 62
     5
 63
     7
 74
     0
 91
        4
 64
     7
 65
   257
 75
     1
175
     1
 42
1.0
 92
        8
 66
     7
 43
1.0
 76
     1
 77
     6
 78
     2
 67
     7
 79
     5
170
     0
171
     0
290
     0
174
     0
 93
       13
 44
0.0
173
     0
291
     1
 45
0.0
1001
ACAD
1000
AcDbSavedByObjectVersion
1070
     0
  0
VISUALSTYLE
  5
2C
102
{ACAD_REACTORS
330
2A
102
}
102
{ACAD_XDICTIONARY
360
58E
102
}
330
2A
100
AcDbVisualStyle
  2
FlatWithEdges
 70
     1
 71
     2
 72
     1
 73
     1
 90
        2
 40
-0.6
 41
30.0
 62
     5
 63
     7
 74
     1
 91
        4
 64
     7
 65
   257
 75
     1
175
     1
 42
1.0
 92
        0
 66
   257
 43
1.0
 76
     1
 77
     6
 78
     2
 67
     7
 79
     5
170
     0
171
     0
290
     0
174
     0
 93
       13
 44
0.0
173
     0
291
     1
 45
0.0
1001
ACAD
1000
AcDbSavedByObjectVersion
1070
     0
  0
VISUALSTYLE
  5
2D
102
{ACAD_REACTORS
330
2A
102
}
102
{ACAD_XDICTIONARY
360
590
102
}
330
2A
100
AcDbVisualStyle
  2
Gouraud
 70
     2
 71
     2
 72
     2
 73
     1
 90
        2
 40
-0.6
 41
30.0
 62
     5
 63
     7
 74
     0
 91
        4
 64
     7
 65
   257
 75
     1
175
     1
 42
1.0
 92
        0
 66
     7
 43
1.0
 76
     1
 77
     6
 78
     2
 67
     7
 79
     5
170
     0
171
     0
290
     0
174
     0
 93
       13
 44
0.0
173
     0
291
     1
 45
0.0
1001
ACAD
1000
AcDbSavedByObjectVersion
1070
     0
  0
VISUALSTYLE
  5
2E
102
{ACAD_REACTORS
330
2A
102
}
102
{ACAD_XDICTIONARY
360
592
102
}
330
2A
100
AcDbVisualStyle
  2
GouraudWithEdges
 70
     3
 71
     2
 72
     2
 73
     1
 90
        2
 40
-0.6
 41
30.0
 62
     5
 63
     7
 74
     1
 91
        4
 64
     7
 65
   257
 75
     1
175
     1
 42
1.0
 92
        0
 66
   257
 43
1.0
 76
     1
 77
     6
 78
     2
 67
     7
 79
     5
170
     0
171
     0
290
     0
174
     0
 93
       13
 44
0.0
173
     0
291
     1
 45
0.0
1001
ACAD
1000
AcDbSavedByObjectVersion
1070
     0
  0
VISUALSTYLE
  5
38
102
{ACAD_REACTORS
330
2A
102
}
102
{ACAD_XDICTIONARY
360
5A6
102
}
330
2A
100
AcDbVisualStyle
  2
Linepattern
 70
    14
 71
     2
 72
     2
 73
     0
 90
        0
 40
-0.6
 41
-30.0
 62
     5
 63
     7
 74
     1
 91
        4
 64
     7
 65
   257
 75
     7
175
     7
 42
1.0
 92
        8
 66
     7
 43
1.0
 76
     1
 77
     6
 78
     2
 67
     7
 79
     5
170
     0
171
     0
290
     0
174
     0
 93
        1
 44
0.0
173
     0
291
     1
 45
0.0
1001
ACAD
1000
AcDbSavedByObjectVersion
1070
     0
  0
VISUALSTYLE
  5
33
102
{ACAD_REACTORS
330
2A
102
}
102
{ACAD_XDICTIONARY
360
59C
102
}
330
2A
100
AcDbVisualStyle
  2
Realistic
 70
     8
 71
     2
 72
     2
 73
     0
 90
        0
 40
-0.6
 41
-30.0
 62
     5
 63
     7
 74
     1
 91
        0
 64
     7
 65
   257
 75
     1
175
     1
 42
1.0
 92
        8
 66
     8
 43
1.0
 76
     1
 77
     6
 78
     2
 67
     7
 79
     5
170
     0
171
     0
290
     0
174
     0
 93
       13
 44
0.0
173
     0
291
     0
 45
0.0
1001
ACAD
1000
AcDbSavedByObjectVersion
1070
     0
  0
VISUALSTYLE
  5
37
102
{ACAD_REACTORS
330
2A
102
}
102
{ACAD_XDICTIONARY
360
5A4
102
}
330
2A
100
AcDbVisualStyle
  2
Thicken
 70
    13
 71
     2
 72
     2
 73
     0
 90
        0
 40
-0.6
 41
-30.0
 62
     5
 63
     7
 74
     1
 91
        4
 64
     7
 65
   257
 75
     1
175
     1
 42
1.0
 92
       12
 66
     7
 43
1.0
 76
     1
 77
     6
 78
     2
 67
     7
 79
     5
170
     0
171
     0
290
     0
174
     0
 93
        1
 44
0.0
173
     0
291
     1
 45
0.0
1001
ACAD
1000
AcDbSavedByObjectVersion
1070
     0
  0
DICTIONARYVAR
  5
587
102
{ACAD_REACTORS
330
583
102
}
330
583
100
DictionaryVariables
280
     0
  1
1:1
  0
DICTIONARYVAR
  5
588
102
{ACAD_REACTORS
330
583
102
}
330
583
100
DictionaryVariables
280
     0
  1
2
  0
DICTIONARYVAR
  5
589
102
{ACAD_REACTORS
330
583
102
}
330
583
100
DictionaryVariables
280
     0
  1
1
  0
DICTIONARYVAR
  5
586
102
{ACAD_REACTORS
330
583
102
}
330
583
100
DictionaryVariables
280
     0
  1
0
  0
XRECORD
  5
582
102
{ACAD_REACTORS
330
581
102
}
330
581
100
AcDbXrecord
280
     1
1000
This DWG file was created in ArchiCAD(TM)®
  0
SPATIAL_FILTER
  5
55B
102
{ACAD_REACTORS
330
55A
102
}
330
55A
100
AcDbFilter
100
AcDbSpatialFilter
 70
     4
 10
31.93071095990843
 20
40.59272791132295
 10
281.1823685845279
 20
40.59272791132295
 10
281.1823685845279
 20
180.9465770961602
 10
31.93071095990843
 20
180.9465770961602
210
0.0
220
0.0
230
1.0
 11
0.0
 21
0.0
 31
0.0
 71
     1
 72
     0
 73
     0
 40
1.0
 40
0.0
 40
0.0
 40
0.0
 40
0.0
 40
1.0
 40
0.0
 40
0.0
 40
0.0
 40
0.0
 40
1.0
 40
0.0
 40
1.0
 40
0.0
 40
0.0
 40
0.0
 40
0.0
 40
1.0
 40
0.0
 40
0.0
 40
0.0
 40
0.0
 40
1.0
 40
0.0
  0
DICTIONARY
  5
5AE
330
3D
100
AcDbDictionary
280
     1
281
     1
  3
ACAD_XREC_ROUNDTRIP
360
5AF
  0
DICTIONARY
  5
5AC
330
3C
100
AcDbDictionary
280
     1
281
     1
  3
ACAD_XREC_ROUNDTRIP
360
5AD
  0
DICTIONARY
  5
5B0
330
3E
100
AcDbDictionary
280
     1
281
     1
  3
ACAD_XREC_ROUNDTRIP
360
5B1
  0
DICTIONARY
  5
594
330
2F
100
AcDbDictionary
280
     1
281
     1
  3
ACAD_XREC_ROUNDTRIP
360
595
  0
DICTIONARY
  5
598
330
31
100
AcDbDictionary
280
     1
281
     1
  3
ACAD_XREC_ROUNDTRIP
360
599
  0
DICTIONARY
  5
596
330
30
100
AcDbDictionary
280
     1
281
     1
  3
ACAD_XREC_ROUNDTRIP
360
597
  0
DICTIONARY
  5
59A
330
32
100
AcDbDictionary
280
     1
281
     1
  3
ACAD_XREC_ROUNDTRIP
360
59B
  0
DICTIONARY
  5
5A2
330
36
100
AcDbDictionary
280
     1
281
     1
  3
ACAD_XREC_ROUNDTRIP
360
5A3
  0
DICTIONARY
  5
5AA
330
3A
100
AcDbDictionary
280
     1
281
     1
  3
ACAD_XREC_ROUNDTRIP
360
5AB
  0
DICTIONARY
  5
59E
330
34
100
AcDbDictionary
280
     1
281
     1
  3
ACAD_XREC_ROUNDTRIP
360
59F
  0
DICTIONARY
  5
5A0
330
35
100
AcDbDictionary
280
     1
281
     1
  3
ACAD_XREC_ROUNDTRIP
360
5A1
  0
DICTIONARY
  5
5A8
330
39
100
AcDbDictionary
280
     1
281
     1
  3
ACAD_XREC_ROUNDTRIP
360
5A9
  0
DICTIONARY
  5
58C
330
2B
100
AcDbDictionary
280
     1
281
     1
  3
ACAD_XREC_ROUNDTRIP
360
58D
  0
DICTIONARY
  5
58E
330
2C
100
AcDbDictionary
280
     1
281
     1
  3
ACAD_XREC_ROUNDTRIP
360
58F
  0
DICTIONARY
  5
590
330
2D
100
AcDbDictionary
280
     1
281
     1
  3
ACAD_XREC_ROUNDTRIP
360
591
  0
DICTIONARY
  5
592
330
2E
100
AcDbDictionary
280
     1
281
     1
  3
ACAD_XREC_ROUNDTRIP
360
593
  0
DICTIONARY
  5
5A6
330
38
100
AcDbDictionary
280
     1
281
     1
  3
ACAD_XREC_ROUNDTRIP
360
5A7
  0
DICTIONARY
  5
59C
330
33
100
AcDbDictionary
280
     1
281
     1
  3
ACAD_XREC_ROUNDTRIP
360
59D
  0
DICTIONARY
  5
5A4
330
37
100
AcDbDictionary
280
     1
281
     1
  3
ACAD_XREC_ROUNDTRIP
360
5A5
  0
XRECORD
  5
5AF
102
{ACAD_REACTORS
330
5AE
102
}
330
5AE
100
AcDbXrecord
280
     1
102
MATERIAL
148
0.0
149
0.0
149
0.0
 93
        0
 94
      127
282
     0
 72
     1
 77
     1
171
     1
175
     1
179
     1
273
     0
  0
XRECORD
  5
5AD
102
{ACAD_REACTORS
330
5AC
102
}
330
5AC
100
AcDbXrecord
280
     1
102
MATERIAL
148
0.0
149
0.0
149
0.0
 93
        0
 94
      127
282
     0
 72
     1
 77
     1
171
     1
175
     1
179
     1
273
     0
  0
XRECORD
  5
5B1
102
{ACAD_REACTORS
330
5B0
102
}
330
5B0
100
AcDbXrecord
280
     1
102
MATERIAL
148
0.0
149
0.0
149
0.0
 93
        0
 94
      127
282
     0
 72
     1
 77
     1
171
     1
175
     1
179
     1
273
     0
  0
XRECORD
  5
595
102
{ACAD_REACTORS
330
594
102
}
330
594
100
AcDbXrecord
280
     1
102
RTVSPropertyOp0
 70
     1
102
RTVSPropertyOp1
 70
     1
102
RTVSPropertyOp2
 70
     1
102
RTVSPropertyOp3
 70
     1
102
RTVSPropertyOp4
 70
     1
102
RTVSPropertyOp5
 70
     1
102
RTVSPropertyOp6
 70
     1
102
RTVSPropertyOp7
 70
     1
102
RTVSPropertyOp8
 70
     1
102
RTVSPropertyOp9
 70
     1
102
RTVSPropertyOp10
 70
     1
102
RTVSPropertyOp11
 70
     1
102
RTVSPropertyOp12
 70
     1
102
RTVSPropertyOp13
 70
     1
102
RTVSPropertyOp14
 70
     1
102
RTVSPropertyOp15
 70
     1
102
RTVSPropertyOp16
 70
     1
102
RTVSPropertyOp17
 70
     1
102
RTVSPropertyOp18
 70
     1
102
RTVSPropertyOp19
 70
     1
102
RTVSPropertyOp20
 70
     1
102
RTVSPropertyOp21
 70
     1
102
RTVSPropertyOp22
 70
     1
102
RTVSPropertyOp23
 70
     1
102
RTVSPropertyOp24
 70
     1
102
RTVSPropertyOp25
 70
     1
102
RTVSPropertyOp26
 70
     1
102
RTVSPropertyOp27
 70
     1
102
RTVSPropertyOp28
 70
     1
102
RTVSPropertyOp29
 70
     1
102
RTVSPropertyOp30
 70
     1
102
RTVSPropertyOp31
 70
     1
102
RTVSPropertyOp32
 70
     1
  0
XRECORD
  5
599
102
{ACAD_REACTORS
330
598
102
}
330
598
100
AcDbXrecord
280
     1
102
RTVSPropertyOp0
 70
     1
102
RTVSPropertyOp1
 70
     1
102
RTVSPropertyOp2
 70
     1
102
RTVSPropertyOp3
 70
     1
102
RTVSPropertyOp4
 70
     1
102
RTVSPropertyOp5
 70
     1
102
RTVSPropertyOp6
 70
     1
102
RTVSPropertyOp7
 70
     1
102
RTVSPropertyOp8
 70
     1
102
RTVSPropertyOp9
 70
     1
102
RTVSPropertyOp10
 70
     1
102
RTVSPropertyOp11
 70
     1
102
RTVSPropertyOp12
 70
     1
102
RTVSPropertyOp13
 70
     1
102
RTVSPropertyOp14
 70
     1
102
RTVSPropertyOp15
 70
     1
102
RTVSPropertyOp16
 70
     1
102
RTVSPropertyOp17
 70
     1
102
RTVSPropertyOp18
 70
     1
102
RTVSPropertyOp19
 70
     1
102
RTVSPropertyOp20
 70
     1
102
RTVSPropertyOp21
 70
     1
102
RTVSPropertyOp22
 70
     1
102
RTVSPropertyOp23
 70
     1
102
RTVSPropertyOp24
 70
     1
102
RTVSPropertyOp25
 70
     1
102
RTVSPropertyOp26
 70
     1
102
RTVSPropertyOp27
 70
     1
102
RTVSPropertyOp28
 70
     1
102
RTVSPropertyOp29
 70
     1
102
RTVSPropertyOp30
 70
     1
102
RTVSPropertyOp31
 70
     1
102
RTVSPropertyOp32
 70
     1
  0
XRECORD
  5
597
102
{ACAD_REACTORS
330
596
102
}
330
596
100
AcDbXrecord
280
     1
102
RTVSPropertyOp0
 70
     1
102
RTVSPropertyOp1
 70
     1
102
RTVSPropertyOp2
 70
     1
102
RTVSPropertyOp3
 70
     1
102
RTVSPropertyOp4
 70
     1
102
RTVSPropertyOp5
 70
     1
102
RTVSPropertyOp6
 70
     1
102
RTVSPropertyOp7
 70
     1
102
RTVSPropertyOp8
 70
     1
102
RTVSPropertyOp9
 70
     1
102
RTVSPropertyOp10
 70
     1
102
RTVSPropertyOp11
 70
     1
102
RTVSPropertyOp12
 70
     1
102
RTVSPropertyOp13
 70
     1
102
RTVSPropertyOp14
 70
     1
102
RTVSPropertyOp15
 70
     1
102
RTVSPropertyOp16
 70
     1
102
RTVSPropertyOp17
 70
     1
102
RTVSPropertyOp18
 70
     1
102
RTVSPropertyOp19
 70
     1
102
RTVSPropertyOp20
 70
     1
102
RTVSPropertyOp21
 70
     1
102
RTVSPropertyOp22
 70
     1
102
RTVSPropertyOp23
 70
     1
102
RTVSPropertyOp24
 70
     1
102
RTVSPropertyOp25
 70
     1
102
RTVSPropertyOp26
 70
     1
102
RTVSPropertyOp27
 70
     1
102
RTVSPropertyOp28
 70
     1
102
RTVSPropertyOp29
 70
     1
102
RTVSPropertyOp30
 70
     1
102
RTVSPropertyOp31
 70
     1
102
RTVSPropertyOp32
 70
     1
  0
XRECORD
  5
59B
102
{ACAD_REACTORS
330
59A
102
}
330
59A
100
AcDbXrecord
280
     1
102
RTVSPropertyOp0
 70
     1
102
RTVSPropertyOp1
 70
     1
102
RTVSPropertyOp2
 70
     1
102
RTVSPropertyOp3
 70
     1
102
RTVSPropertyOp4
 70
     1
102
RTVSPropertyOp5
 70
     1
102
RTVSPropertyOp6
 70
     1
102
RTVSPropertyOp7
 70
     1
102
RTVSPropertyOp8
 70
     1
102
RTVSPropertyOp9
 70
     1
102
RTVSPropertyOp10
 70
     1
102
RTVSPropertyOp11
 70
     1
102
RTVSPropertyOp12
 70
     1
102
RTVSPropertyOp13
 70
     1
102
RTVSPropertyOp14
 70
     1
102
RTVSPropertyOp15
 70
     1
102
RTVSPropertyOp16
 70
     1
102
RTVSPropertyOp17
 70
     1
102
RTVSPropertyOp18
 70
     1
102
RTVSPropertyOp19
 70
     1
102
RTVSPropertyOp20
 70
     1
102
RTVSPropertyOp21
 70
     1
102
RTVSPropertyOp22
 70
     1
102
RTVSPropertyOp23
 70
     1
102
RTVSPropertyOp24
 70
     1
102
RTVSPropertyOp25
 70
     1
102
RTVSPropertyOp26
 70
     1
102
RTVSPropertyOp27
 70
     1
102
RTVSPropertyOp28
 70
     1
102
RTVSPropertyOp29
 70
     1
102
RTVSPropertyOp30
 70
     1
102
RTVSPropertyOp31
 70
     1
102
RTVSPropertyOp32
 70
     1
  0
XRECORD
  5
5A3
102
{ACAD_REACTORS
330
5A2
102
}
330
5A2
100
AcDbXrecord
280
     1
102
RTVSPropertyOp0
 70
     1
102
RTVSPropertyOp1
 70
     1
102
RTVSPropertyOp2
 70
     1
102
RTVSPropertyOp3
 70
     1
102
RTVSPropertyOp4
 70
     1
102
RTVSPropertyOp5
 70
     1
102
RTVSPropertyOp6
 70
     1
102
RTVSPropertyOp7
 70
     1
102
RTVSPropertyOp8
 70
     1
102
RTVSPropertyOp9
 70
     1
102
RTVSPropertyOp10
 70
     1
102
RTVSPropertyOp11
 70
     1
102
RTVSPropertyOp12
 70
     1
102
RTVSPropertyOp13
 70
     1
102
RTVSPropertyOp14
 70
     1
102
RTVSPropertyOp15
 70
     1
102
RTVSPropertyOp16
 70
     1
102
RTVSPropertyOp17
 70
     1
102
RTVSPropertyOp18
 70
     1
102
RTVSPropertyOp19
 70
     1
102
RTVSPropertyOp20
 70
     1
102
RTVSPropertyOp21
 70
     1
102
RTVSPropertyOp22
 70
     1
102
RTVSPropertyOp23
 70
     1
102
RTVSPropertyOp24
 70
     1
102
RTVSPropertyOp25
 70
     1
102
RTVSPropertyOp26
 70
     1
102
RTVSPropertyOp27
 70
     1
102
RTVSPropertyOp28
 70
     1
102
RTVSPropertyOp29
 70
     1
102
RTVSPropertyOp30
 70
     1
102
RTVSPropertyOp31
 70
     1
102
RTVSPropertyOp32
 70
     1
  0
XRECORD
  5
5AB
102
{ACAD_REACTORS
330
5AA
102
}
330
5AA
100
AcDbXrecord
280
     1
102
RTVSPropertyOp0
 70
     1
102
RTVSPropertyOp1
 70
     1
102
RTVSPropertyOp2
 70
     1
102
RTVSPropertyOp3
 70
     1
102
RTVSPropertyOp4
 70
     1
102
RTVSPropertyOp5
 70
     1
102
RTVSPropertyOp6
 70
     1
102
RTVSPropertyOp7
 70
     1
102
RTVSPropertyOp8
 70
     1
102
RTVSPropertyOp9
 70
     1
102
RTVSPropertyOp10
 70
     1
102
RTVSPropertyOp11
 70
     1
102
RTVSPropertyOp12
 70
     1
102
RTVSPropertyOp13
 70
     1
102
RTVSPropertyOp14
 70
     1
102
RTVSPropertyOp15
 70
     1
102
RTVSPropertyOp16
 70
     1
102
RTVSPropertyOp17
 70
     1
102
RTVSPropertyOp18
 70
     1
102
RTVSPropertyOp19
 70
     1
102
RTVSPropertyOp20
 70
     1
102
RTVSPropertyOp21
 70
     1
102
RTVSPropertyOp22
 70
     1
102
RTVSPropertyOp23
 70
     1
102
RTVSPropertyOp24
 70
     1
102
RTVSPropertyOp25
 70
     1
102
RTVSPropertyOp26
 70
     1
102
RTVSPropertyOp27
 70
     1
102
RTVSPropertyOp28
 70
     1
102
RTVSPropertyOp29
 70
     1
102
RTVSPropertyOp30
 70
     1
102
RTVSPropertyOp31
 70
     1
102
RTVSPropertyOp32
 70
     1
  0
XRECORD
  5
59F
102
{ACAD_REACTORS
330
59E
102
}
330
59E
100
AcDbXrecord
280
     1
102
RTVSPropertyOp0
 70
     1
102
RTVSPropertyOp1
 70
     1
102
RTVSPropertyOp2
 70
     1
102
RTVSPropertyOp3
 70
     1
102
RTVSPropertyOp4
 70
     1
102
RTVSPropertyOp5
 70
     1
102
RTVSPropertyOp6
 70
     1
102
RTVSPropertyOp7
 70
     1
102
RTVSPropertyOp8
 70
     1
102
RTVSPropertyOp9
 70
     1
102
RTVSPropertyOp10
 70
     1
102
RTVSPropertyOp11
 70
     1
102
RTVSPropertyOp12
 70
     1
102
RTVSPropertyOp13
 70
     1
102
RTVSPropertyOp14
 70
     1
102
RTVSPropertyOp15
 70
     1
102
RTVSPropertyOp16
 70
     1
102
RTVSPropertyOp17
 70
     1
102
RTVSPropertyOp18
 70
     1
102
RTVSPropertyOp19
 70
     1
102
RTVSPropertyOp20
 70
     1
102
RTVSPropertyOp21
 70
     1
102
RTVSPropertyOp22
 70
     1
102
RTVSPropertyOp23
 70
     1
102
RTVSPropertyOp24
 70
     1
102
RTVSPropertyOp25
 70
     1
102
RTVSPropertyOp26
 70
     1
102
RTVSPropertyOp27
 70
     1
102
RTVSPropertyOp28
 70
     1
102
RTVSPropertyOp29
 70
     1
102
RTVSPropertyOp30
 70
     1
102
RTVSPropertyOp31
 70
     1
102
RTVSPropertyOp32
 70
     1
  0
XRECORD
  5
5A1
102
{ACAD_REACTORS
330
5A0
102
}
330
5A0
100
AcDbXrecord
280
     1
102
RTVSPropertyOp0
 70
     1
102
RTVSPropertyOp1
 70
     1
102
RTVSPropertyOp2
 70
     1
102
RTVSPropertyOp3
 70
     1
102
RTVSPropertyOp4
 70
     1
102
RTVSPropertyOp5
 70
     1
102
RTVSPropertyOp6
 70
     1
102
RTVSPropertyOp7
 70
     1
102
RTVSPropertyOp8
 70
     1
102
RTVSPropertyOp9
 70
     1
102
RTVSPropertyOp10
 70
     1
102
RTVSPropertyOp11
 70
     1
102
RTVSPropertyOp12
 70
     1
102
RTVSPropertyOp13
 70
     1
102
RTVSPropertyOp14
 70
     1
102
RTVSPropertyOp15
 70
     1
102
RTVSPropertyOp16
 70
     1
102
RTVSPropertyOp17
 70
     1
102
RTVSPropertyOp18
 70
     1
102
RTVSPropertyOp19
 70
     1
102
RTVSPropertyOp20
 70
     1
102
RTVSPropertyOp21
 70
     1
102
RTVSPropertyOp22
 70
     1
102
RTVSPropertyOp23
 70
     1
102
RTVSPropertyOp24
 70
     1
102
RTVSPropertyOp25
 70
     1
102
RTVSPropertyOp26
 70
     1
102
RTVSPropertyOp27
 70
     1
102
RTVSPropertyOp28
 70
     1
102
RTVSPropertyOp29
 70
     1
102
RTVSPropertyOp30
 70
     1
102
RTVSPropertyOp31
 70
     1
102
RTVSPropertyOp32
 70
     1
  0
XRECORD
  5
5A9
102
{ACAD_REACTORS
330
5A8
102
}
330
5A8
100
AcDbXrecord
280
     1
102
RTVSPropertyOp0
 70
     1
102
RTVSPropertyOp1
 70
     1
102
RTVSPropertyOp2
 70
     1
102
RTVSPropertyOp3
 70
     1
102
RTVSPropertyOp4
 70
     1
102
RTVSPropertyOp5
 70
     1
102
RTVSPropertyOp6
 70
     1
102
RTVSPropertyOp7
 70
     1
102
RTVSPropertyOp8
 70
     1
102
RTVSPropertyOp9
 70
     1
102
RTVSPropertyOp10
 70
     1
102
RTVSPropertyOp11
 70
     1
102
RTVSPropertyOp12
 70
     1
102
RTVSPropertyOp13
 70
     1
102
RTVSPropertyOp14
 70
     1
102
RTVSPropertyOp15
 70
     1
102
RTVSPropertyOp16
 70
     1
102
RTVSPropertyOp17
 70
     1
102
RTVSPropertyOp18
 70
     1
102
RTVSPropertyOp19
 70
     1
102
RTVSPropertyOp20
 70
     1
102
RTVSPropertyOp21
 70
     1
102
RTVSPropertyOp22
 70
     1
102
RTVSPropertyOp23
 70
     1
102
RTVSPropertyOp24
 70
     1
102
RTVSPropertyOp25
 70
     1
102
RTVSPropertyOp26
 70
     1
102
RTVSPropertyOp27
 70
     1
102
RTVSPropertyOp28
 70
     1
102
RTVSPropertyOp29
 70
     1
102
RTVSPropertyOp30
 70
     1
102
RTVSPropertyOp31
 70
     1
102
RTVSPropertyOp32
 70
     1
  0
XRECORD
  5
58D
102
{ACAD_REACTORS
330
58C
102
}
330
58C
100
AcDbXrecord
280
     1
102
RTVSPropertyOp0
 70
     1
102
RTVSPropertyOp1
 70
     1
102
RTVSPropertyOp2
 70
     1
102
RTVSPropertyOp3
 70
     1
102
RTVSPropertyOp4
 70
     1
102
RTVSPropertyOp5
 70
     1
102
RTVSPropertyOp6
 70
     1
102
RTVSPropertyOp7
 70
     1
102
RTVSPropertyOp8
 70
     1
102
RTVSPropertyOp9
 70
     1
102
RTVSPropertyOp10
 70
     1
102
RTVSPropertyOp11
 70
     1
102
RTVSPropertyOp12
 70
     1
102
RTVSPropertyOp13
 70
     1
102
RTVSPropertyOp14
 70
     1
102
RTVSPropertyOp15
 70
     1
102
RTVSPropertyOp16
 70
     1
102
RTVSPropertyOp17
 70
     1
102
RTVSPropertyOp18
 70
     1
102
RTVSPropertyOp19
 70
     1
102
RTVSPropertyOp20
 70
     1
102
RTVSPropertyOp21
 70
     1
102
RTVSPropertyOp22
 70
     1
102
RTVSPropertyOp23
 70
     1
102
RTVSPropertyOp24
 70
     1
102
RTVSPropertyOp25
 70
     1
102
RTVSPropertyOp26
 70
     1
102
RTVSPropertyOp27
 70
     1
102
RTVSPropertyOp28
 70
     1
102
RTVSPropertyOp29
 70
     1
102
RTVSPropertyOp30
 70
     1
102
RTVSPropertyOp31
 70
     1
102
RTVSPropertyOp32
 70
     1
  0
XRECORD
  5
58F
102
{ACAD_REACTORS
330
58E
102
}
330
58E
100
AcDbXrecord
280
     1
102
RTVSPropertyOp0
 70
     1
102
RTVSPropertyOp1
 70
     1
102
RTVSPropertyOp2
 70
     1
102
RTVSPropertyOp3
 70
     1
102
RTVSPropertyOp4
 70
     1
102
RTVSPropertyOp5
 70
     1
102
RTVSPropertyOp6
 70
     1
102
RTVSPropertyOp7
 70
     1
102
RTVSPropertyOp8
 70
     1
102
RTVSPropertyOp9
 70
     1
102
RTVSPropertyOp10
 70
     1
102
RTVSPropertyOp11
 70
     1
102
RTVSPropertyOp12
 70
     1
102
RTVSPropertyOp13
 70
     1
102
RTVSPropertyOp14
 70
     1
102
RTVSPropertyOp15
 70
     1
102
RTVSPropertyOp16
 70
     1
102
RTVSPropertyOp17
 70
     1
102
RTVSPropertyOp18
 70
     1
102
RTVSPropertyOp19
 70
     1
102
RTVSPropertyOp20
 70
     1
102
RTVSPropertyOp21
 70
     1
102
RTVSPropertyOp22
 70
     1
102
RTVSPropertyOp23
 70
     1
102
RTVSPropertyOp24
 70
     1
102
RTVSPropertyOp25
 70
     1
102
RTVSPropertyOp26
 70
     1
102
RTVSPropertyOp27
 70
     1
102
RTVSPropertyOp28
 70
     1
102
RTVSPropertyOp29
 70
     1
102
RTVSPropertyOp30
 70
     1
102
RTVSPropertyOp31
 70
     1
102
RTVSPropertyOp32
 70
     1
  0
XRECORD
  5
591
102
{ACAD_REACTORS
330
590
102
}
330
590
100
AcDbXrecord
280
     1
102
RTVSPropertyOp0
 70
     1
102
RTVSPropertyOp1
 70
     1
102
RTVSPropertyOp2
 70
     1
102
RTVSPropertyOp3
 70
     1
102
RTVSPropertyOp4
 70
     1
102
RTVSPropertyOp5
 70
     1
102
RTVSPropertyOp6
 70
     1
102
RTVSPropertyOp7
 70
     1
102
RTVSPropertyOp8
 70
     1
102
RTVSPropertyOp9
 70
     1
102
RTVSPropertyOp10
 70
     1
102
RTVSPropertyOp11
 70
     1
102
RTVSPropertyOp12
 70
     1
102
RTVSPropertyOp13
 70
     1
102
RTVSPropertyOp14
 70
     1
102
RTVSPropertyOp15
 70
     1
102
RTVSPropertyOp16
 70
     1
102
RTVSPropertyOp17
 70
     1
102
RTVSPropertyOp18
 70
     1
102
RTVSPropertyOp19
 70
     1
102
RTVSPropertyOp20
 70
     1
102
RTVSPropertyOp21
 70
     1
102
RTVSPropertyOp22
 70
     1
102
RTVSPropertyOp23
 70
     1
102
RTVSPropertyOp24
 70
     1
102
RTVSPropertyOp25
 70
     1
102
RTVSPropertyOp26
 70
     1
102
RTVSPropertyOp27
 70
     1
102
RTVSPropertyOp28
 70
     1
102
RTVSPropertyOp29
 70
     1
102
RTVSPropertyOp30
 70
     1
102
RTVSPropertyOp31
 70
     1
102
RTVSPropertyOp32
 70
     1
  0
XRECORD
  5
593
102
{ACAD_REACTORS
330
592
102
}
330
592
100
AcDbXrecord
280
     1
102
RTVSPropertyOp0
 70
     1
102
RTVSPropertyOp1
 70
     1
102
RTVSPropertyOp2
 70
     1
102
RTVSPropertyOp3
 70
     1
102
RTVSPropertyOp4
 70
     1
102
RTVSPropertyOp5
 70
     1
102
RTVSPropertyOp6
 70
     1
102
RTVSPropertyOp7
 70
     1
102
RTVSPropertyOp8
 70
     1
102
RTVSPropertyOp9
 70
     1
102
RTVSPropertyOp10
 70
     1
102
RTVSPropertyOp11
 70
     1
102
RTVSPropertyOp12
 70
     1
102
RTVSPropertyOp13
 70
     1
102
RTVSPropertyOp14
 70
     1
102
RTVSPropertyOp15
 70
     1
102
RTVSPropertyOp16
 70
     1
102
RTVSPropertyOp17
 70
     1
102
RTVSPropertyOp18
 70
     1
102
RTVSPropertyOp19
 70
     1
102
RTVSPropertyOp20
 70
     1
102
RTVSPropertyOp21
 70
     1
102
RTVSPropertyOp22
 70
     1
102
RTVSPropertyOp23
 70
     1
102
RTVSPropertyOp24
 70
     1
102
RTVSPropertyOp25
 70
     1
102
RTVSPropertyOp26
 70
     1
102
RTVSPropertyOp27
 70
     1
102
RTVSPropertyOp28
 70
     1
102
RTVSPropertyOp29
 70
     1
102
RTVSPropertyOp30
 70
     1
102
RTVSPropertyOp31
 70
     1
102
RTVSPropertyOp32
 70
     1
  0
XRECORD
  5
5A7
102
{ACAD_REACTORS
330
5A6
102
}
330
5A6
100
AcDbXrecord
280
     1
102
RTVSPropertyOp0
 70
     1
102
RTVSPropertyOp1
 70
     1
102
RTVSPropertyOp2
 70
     1
102
RTVSPropertyOp3
 70
     1
102
RTVSPropertyOp4
 70
     1
102
RTVSPropertyOp5
 70
     1
102
RTVSPropertyOp6
 70
     1
102
RTVSPropertyOp7
 70
     1
102
RTVSPropertyOp8
 70
     1
102
RTVSPropertyOp9
 70
     1
102
RTVSPropertyOp10
 70
     1
102
RTVSPropertyOp11
 70
     1
102
RTVSPropertyOp12
 70
     1
102
RTVSPropertyOp13
 70
     1
102
RTVSPropertyOp14
 70
     1
102
RTVSPropertyOp15
 70
     1
102
RTVSPropertyOp16
 70
     1
102
RTVSPropertyOp17
 70
     1
102
RTVSPropertyOp18
 70
     1
102
RTVSPropertyOp19
 70
     1
102
RTVSPropertyOp20
 70
     1
102
RTVSPropertyOp21
 70
     1
102
RTVSPropertyOp22
 70
     1
102
RTVSPropertyOp23
 70
     1
102
RTVSPropertyOp24
 70
     1
102
RTVSPropertyOp25
 70
     1
102
RTVSPropertyOp26
 70
     1
102
RTVSPropertyOp27
 70
     1
102
RTVSPropertyOp28
 70
     1
102
RTVSPropertyOp29
 70
     1
102
RTVSPropertyOp30
 70
     1
102
RTVSPropertyOp31
 70
     1
102
RTVSPropertyOp32
 70
     1
  0
XRECORD
  5
59D
102
{ACAD_REACTORS
330
59C
102
}
330
59C
100
AcDbXrecord
280
     1
102
RTVSPropertyOp0
 70
     1
102
RTVSPropertyOp1
 70
     1
102
RTVSPropertyOp2
 70
     1
102
RTVSPropertyOp3
 70
     1
102
RTVSPropertyOp4
 70
     1
102
RTVSPropertyOp5
 70
     1
102
RTVSPropertyOp6
 70
     1
102
RTVSPropertyOp7
 70
     1
102
RTVSPropertyOp8
 70
     1
102
RTVSPropertyOp9
 70
     1
102
RTVSPropertyOp10
 70
     1
102
RTVSPropertyOp11
 70
     1
102
RTVSPropertyOp12
 70
     1
102
RTVSPropertyOp13
 70
     1
102
RTVSPropertyOp14
 70
     1
102
RTVSPropertyOp15
 70
     1
102
RTVSPropertyOp16
 70
     1
102
RTVSPropertyOp17
 70
     1
102
RTVSPropertyOp18
 70
     1
102
RTVSPropertyOp19
 70
     1
102
RTVSPropertyOp20
 70
     1
102
RTVSPropertyOp21
 70
     1
102
RTVSPropertyOp22
 70
     1
102
RTVSPropertyOp23
 70
     1
102
RTVSPropertyOp24
 70
     1
102
RTVSPropertyOp25
 70
     1
102
RTVSPropertyOp26
 70
     1
102
RTVSPropertyOp27
 70
     1
102
RTVSPropertyOp28
 70
     1
102
RTVSPropertyOp29
 70
     1
102
RTVSPropertyOp30
 70
     1
102
RTVSPropertyOp31
 70
     1
102
RTVSPropertyOp32
 70
     1
  0
XRECORD
  5
5A5
102
{ACAD_REACTORS
330
5A4
102
}
330
5A4
100
AcDbXrecord
280
     1
102
RTVSPropertyOp0
 70
     1
102
RTVSPropertyOp1
 70
     1
102
RTVSPropertyOp2
 70
     1
102
RTVSPropertyOp3
 70
     1
102
RTVSPropertyOp4
 70
     1
102
RTVSPropertyOp5
 70
     1
102
RTVSPropertyOp6
 70
     1
102
RTVSPropertyOp7
 70
     1
102
RTVSPropertyOp8
 70
     1
102
RTVSPropertyOp9
 70
     1
102
RTVSPropertyOp10
 70
     1
102
RTVSPropertyOp11
 70
     1
102
RTVSPropertyOp12
 70
     1
102
RTVSPropertyOp13
 70
     1
102
RTVSPropertyOp14
 70
     1
102
RTVSPropertyOp15
 70
     1
102
RTVSPropertyOp16
 70
     1
102
RTVSPropertyOp17
 70
     1
102
RTVSPropertyOp18
 70
     1
102
RTVSPropertyOp19
 70
     1
102
RTVSPropertyOp20
 70
     1
102
RTVSPropertyOp21
 70
     1
102
RTVSPropertyOp22
 70
     1
102
RTVSPropertyOp23
 70
     1
102
RTVSPropertyOp24
 70
     1
102
RTVSPropertyOp25
 70
     1
102
RTVSPropertyOp26
 70
     1
102
RTVSPropertyOp27
 70
     1
102
RTVSPropertyOp28
 70
     1
102
RTVSPropertyOp29
 70
     1
102
RTVSPropertyOp30
 70
     1
102
RTVSPropertyOp31
 70
     1
102
RTVSPropertyOp32
 70
     1
  0
ENDSEC
  0
EOF
