  0
SECTION
  2
HEADER
  9
$ACADVER
  1
AC1015
  9
$ACADMAINTVER
 70
     6
  9
$DWGCODEPAGE
  3
ANSI_949
  9
$INSBASE
 10
0.0
 20
0.0
 30
0.0
  9
$EXTMIN
 10
1.000000000000000E+20
 20
1.000000000000000E+20
 30
1.000000000000000E+20
  9
$EXTMAX
 10
-1.000000000000000E+20
 20
-1.000000000000000E+20
 30
-1.000000000000000E+20
  9
$LIMMIN
 10
0.0
 20
0.0
  9
$LIMMAX
 10
12.0
 20
9.0
  9
$ORTHOMODE
 70
     0
  9
$REGENMODE
 70
     1
  9
$FILLMODE
 70
     1
  9
$QTEXTMODE
 70
     0
  9
$MIRRTEXT
 70
     1
  9
$LTSCALE
 40
1.0
  9
$ATTMODE
 70
     1
  9
$TEXTSIZE
 40
0.2
  9
$TRACEWID
 40
0.05
  9
$TEXTSTYLE
  7
Standard
  9
$CLAYER
  8
0
  9
$CELTYPE
  6
ByLayer
  9
$CECOLOR
 62
   256
  9
$CELTSCALE
 40
1.0
  9
$DISPSILH
 70
     0
  9
$DIMSCALE
 40
1.0
  9
$DIMASZ
 40
0.18
  9
$DIMEXO
 40
0.0625
  9
$DIMDLI
 40
0.38
  9
$DIMRND
 40
0.0
  9
$DIMDLE
 40
0.0
  9
$DIMEXE
 40
0.18
  9
$DIMTP
 40
0.0
  9
$DIMTM
 40
0.0
  9
$DIMTXT
 40
0.18
  9
$DIMCEN
 40
0.09
  9
$DIMTSZ
 40
0.0
  9
$DIMTOL
 70
     0
  9
$DIMLIM
 70
     0
  9
$DIMTIH
 70
     1
  9
$DIMTOH
 70
     1
  9
$DIMSE1
 70
     0
  9
$DIMSE2
 70
     0
  9
$DIMTAD
 70
     0
  9
$DIMZIN
 70
     0
  9
$DIMBLK
  1

  9
$DIMASO
 70
     1
  9
$DIMSHO
 70
     1
  9
$DIMPOST
  1

  9
$DIMAPOST
  1

  9
$DIMALT
 70
     0
  9
$DIMALTD
 70
     2
  9
$DIMALTF
 40
25.4
  9
$DIMLFAC
 40
1.0
  9
$DIMTOFL
 70
     0
  9
$DIMTVP
 40
0.0
  9
$DIMTIX
 70
     0
  9
$DIMSOXD
 70
     0
  9
$DIMSAH
 70
     0
  9
$DIMBLK1
  1

  9
$DIMBLK2
  1

  9
$DIMSTYLE
  2
Standard
  9
$DIMCLRD
 70
     0
  9
$DIMCLRE
 70
     0
  9
$DIMCLRT
 70
     0
  9
$DIMTFAC
 40
1.0
  9
$DIMGAP
 40
0.09
  9
$DIMJUST
 70
     0
  9
$DIMSD1
 70
     0
  9
$DIMSD2
 70
     0
  9
$DIMTOLJ
 70
     1
  9
$DIMTZIN
 70
     0
  9
$DIMALTZ
 70
     0
  9
$DIMALTTZ
 70
     0
  9
$DIMUPT
 70
     0
  9
$DIMDEC
 70
     4
  9
$DIMTDEC
 70
     4
  9
$DIMALTU
 70
     2
  9
$DIMALTTD
 70
     2
  9
$DIMTXSTY
  7
Standard
  9
$DIMAUNIT
 70
     0
  9
$DIMADEC
 70
     0
  9
$DIMALTRND
 40
0.0
  9
$DIMAZIN
 70
     0
  9
$DIMDSEP
 70
    46
  9
$DIMATFIT
 70
     3
  9
$DIMFRAC
 70
     0
  9
$DIMLDRBLK
  1

  9
$DIMLUNIT
 70
     2
  9
$DIMLWD
 70
    -2
  9
$DIMLWE
 70
    -2
  9
$DIMTMOVE
 70
     0
  9
$LUNITS
 70
     2
  9
$LUPREC
 70
     4
  9
$SKETCHINC
 40
0.1
  9
$FILLETRAD
 40
0.5
  9
$AUNITS
 70
     0
  9
$AUPREC
 70
     0
  9
$MENU
  1
.
  9
$ELEVATION
 40
0.0
  9
$PELEVATION
 40
0.0
  9
$THICKNESS
 40
0.0
  9
$LIMCHECK
 70
     0
  9
$CHAMFERA
 40
0.5
  9
$CHAMFERB
 40
0.5
  9
$CHAMFERC
 40
1.0
  9
$CHAMFERD
 40
0.0
  9
$SKPOLY
 70
     0
  9
$TDCREATE
 40
2456522.583829178
  9
$TDUCREATE
 40
2456522.083829178
  9
$TDUPDATE
 40
2456522.583859676
  9
$TDUUPDATE
 40
2456522.083859676
  9
$TDINDWG
 40
0.0000000116
  9
$TDUSRTIMER
 40
0.0000000116
  9
$USRTIMER
 70
     1
  9
$ANGBASE
 50
0.0
  9
$ANGDIR
 70
     0
  9
$PDMODE
 70
     0
  9
$PDSIZE
 40
0.0
  9
$PLINEWID
 40
0.0
  9
$SPLFRAME
 70
     0
  9
$SPLINETYPE
 70
     6
  9
$SPLINESEGS
 70
     8
  9
$HANDSEED
  5
68D
  9
$SURFTAB1
 70
     6
  9
$SURFTAB2
 70
     6
  9
$SURFTYPE
 70
     6
  9
$SURFU
 70
     6
  9
$SURFV
 70
     6
  9
$UCSBASE
  2

  9
$UCSNAME
  2

  9
$UCSORG
 10
0.0
 20
0.0
 30
0.0
  9
$UCSXDIR
 10
1.0
 20
0.0
 30
0.0
  9
$UCSYDIR
 10
0.0
 20
1.0
 30
0.0
  9
$UCSORTHOREF
  2

  9
$UCSORTHOVIEW
 70
     0
  9
$UCSORGTOP
 10
0.0
 20
0.0
 30
0.0
  9
$UCSORGBOTTOM
 10
0.0
 20
0.0
 30
0.0
  9
$UCSORGLEFT
 10
0.0
 20
0.0
 30
0.0
  9
$UCSORGRIGHT
 10
0.0
 20
0.0
 30
0.0
  9
$UCSORGFRONT
 10
0.0
 20
0.0
 30
0.0
  9
$UCSORGBACK
 10
0.0
 20
0.0
 30
0.0
  9
$PUCSBASE
  2

  9
$PUCSNAME
  2

  9
$PUCSORG
 10
0.0
 20
0.0
 30
0.0
  9
$PUCSXDIR
 10
1.0
 20
0.0
 30
0.0
  9
$PUCSYDIR
 10
0.0
 20
1.0
 30
0.0
  9
$PUCSORTHOREF
  2

  9
$PUCSORTHOVIEW
 70
     0
  9
$PUCSORGTOP
 10
0.0
 20
0.0
 30
0.0
  9
$PUCSORGBOTTOM
 10
0.0
 20
0.0
 30
0.0
  9
$PUCSORGLEFT
 10
0.0
 20
0.0
 30
0.0
  9
$PUCSORGRIGHT
 10
0.0
 20
0.0
 30
0.0
  9
$PUCSORGFRONT
 10
0.0
 20
0.0
 30
0.0
  9
$PUCSORGBACK
 10
0.0
 20
0.0
 30
0.0
  9
$USERI1
 70
     0
  9
$USERI2
 70
     0
  9
$USERI3
 70
     0
  9
$USERI4
 70
     0
  9
$USERI5
 70
     0
  9
$USERR1
 40
0.0
  9
$USERR2
 40
0.0
  9
$USERR3
 40
0.0
  9
$USERR4
 40
0.0
  9
$USERR5
 40
0.0
  9
$WORLDVIEW
 70
     1
  9
$SHADEDGE
 70
     3
  9
$SHADEDIF
 70
    70
  9
$TILEMODE
 70
     1
  9
$MAXACTVP
 70
    64
  9
$PINSBASE
 10
0.0
 20
0.0
 30
0.0
  9
$PLIMCHECK
 70
     0
  9
$PEXTMIN
 10
1.000000000000000E+20
 20
1.000000000000000E+20
 30
1.000000000000000E+20
  9
$PEXTMAX
 10
-1.000000000000000E+20
 20
-1.000000000000000E+20
 30
-1.000000000000000E+20
  9
$PLIMMIN
 10
0.0
 20
0.0
  9
$PLIMMAX
 10
12.0
 20
9.0
  9
$UNITMODE
 70
     0
  9
$VISRETAIN
 70
     1
  9
$PLINEGEN
 70
     0
  9
$PSLTSCALE
 70
     1
  9
$TREEDEPTH
 70
  3020
  9
$CMLSTYLE
  2
Standard
  9
$CMLJUST
 70
     0
  9
$CMLSCALE
 40
1.0
  9
$PROXYGRAPHICS
 70
     1
  9
$MEASUREMENT
 70
     0
  9
$CELWEIGHT
370
    -1
  9
$ENDCAPS
280
     0
  9
$JOINSTYLE
280
     0
  9
$LWDISPLAY
290
     1
  9
$INSUNITS
 70
     4
  9
$HYPERLINKBASE
  1

  9
$STYLESHEET
  1

  9
$XEDIT
290
     1
  9
$CEPSNTYPE
380
     0
  9
$PSTYLEMODE
290
     1
  9
$FINGERPRINTGUID
  2
{4D256046-9C18-4E40-BC5A-99ED00B44BCF}
  9
$VERSIONGUID
  2
{FAEB1C32-E019-11D5-929B-00C0DF256EC4}
  9
$EXTNAMES
290
     1
  9
$PSVPSCALE
 40
0.0
  9
$OLESTARTUP
290
     0
  0
ENDSEC
  0
SECTION
  2
CLASSES
  0
CLASS
  1
ACDBDICTIONARYWDFLT
  2
AcDbDictionaryWithDefault
  3
ObjectDBX Classes
 90
        0
280
     0
281
     0
  0
CLASS
  1
VISUALSTYLE
  2
AcDbVisualStyle
  3
ObjectDBX Classes
 90
     4095
280
     0
281
     0
  0
CLASS
  1
MATERIAL
  2
AcDbMaterial
  3
ObjectDBX Classes
 90
     1153
280
     0
281
     0
  0
CLASS
  1
SPATIAL_FILTER
  2
AcDbSpatialFilter
  3
ObjectDBX Classes
 90
        0
280
     0
281
     0
  0
CLASS
  1
SCALE
  2
AcDbScale
  3
ObjectDBX Classes
 90
     1153
280
     0
281
     0
  0
CLASS
  1
DICTIONARYVAR
  2
AcDbDictionaryVar
  3
ObjectDBX Classes
 90
        0
280
     0
281
     0
  0
CLASS
  1
ACDBPLACEHOLDER
  2
AcDbPlaceHolder
  3
ObjectDBX Classes
 90
        0
280
     0
281
     0
  0
CLASS
  1
LAYOUT
  2
AcDbLayout
  3
ObjectDBX Classes
 90
        0
280
     0
281
     0
  0
ENDSEC
  0
SECTION
  2
TABLES
  0
TABLE
  2
VPORT
  5
8
330
0
100
AcDbSymbolTable
 70
     1
  0
VPORT
  5
29
330
8
100
AcDbSymbolTableRecord
100
AcDbViewportTableRecord
  2
*Active
 70
     0
 10
0.0
 20
0.0
 11
1.0
 21
1.0
 12
148.6203422501967
 22
97.27060520811655
 13
0.0
 23
0.0
 14
0.5
 24
0.5
 15
0.5
 25
0.5
 16
0.0
 26
0.0
 36
1.0
 17
0.0
 27
0.0
 37
0.0
 40
194.2971225111692
 41
1.486926277925945
 42
50.0
 43
0.0
 44
0.0
 50
0.0
 51
0.0
 71
     0
 72
   100
 73
     1
 74
     3
 75
     0
 76
     0
 77
     0
 78
     0
281
     0
 65
     1
110
0.0
120
0.0
130
0.0
111
1.0
121
0.0
131
0.0
112
0.0
122
1.0
132
0.0
 79
     0
146
0.0
  0
ENDTAB
  0
TABLE
  2
LTYPE
  5
5
330
0
100
AcDbSymbolTable
 70
     2
  0
LTYPE
  5
14
330
5
100
AcDbSymbolTableRecord
100
AcDbLinetypeTableRecord
  2
ByBlock
 70
     0
  3

 72
    65
 73
     0
 40
0.0
  0
LTYPE
  5
15
330
5
100
AcDbSymbolTableRecord
100
AcDbLinetypeTableRecord
  2
ByLayer
 70
     0
  3

 72
    65
 73
     0
 40
0.0
  0
LTYPE
  5
16
330
5
100
AcDbSymbolTableRecord
100
AcDbLinetypeTableRecord
  2
Continuous
 70
     0
  3
Solid line
 72
    65
 73
     0
 40
0.0
  0
LTYPE
  5
131
330
5
100
AcDbSymbolTableRecord
100
AcDbLinetypeTableRecord
  2
Dashed
 70
     0
  3
- - - - - 
 72
    65
 73
     2
 40
5.644444465637207
 49
2.822222232818604
 74
     0
 49
-2.822222232818603
 74
     0
  0
ENDTAB
  0
TABLE
  2
LAYER
  5
2
330
0
100
AcDbSymbolTable
 70
     3
  0
LAYER
  5
10
330
2
100
AcDbSymbolTableRecord
100
AcDbLayerTableRecord
  2
0
 70
     0
 62
     7
  6
Continuous
370
    -3
390
F
  0
LAYER
  5
40
330
2
100
AcDbSymbolTableRecord
100
AcDbLayerTableRecord
  2
Doc_ Finishes
 70
     0
 62
     7
  6
Continuous
370
    -3
390
F
  0
LAYER
  5
DB
330
2
100
AcDbSymbolTableRecord
100
AcDbLayerTableRecord
  2
Doc_ Floor
 70
     0
 62
     7
  6
Continuous
370
    -3
390
F
  0
ENDTAB
  0
TABLE
  2
STYLE
  5
3
330
0
100
AcDbSymbolTable
 70
     4
  0
STYLE
  5
11
330
3
100
AcDbSymbolTableRecord
100
AcDbTextStyleTableRecord
  2
Standard
 70
     0
 40
0.0
 41
1.0
 50
0.0
 71
     0
 42
0.2
  3
txt
  4

  0
STYLE
  5
D6
330
3
100
AcDbSymbolTableRecord
100
AcDbTextStyleTableRecord
  2
GENERATED_STYLE_1
 70
     0
 40
0.0
 41
1.0
 50
0.0
 71
     0
 42
0.2
  3

  4

1001
ACAD
1000
Century Gothic
1071
       34
  0
STYLE
  5
D9
330
3
100
AcDbSymbolTableRecord
100
AcDbTextStyleTableRecord
  2
GENERATED_STYLE_2
 70
     0
 40
0.0
 41
1.0
 50
0.0
 71
     0
 42
0.2
  3

  4

1001
ACAD
1000
DilleniaUPC
1071
 33554450
  0
STYLE
  5
167
330
3
100
AcDbSymbolTableRecord
100
AcDbTextStyleTableRecord
  2
GENERATED_STYLE_3
 70
     0
 40
0.0
 41
1.0
 50
0.0
 71
     0
 42
0.2
  3

  4

1001
ACAD
1000
Arial
1071
       34
  0
ENDTAB
  0
TABLE
  2
VIEW
  5
6
330
0
100
AcDbSymbolTable
 70
     0
  0
ENDTAB
  0
TABLE
  2
UCS
  5
7
330
0
100
AcDbSymbolTable
 70
     0
  0
ENDTAB
  0
TABLE
  2
APPID
  5
9
330
0
100
AcDbSymbolTable
 70
     1
  0
APPID
  5
12
330
9
100
AcDbSymbolTableRecord
100
AcDbRegAppTableRecord
  2
ACAD
 70
     0
  0
ENDTAB
  0
TABLE
  2
DIMSTYLE
  5
A
330
0
100
AcDbSymbolTable
 70
     1
100
AcDbDimStyleTable
  0
DIMSTYLE
105
27
330
A
100
AcDbSymbolTableRecord
100
AcDbDimStyleTableRecord
  2
Standard
 70
     0
178
     0
340
11
  0
ENDTAB
  0
TABLE
  2
BLOCK_RECORD
  5
1
330
0
100
AcDbSymbolTable
 70
     3
  0
BLOCK_RECORD
  5
1F
330
1
100
AcDbSymbolTableRecord
100
AcDbBlockTableRecord
  2
*Model_Space
340
22
  0
BLOCK_RECORD
  5
1B
330
1
100
AcDbSymbolTableRecord
100
AcDbBlockTableRecord
  2
*Paper_Space
340
1E
  0
BLOCK_RECORD
  5
E3
330
1
100
AcDbSymbolTableRecord
100
AcDbBlockTableRecord
  2
Drawing_1_2
340
0
102
{BLKREFS
331
633
102
}
  0
BLOCK_RECORD
  5
637
330
1
100
AcDbSymbolTableRecord
100
AcDbBlockTableRecord
  2
R-TRS7-08 APRON DETAIL - HEAD_STORY_MARKER
340
0
  0
ENDTAB
  0
ENDSEC
  0
SECTION
  2
BLOCKS
  0
BLOCK
  5
20
330
1F
100
AcDbEntity
  8
0
100
AcDbBlockBegin
  2
*Model_Space
 70
     0
 10
0.0
 20
0.0
 30
0.0
  3
*Model_Space
  1

  0
ENDBLK
  5
21
330
1F
100
AcDbEntity
  8
0
100
AcDbBlockEnd
  0
BLOCK
  5
1C
330
1B
100
AcDbEntity
 67
     1
  8
0
100
AcDbBlockBegin
  2
*Paper_Space
 70
     0
 10
0.0
 20
0.0
 30
0.0
  3
*Paper_Space
  1

  0
ENDBLK
  5
1D
330
1B
100
AcDbEntity
 67
     1
  8
0
100
AcDbBlockEnd
  0
BLOCK
  5
E4
330
E3
100
AcDbEntity
  8
0
100
AcDbBlockBegin
  2
Drawing_1_2
 70
     0
 10
28.8753134188689
 20
84.42632391951834
 30
0.0
  3
Drawing_1_2
  1

  0
HATCH
  5
E6
330
E3
100
AcDbEntity
  8
0
  6
Continuous
 62
   255
370
     0
100
AcDbHatch
 10
0.0
 20
0.0
 30
0.0
210
0.0
220
0.0
230
1.0
  2
SOLID
 70
     1
 71
     0
 91
        1
 92
        3
 72
     0
 73
     1
 93
        4
 10
164.0614679563564
 20
192.5142914063299
 10
164.0614679563564
 20
145.9934618480937
 10
168.0614672234631
 20
145.9934618480937
 10
168.0614672234631
 20
192.5142914063299
 97
        0
 75
     0
 76
     1
 98
        0
  0
LINE
  5
E7
330
E3
100
AcDbEntity
  8
0
  6
Continuous
100
AcDbLine
 10
164.0614679563564
 20
192.5142914063299
 30
0.0
 11
164.0614679563564
 21
145.9934618480937
 31
0.0
  0
LINE
  5
E8
330
E3
100
AcDbEntity
  8
0
  6
Continuous
100
AcDbLine
 10
164.0614679563564
 20
145.9934618480937
 30
0.0
 11
168.0614672234631
 21
145.9934618480937
 31
0.0
  0
LINE
  5
E9
330
E3
100
AcDbEntity
  8
0
  6
Continuous
100
AcDbLine
 10
168.0614672234631
 20
145.9934618480937
 30
0.0
 11
168.0614672234631
 21
192.5142914063299
 31
0.0
  0
HATCH
  5
EA
330
E3
100
AcDbEntity
  8
0
  6
Continuous
 62
   255
370
     0
100
AcDbHatch
 10
0.0
 20
0.0
 30
0.0
210
0.0
220
0.0
230
1.0
  2
SOLID
 70
     1
 71
     0
 91
        1
 92
        3
 72
     0
 73
     1
 93
        4
 10
164.0614669763566
 20
143.9934614727524
 10
168.0614669763566
 20
143.9934614727524
 10
168.0614669763566
 20
152.9934614727524
 10
164.0614669763566
 20
152.9934614727524
 97
        0
 75
     0
 76
     1
 98
        0
  0
LINE
  5
EB
330
E3
100
AcDbEntity
  8
0
  6
Continuous
100
AcDbLine
 10
164.0614679563564
 20
143.993460519871
 30
0.0
 11
168.0614672234631
 21
152.9934631075344
 31
0.0
  0
LINE
  5
EC
330
E3
100
AcDbEntity
  8
0
  6
Continuous
100
AcDbLine
 10
164.0614679563564
 20
143.993460519871
 30
0.0
 11
168.0614672234631
 21
143.993460519871
 31
0.0
  0
LINE
  5
ED
330
E3
100
AcDbEntity
  8
0
  6
Continuous
100
AcDbLine
 10
168.0614672234631
 20
143.993460519871
 30
0.0
 11
168.0614672234631
 21
152.9934631075344
 31
0.0
  0
LINE
  5
EE
330
E3
100
AcDbEntity
  8
0
  6
Continuous
100
AcDbLine
 10
168.0614672234631
 20
152.9934631075344
 30
0.0
 11
164.0614679563564
 21
152.9934631075344
 31
0.0
  0
LINE
  5
EF
330
E3
100
AcDbEntity
  8
0
  6
Continuous
100
AcDbLine
 10
164.0614679563564
 20
152.9934631075344
 30
0.0
 11
164.0614679563564
 21
143.993460519871
 31
0.0
  0
HATCH
  5
F0
330
E3
100
AcDbEntity
  8
0
  6
Continuous
 62
   255
370
     0
100
AcDbHatch
 10
0.0
 20
0.0
 30
0.0
210
0.0
220
0.0
230
1.0
  2
SOLID
 70
     1
 71
     0
 91
        1
 92
        3
 72
     0
 73
     1
 93
        4
 10
172.1431044428645
 20
192.5142948764787
 10
172.1431044428645
 20
28.70874527642625
 10
190.1431026398223
 20
28.70874527642625
 10
190.1431026398223
 20
192.5142948764787
 97
        0
 75
     0
 76
     1
 98
        0
  0
LINE
  5
F1
330
E3
100
AcDbEntity
  8
0
  6
Continuous
100
AcDbLine
 10
190.1431026398223
 20
28.70874527642625
 30
0.0
 11
190.1431026398223
 21
192.5142948764787
 31
0.0
  0
LINE
  5
F2
330
E3
100
AcDbEntity
  8
0
  6
Continuous
100
AcDbLine
 10
172.1431044428645
 20
192.5142948764787
 30
0.0
 11
172.1431044428645
 21
28.70874527642625
 31
0.0
  0
HATCH
  5
F3
330
E3
100
AcDbEntity
  8
0
  6
Continuous
 62
   255
370
     0
100
AcDbHatch
 10
0.0
 20
0.0
 30
0.0
210
0.0
220
0.0
230
1.0
  2
SOLID
 70
     1
 71
     0
 91
        1
 92
        3
 72
     0
 73
     1
 93
        4
 10
190.1431035861495
 20
51.48412375138037
 10
190.1431035861495
 20
60.48412375138036
 10
172.1431035861495
 20
60.48412375138036
 10
172.1431035861495
 20
51.48412375138037
 97
        0
 75
     0
 76
     1
 98
        0
  0
LINE
  5
F4
330
E3
100
AcDbEntity
  8
0
  6
Continuous
100
AcDbLine
 10
190.1431038889798
 20
51.48412416416243
 30
0.0
 11
190.1431038889798
 21
60.48412336248715
 31
0.0
  0
LINE
  5
F5
330
E3
100
AcDbEntity
  8
0
  6
Continuous
100
AcDbLine
 10
190.1431038889798
 20
60.48412336248715
 30
0.0
 11
172.1431021029916
 21
60.48412336248715
 31
0.0
  0
LINE
  5
F6
330
E3
100
AcDbEntity
  8
0
  6
Continuous
100
AcDbLine
 10
172.1431021029916
 20
60.48412336248715
 30
0.0
 11
172.1431021029916
 21
51.48412416416243
 31
0.0
  0
LINE
  5
F7
330
E3
100
AcDbEntity
  8
0
  6
Continuous
100
AcDbLine
 10
172.1431021029916
 20
51.48412416416243
 30
0.0
 11
190.1431038889798
 21
51.48412416416243
 31
0.0
  0
LINE
  5
F8
330
E3
100
AcDbEntity
  8
0
  6
Continuous
100
AcDbLine
 10
172.1431021029916
 20
51.48412416416243
 30
0.0
 11
190.1431038889798
 21
60.48412336248715
 31
0.0
  0
HATCH
  5
F9
330
E3
100
AcDbEntity
  8
0
  6
Continuous
 62
   255
370
     0
100
AcDbHatch
 10
0.0
 20
0.0
 30
0.0
210
0.0
220
0.0
230
1.0
  2
SOLID
 70
     1
 71
     0
 91
        1
 92
        3
 72
     0
 73
     1
 93
        4
 10
161.2614674525801
 20
192.5142914063299
 10
161.2614674525801
 20
142.9934598557597
 10
163.0614672922451
 20
142.9934598557597
 10
163.0614672922451
 20
192.5142914063299
 97
        0
 75
     0
 76
     1
 98
        0
  0
HATCH
  5
FA
330
E3
100
AcDbEntity
  8
0
  6
Continuous
100
AcDbHatch
 10
0.0
 20
0.0
 30
0.0
210
0.0
220
0.0
230
1.0
  2
Plaster_0002
 70
     0
 71
     0
 91
        1
 92
        3
 72
     0
 73
     1
 93
        4
 10
161.2614674525801
 20
192.5142914063299
 10
161.2614674525801
 20
142.9934598557597
 10
163.0614672922451
 20
142.9934598557597
 10
163.0614672922451
 20
192.5142914063299
 97
        0
 75
     0
 76
     2
 52
0.0
 41
1.0
 77
     0
 78
     2
 53
0.0
 43
28.8753134188689
 44
84.42632391951834
 45
0.0
 46
1.732050807568877
 79
     2
 49
0.0
 49
-1.0
 53
0.0
 43
29.3753134188689
 44
85.29234930775915
 45
0.0
 46
1.732050807568877
 79
     2
 49
0.0
 49
-1.0
 98
        0
  0
LINE
  5
FB
330
E3
100
AcDbEntity
  8
0
  6
Continuous
100
AcDbLine
 10
161.2614674525801
 20
192.5142914063299
 30
0.0
 11
161.2614674525801
 21
142.9934598557597
 31
0.0
  0
LINE
  5
FC
330
E3
100
AcDbEntity
  8
0
  6
Continuous
100
AcDbLine
 10
161.2614674525801
 20
142.9934598557597
 30
0.0
 11
163.0614672922451
 21
142.9934598557597
 31
0.0
  0
LINE
  5
FD
330
E3
100
AcDbEntity
  8
0
  6
Continuous
100
AcDbLine
 10
163.0614672922451
 20
142.9934598557597
 30
0.0
 11
163.0614672922451
 21
192.5142914063299
 31
0.0
  0
HATCH
  5
FE
330
E3
100
AcDbEntity
  8
0
  6
Continuous
 62
   255
370
     0
100
AcDbHatch
 10
0.0
 20
0.0
 30
0.0
210
0.0
220
0.0
230
1.0
  2
SOLID
 70
     1
 71
     0
 91
        1
 92
        3
 72
     0
 73
     1
 93
        4
 10
181.1431035861495
 20
157.1934614727524
 10
172.1431035861495
 20
157.1934614727524
 10
172.1431035861495
 20
139.1934614727524
 10
181.1431035861495
 20
139.1934614727524
 97
        0
 75
     0
 76
     1
 98
        0
  0
LINE
  5
FF
330
E3
100
AcDbEntity
  8
0
  6
Continuous
100
AcDbLine
 10
181.1431046906551
 20
157.1934604738602
 30
0.0
 11
172.1431021029916
 21
139.1934620772107
 31
0.0
  0
LINE
  5
100
330
E3
100
AcDbEntity
  8
0
  6
Continuous
100
AcDbLine
 10
181.1431046906551
 20
157.1934604738602
 30
0.0
 11
172.1431021029916
 21
157.1934604738602
 31
0.0
  0
LINE
  5
101
330
E3
100
AcDbEntity
  8
0
  6
Continuous
100
AcDbLine
 10
172.1431021029916
 20
157.1934604738602
 30
0.0
 11
172.1431021029916
 21
139.1934620772107
 31
0.0
  0
LINE
  5
102
330
E3
100
AcDbEntity
  8
0
  6
Continuous
100
AcDbLine
 10
172.1431021029916
 20
139.1934620772107
 30
0.0
 11
181.1431046906551
 21
139.1934620772107
 31
0.0
  0
LINE
  5
103
330
E3
100
AcDbEntity
  8
0
  6
Continuous
100
AcDbLine
 10
181.1431046906551
 20
139.1934620772107
 30
0.0
 11
181.1431046906551
 21
157.1934604738602
 31
0.0
  0
HATCH
  5
104
330
E3
100
AcDbEntity
  8
0
  6
Continuous
 62
   255
370
     0
100
AcDbHatch
 10
0.0
 20
0.0
 30
0.0
210
0.0
220
0.0
230
1.0
  2
SOLID
 70
     1
 71
     0
 91
        1
 92
        3
 72
     0
 73
     1
 93
        4
 10
181.1431035861495
 20
136.5511166022701
 10
172.1431035861495
 20
136.5511166022701
 10
172.1431035861495
 20
118.5511166022701
 10
181.1431035861495
 20
118.5511166022701
 97
        0
 75
     0
 76
     1
 98
        0
  0
LINE
  5
105
330
E3
100
AcDbEntity
  8
0
  6
Continuous
100
AcDbLine
 10
181.1431046906551
 20
136.5511166640183
 30
0.0
 11
172.1431021029916
 21
118.5511182673689
 31
0.0
  0
LINE
  5
106
330
E3
100
AcDbEntity
  8
0
  6
Continuous
100
AcDbLine
 10
181.1431046906551
 20
136.5511166640183
 30
0.0
 11
172.1431021029916
 21
136.5511166640183
 31
0.0
  0
LINE
  5
107
330
E3
100
AcDbEntity
  8
0
  6
Continuous
100
AcDbLine
 10
172.1431021029916
 20
136.5511166640183
 30
0.0
 11
172.1431021029916
 21
118.5511182673689
 31
0.0
  0
LINE
  5
108
330
E3
100
AcDbEntity
  8
0
  6
Continuous
100
AcDbLine
 10
172.1431021029916
 20
118.5511182673689
 30
0.0
 11
181.1431046906551
 21
118.5511182673689
 31
0.0
  0
LINE
  5
109
330
E3
100
AcDbEntity
  8
0
  6
Continuous
100
AcDbLine
 10
181.1431046906551
 20
118.5511182673689
 30
0.0
 11
181.1431046906551
 21
136.5511166640183
 31
0.0
  0
HATCH
  5
10A
330
E3
100
AcDbEntity
  8
0
  6
Continuous
 62
   255
370
     0
100
AcDbHatch
 10
0.0
 20
0.0
 30
0.0
210
0.0
220
0.0
230
1.0
  2
SOLID
 70
     1
 71
     0
 91
        1
 92
        3
 72
     0
 73
     1
 93
        4
 10
172.1431030874204
 20
102.5389254599213
 10
35.31938941328067
 20
78.41321135362739
 10
35.31938941328067
 20
28.7087466410241
 10
172.1431030874204
 20
28.7087466410241
 97
        0
 75
     0
 76
     1
 98
        0
  0
HATCH
  5
10B
330
E3
100
AcDbEntity
  8
0
  6
Continuous
 62
   255
370
     0
100
AcDbHatch
 10
0.0
 20
0.0
 30
0.0
210
0.0
220
0.0
230
1.0
  2
SOLID
 70
     1
 71
     0
 91
        1
 92
        3
 72
     0
 73
     1
 93
        4
 10
172.1431050269107
 20
120.8166022915522
 10
35.31939153784569
 20
96.69088921764823
 10
35.31939153784569
 20
78.4132126871615
 10
172.1431050269107
 20
102.5389257610655
 97
        0
 75
     0
 76
     1
 98
        0
  0
LINE
  5
10C
330
E3
100
AcDbEntity
  8
0
  6
Continuous
100
AcDbLine
 10
35.31938941328067
 20
78.41321135362739
 30
0.0
 11
172.1431030874204
 21
102.5389254599213
 31
0.0
  0
LINE
  5
10D
330
E3
100
AcDbEntity
  8
0
  6
Continuous
100
AcDbLine
 10
172.1431021029916
 20
102.5389229688871
 30
0.0
 11
172.1431021029916
 21
120.8166031082293
 31
0.0
  0
LINE
  5
10E
330
E3
100
AcDbEntity
  8
0
  6
Continuous
100
AcDbLine
 10
172.1431050269107
 20
120.816604775009
 30
0.0
 11
35.31939153784569
 21
96.69089170110493
 31
0.0
  0
HATCH
  5
10F
330
E3
100
AcDbEntity
  8
0
  6
Continuous
 62
   255
370
     0
100
AcDbHatch
 10
0.0
 20
0.0
 30
0.0
210
0.0
220
0.0
230
1.0
  2
SOLID
 70
     1
 71
     0
 91
        1
 92
        3
 72
     0
 73
     1
 93
        4
 10
162.1431022405556
 20
100.7756562056509
 10
162.1431022405556
 20
28.70874690469444
 10
172.1431021029916
 20
28.70874690469444
 10
172.1431021029916
 20
102.5389257816018
 97
        0
 75
     0
 76
     1
 98
        0
  0
LINE
  5
110
330
E3
100
AcDbEntity
  8
0
  6
Continuous
100
AcDbLine
 10
172.1431021029916
 20
28.70874690469444
 30
0.0
 11
172.1431021029916
 21
102.5389257816018
 31
0.0
  0
LINE
  5
111
330
E3
100
AcDbEntity
  8
0
  6
Continuous
100
AcDbLine
 10
172.1431021029916
 20
102.5389229688871
 30
0.0
 11
162.1431022405556
 21
100.7756533929362
 31
0.0
  0
LINE
  5
112
330
E3
100
AcDbEntity
  8
0
  6
Continuous
100
AcDbLine
 10
162.1431022405556
 20
100.7756562056509
 30
0.0
 11
162.1431022405556
 21
28.70874690469444
 31
0.0
  0
HATCH
  5
113
330
E3
100
AcDbEntity
  8
0
  6
Continuous
 62
   255
370
     0
100
AcDbHatch
 10
0.0
 20
0.0
 30
0.0
210
0.0
220
0.0
230
1.0
  2
SOLID
 70
     1
 71
     0
 91
        1
 92
        3
 72
     0
 73
     1
 93
        4
 10
139.9280922574479
 20
28.70874831981048
 10
35.31939329414725
 20
69.2247062776317
 10
35.31939329414725
 20
58.50086102426148
 10
112.24005036449
 20
28.70874831981048
 97
        0
 75
     0
 76
     1
 98
        0
  0
LINE
  5
114
330
E3
100
AcDbEntity
  8
0
  6
Continuous
100
AcDbLine
 10
139.9280952367266
 20
28.70874659496576
 30
0.0
 11
35.31939279626983
 21
69.22470760201318
 31
0.0
  0
LINE
  5
115
330
E3
100
AcDbEntity
  8
0
  6
Continuous
100
AcDbLine
 10
35.31939329414725
 20
58.50086102426148
 30
0.0
 11
112.24005036449
 21
28.70874831981048
 31
0.0
  0
HATCH
  5
116
330
E3
100
AcDbEntity
  8
0
  6
Continuous
 62
   253
370
    25
100
AcDbHatch
 10
0.0
 20
0.0
 30
0.0
210
0.0
220
0.0
230
1.0
  2
SOLID
 70
     1
 71
     0
 91
        1
 92
        3
 72
     0
 73
     1
 93
        4
 10
170.1888661653691
 20
131.7112212649197
 10
168.9385992861672
 20
138.8018370866076
 10
63.92905719945418
 20
120.2858215848789
 10
65.1793240786561
 20
113.195205763191
 97
        0
 75
     0
 76
     1
 98
        0
  0
LINE
  5
117
330
E3
100
AcDbEntity
  8
0
  6
Continuous
100
AcDbLine
 10
168.9386009696177
 20
138.8018375454123
 30
0.0
 11
170.1888670155118
 21
131.7112223152791
 31
0.0
  0
LINE
  5
118
330
E3
100
AcDbEntity
  8
0
  6
Continuous
100
AcDbLine
 10
63.92905803620212
 20
120.2858224965835
 30
0.0
 11
168.9386009696177
 21
138.8018375454123
 31
0.0
  0
LINE
  5
119
330
E3
100
AcDbEntity
  8
0
  6
Continuous
100
AcDbLine
 10
65.17932408209619
 20
113.1952072664503
 30
0.0
 11
63.92905803620212
 21
120.2858224965835
 31
0.0
  0
LINE
  5
11A
330
E3
100
AcDbEntity
  8
0
  6
Continuous
100
AcDbLine
 10
170.1888670155118
 20
131.7112223152791
 30
0.0
 11
65.17932408209619
 21
113.1952072664503
 31
0.0
  0
HATCH
  5
11B
330
E3
100
AcDbEntity
  8
0
  6
Continuous
 62
   255
370
     0
100
AcDbHatch
 10
0.0
 20
0.0
 30
0.0
210
0.0
220
0.0
230
1.0
  2
SOLID
 70
     1
 71
     0
 91
        1
 92
        3
 72
     0
 73
     1
 93
        4
 10
160.2022524963973
 20
127.8499487897371
 10
146.4149439542264
 20
125.4188743024001
 10
147.9777775532288
 20
116.5556045252902
 10
161.7650860953997
 20
118.9866790126273
 97
        0
 75
     0
 76
     1
 98
        0
  0
LINE
  5
11C
330
E3
100
AcDbEntity
  8
0
  6
Continuous
100
AcDbLine
 10
161.7650859037199
 20
118.9866787970011
 30
0.0
 11
146.4149436948675
 21
125.4188743086133
 31
0.0
  0
LINE
  5
11D
330
E3
100
AcDbEntity
  8
0
  6
Continuous
100
AcDbLine
 10
160.202251651683
 20
127.8499486820023
 30
0.0
 11
147.9777779469045
 21
116.5556044236121
 31
0.0
  0
LINE
  5
11E
330
E3
100
AcDbEntity
  8
0
  6
Continuous
100
AcDbLine
 10
160.202251651683
 20
127.8499486820023
 30
0.0
 11
161.7650859037199
 21
118.9866787970011
 31
0.0
  0
LINE
  5
11F
330
E3
100
AcDbEntity
  8
0
  6
Continuous
100
AcDbLine
 10
161.7650859037199
 20
118.9866787970011
 30
0.0
 11
147.9777779469045
 21
116.5556044236121
 31
0.0
  0
LINE
  5
120
330
E3
100
AcDbEntity
  8
0
  6
Continuous
100
AcDbLine
 10
147.9777779469045
 20
116.5556044236121
 30
0.0
 11
146.4149436948675
 21
125.4188743086133
 31
0.0
  0
LINE
  5
121
330
E3
100
AcDbEntity
  8
0
  6
Continuous
100
AcDbLine
 10
146.4149436948675
 20
125.4188743086133
 30
0.0
 11
160.202251651683
 21
127.8499486820023
 31
0.0
  0
HATCH
  5
122
330
E3
100
AcDbEntity
  8
0
  6
Continuous
 62
   255
370
     0
100
AcDbHatch
 10
0.0
 20
0.0
 30
0.0
210
0.0
220
0.0
230
1.0
  2
SOLID
 70
     1
 71
     0
 91
        1
 92
        3
 72
     0
 73
     1
 93
        9
 10
35.31939137848009
 20
130.1708836776592
 10
35.31939137848009
 20
109.4544118487777
 10
40.10157342136979
 20
82.33331144094922
 10
117.7124420704056
 20
82.33331144094922
 10
113.842211870671
 20
104.2824810412963
 10
107.6106809891257
 20
105.595556424121
 10
119.379147949273
 20
106.9086352507166
 10
113.1476170677277
 20
108.2217106335413
 10
109.2773868679931
 20
130.1708836776592
 97
        0
 75
     0
 76
     1
 98
        0
  0
LINE
  5
123
330
E3
100
AcDbEntity
  8
0
  6
Continuous
100
AcDbLine
 10
109.2773865361472
 20
130.1708831043301
 30
0.0
 11
113.1476181916623
 21
108.2217119640265
 31
0.0
  0
LINE
  5
124
330
E3
100
AcDbEntity
  8
0
  6
Continuous
100
AcDbLine
 10
113.8422089330085
 20
104.2824801508396
 30
0.0
 11
117.7124405885235
 21
82.33331239987477
 31
0.0
  0
LINE
  5
125
330
E3
100
AcDbEntity
  8
0
  6
Continuous
100
AcDbLine
 10
113.8422089330085
 20
104.2824801508396
 30
0.0
 11
107.6106792203433
 21
105.5955574219019
 31
0.0
  0
LINE
  5
126
330
E3
100
AcDbEntity
  8
0
  6
Continuous
100
AcDbLine
 10
107.6106792203433
 20
105.5955574219019
 30
0.0
 11
119.3791479043275
 21
106.9086346929642
 31
0.0
  0
LINE
  5
127
330
E3
100
AcDbEntity
  8
0
  6
Continuous
100
AcDbLine
 10
119.3791479043275
 20
106.9086346929642
 30
0.0
 11
113.1476181916623
 21
108.2217119640265
 31
0.0
  0
HATCH
  5
128
330
E3
100
AcDbEntity
  8
Doc_ Finishes
  6
Continuous
 62
   255
370
    18
100
AcDbHatch
 10
0.0
 20
0.0
 30
0.0
210
0.0
220
0.0
230
1.0
  2
SOLID
 70
     1
 71
     0
 91
        1
 92
        3
 72
     0
 73
     1
 93
        4
 10
35.31939101362769
 20
28.70874774669871
 10
161.8305645617754
 20
28.70874774669871
 10
65.10936523507551
 20
110.5185131266177
 10
35.31939101362769
 20
109.5666333625265
 97
        0
 75
     0
 76
     1
 98
        0
  0
LINE
  5
129
330
E3
100
AcDbEntity
  8
Doc_ Finishes
  6
Continuous
 62
   255
370
    18
100
AcDbLine
 10
35.3193913749998
 20
109.5666300440814
 30
0.0
 11
65.10936570738224
 21
110.5185100367246
 31
0.0
  0
LINE
  5
12A
330
E3
100
AcDbEntity
  8
Doc_ Finishes
  6
Continuous
 62
   255
370
    18
100
AcDbLine
 10
65.10936474156642
 20
110.5185101510925
 30
0.0
 11
161.8305611491224
 21
28.70874672708527
 31
0.0
  0
HATCH
  5
12B
330
E3
100
AcDbEntity
  8
0
  6
Continuous
 62
   255
370
     0
100
AcDbHatch
 10
0.0
 20
0.0
 30
0.0
210
0.0
220
0.0
230
1.0
  2
SOLID
 70
     1
 71
     0
 91
        1
 92
        3
 72
     0
 73
     1
 93
        8
 10
153.4794459646313
 20
68.80288870772434
 10
153.4794459646313
 20
28.70875044434523
 10
201.317013537832
 20
28.70875044434523
 10
201.317013537832
 20
77.23794242281807
 10
179.3678445436156
 20
73.36770593514608
 10
178.0547727990724
 20
79.13618182915793
 10
176.74169387896
 20
66.9046493013844
 10
175.4286149588477
 20
72.67311801982717
 97
        0
 75
     0
 76
     1
 98
        0
  0
LINE
  5
12C
330
E3
100
AcDbEntity
  8
0
  6
Continuous
100
AcDbLine
 10
153.4794440701593
 20
68.80288581402445
 30
0.0
 11
175.4286152104629
 21
72.6731174695395
 31
0.0
  0
LINE
  5
12D
330
E3
100
AcDbEntity
  8
0
  6
Continuous
100
AcDbLine
 10
179.3678470236497
 20
73.36770821088567
 30
0.0
 11
201.3170181639533
 21
77.23793986640071
 31
0.0
  0
LINE
  5
12E
330
E3
100
AcDbEntity
  8
0
  6
Continuous
100
AcDbLine
 10
179.3678470236497
 20
73.36770821088567
 30
0.0
 11
178.0547697525875
 21
79.13617968887924
 31
0.0
  0
LINE
  5
12F
330
E3
100
AcDbEntity
  8
0
  6
Continuous
100
AcDbLine
 10
178.0547697525875
 20
79.13617968887924
 30
0.0
 11
176.7416924815251
 21
66.90464599154595
 31
0.0
  0
LINE
  5
130
330
E3
100
AcDbEntity
  8
0
  6
Continuous
100
AcDbLine
 10
176.7416924815251
 20
66.90464599154595
 30
0.0
 11
175.4286152104629
 21
72.6731174695395
 31
0.0
  0
LINE
  5
132
330
E3
100
AcDbEntity
  8
0
  6
Dashed
100
AcDbLine
 10
169.2633707951544
 20
160.8084647557057
 30
0.0
 11
169.2633707951544
 21
147.1392481385897
 31
0.0
  0
LINE
  5
133
330
E3
100
AcDbEntity
  8
0
  6
Dashed
100
AcDbLine
 10
171.3216721387084
 20
131.1379563427718
 30
0.0
 11
171.3216721387084
 21
161.9073832703747
 31
0.0
  0
LINE
  5
134
330
E3
100
AcDbEntity
  8
0
  6
Dashed
100
AcDbLine
 10
169.2633707951544
 20
160.8084647557057
 30
0.0
 11
170.0084084540164
 21
161.4510799877731
 31
0.0
  0
LINE
  5
135
330
E3
100
AcDbEntity
  8
0
  6
Continuous
100
AcDbLine
 10
77.50904692216226
 20
52.80019083197621
 30
0.0
 11
201.872151174306
 21
52.80019083197621
 31
0.0
  0
LINE
  5
136
330
E3
100
AcDbEntity
  8
0
  6
Continuous
100
AcDbLine
 10
177.9021342726486
 20
60.88655649546526
 30
0.0
 11
177.9021342726486
 21
31.27900504926459
 31
0.0
  0
LINE
  5
137
330
E3
100
AcDbEntity
  8
0
  6
Continuous
100
AcDbLine
 10
77.50904692216226
 20
31.27900504926459
 30
0.0
 11
77.50904692216226
 21
52.80019083197621
 31
0.0
  0
LINE
  5
138
330
E3
100
AcDbEntity
  8
0
  6
Continuous
100
AcDbLine
 10
153.9321173709913
 20
60.88655649546526
 30
0.0
 11
153.9321173709913
 21
31.27900504926459
 31
0.0
  0
LINE
  5
139
330
E3
100
AcDbEntity
  8
0
  6
Continuous
100
AcDbLine
 10
77.50904692216226
 20
42.03959624595105
 30
0.0
 11
201.872151174306
 21
42.03959624595105
 31
0.0
  0
LINE
  5
13A
330
E3
100
AcDbEntity
  8
0
  6
Continuous
100
AcDbLine
 10
77.50904692216226
 20
31.27900504926459
 30
0.0
 11
201.872151174306
 21
31.27900504926459
 31
0.0
  0
LINE
  5
13B
330
E3
100
AcDbEntity
  8
0
  6
Continuous
100
AcDbLine
 10
153.9321173709913
 20
60.88655649546526
 30
0.0
 11
177.9021342726486
 21
60.88655649546526
 31
0.0
  0
LINE
  5
13C
330
E3
100
AcDbEntity
  8
0
  6
Continuous
100
AcDbLine
 10
201.872151174306
 20
60.88655649546526
 30
0.0
 11
201.872151174306
 21
31.27900504926459
 31
0.0
  0
LINE
  5
13D
330
E3
100
AcDbEntity
  8
0
  6
Continuous
100
AcDbLine
 10
177.9021342726486
 20
60.88655649546526
 30
0.0
 11
201.872151174306
 21
60.88655649546526
 31
0.0
  0
LINE
  5
13E
330
E3
100
AcDbEntity
  8
0
  6
Dashed
100
AcDbLine
 10
171.3216721387084
 20
131.1379563427718
 30
0.0
 11
110.9828712762524
 21
120.4985984027788
 31
0.0
  0
LINE
  5
13F
330
E3
100
AcDbEntity
  8
0
  6
Dashed
100
AcDbLine
 10
153.7790717810673
 20
136.9569357463782
 30
0.0
 11
151.1123976945392
 21
136.4867293963451
 31
0.0
  0
LINE
  5
140
330
E3
100
AcDbEntity
  8
0
  6
Continuous
 62
     9
370
    18
100
AcDbLine
 10
168.9386009696177
 20
138.8018375454123
 30
0.0
 11
168.2571303584586
 21
131.3706039418854
 31
0.0
  0
LINE
  5
141
330
E3
100
AcDbEntity
  8
0
  6
Dashed
100
AcDbLine
 10
170.0084084540164
 20
161.4510799877731
 30
0.0
 11
170.0084084540164
 21
192.5142914063299
 31
0.0
  0
LWPOLYLINE
  5
142
330
E3
100
AcDbEntity
  8
0
  6
Continuous
100
AcDbPolyline
 90
        4
 70
   128
 43
0.0
 10
163.581717680206
 20
145.3869026451522
 10
163.581717680206
 20
143.4372883669138
 10
168.6556742533892
 20
143.4372883669138
 10
168.6556742533892
 20
155.3599295299867
  0
LWPOLYLINE
  5
143
330
E3
100
AcDbEntity
  8
0
  6
Continuous
100
AcDbPolyline
 90
        7
 70
   128
 43
0.0
 10
144.265313370823
 20
127.3950562064327
 10
144.7839858652657
 20
134.960878896382
 10
170.384568453797
 20
139.4750681237822
 10
170.384568453797
 20
160.5291315742921
 10
170.1242965052128
 20
160.7697979812986
 10
169.8391386366046
 20
160.4587166700896
 10
169.8391386366046
 20
158.332994376828
  0
HATCH
  5
144
330
E3
100
AcDbEntity
  8
0
  6
Continuous
 62
   255
370
     0
100
AcDbHatch
 10
0.0
 20
0.0
 30
0.0
210
0.0
220
0.0
230
1.0
  2
SOLID
 70
     1
 71
     0
 91
        1
 92
        3
 72
     0
 73
     1
 93
        8
 10
152.5676181117994
 20
174.3594628117657
 10
174.715964741455
 20
178.264813347643
 10
176.0290395269705
 20
172.4963465586998
 10
177.342119413965
 20
184.7278771135459
 10
178.6551941994804
 20
178.9594052231237
 10
200.8035408291361
 20
182.864755759001
 10
200.8035408291361
 20
192.5142951451823
 10
152.5676181117994
 20
192.5142951451823
 97
        0
 75
     0
 76
     1
 98
        0
  0
LINE
  5
145
330
E3
100
AcDbEntity
  8
0
  6
Continuous
100
AcDbLine
 10
152.5676170528616
 20
174.3594646275894
 30
0.0
 11
174.7159626830752
 21
178.2648132215875
 31
0.0
  0
LINE
  5
146
330
E3
100
AcDbEntity
  8
0
  6
Continuous
100
AcDbLine
 10
178.6551944962621
 20
178.9594073522724
 30
0.0
 11
200.8035401264756
 21
182.8647593356093
 31
0.0
  0
LINE
  5
147
330
E3
100
AcDbEntity
  8
0
  6
Continuous
100
AcDbLine
 10
178.6551944962621
 20
178.9594073522724
 30
0.0
 11
177.3421172251998
 21
184.7278754409272
 31
0.0
  0
LINE
  5
148
330
E3
100
AcDbEntity
  8
0
  6
Continuous
100
AcDbLine
 10
177.3421172251998
 20
184.7278754409272
 30
0.0
 11
176.0290399541375
 21
172.4963451329327
 31
0.0
  0
LINE
  5
149
330
E3
100
AcDbEntity
  8
0
  6
Continuous
100
AcDbLine
 10
176.0290399541375
 20
172.4963451329327
 30
0.0
 11
174.7159626830752
 21
178.2648132215875
 31
0.0
  0
LINE
  5
14A
330
E3
100
AcDbEntity
  8
Doc_ Floor
  6
Continuous
100
AcDbLine
 10
149.6044266683709
 20
135.0970666275544
 30
0.0
 11
149.6044266683709
 21
136.0750670940311
 31
0.0
  0
LINE
  5
14B
330
E3
100
AcDbEntity
  8
Doc_ Floor
  6
Continuous
100
AcDbLine
 10
149.6044266683709
 20
136.0750670940311
 30
0.0
 11
149.6044266683709
 21
142.9934598557597
 31
0.0
  0
LINE
  5
14C
330
E3
100
AcDbEntity
  8
Doc_ Floor
  6
Continuous
100
AcDbLine
 10
148.6044260042596
 20
136.6524172196965
 30
0.0
 11
150.6044273324823
 21
135.4977169683656
 31
0.0
  0
LINE
  5
14D
330
E3
100
AcDbEntity
  8
Doc_ Floor
  6
Continuous
100
AcDbLine
 10
150.6044273324823
 20
142.4161131194329
 30
0.0
 11
148.6044260042596
 21
143.5708099814252
 31
0.0
  0
LINE
  5
14E
330
E3
100
AcDbEntity
  8
Doc_ Floor
  6
Continuous
100
AcDbLine
 10
149.6044266683709
 20
142.9934598557597
 30
0.0
 11
149.6044266683709
 21
143.9714603222363
 31
0.0
  0
LINE
  5
14F
330
E3
100
AcDbEntity
  8
Doc_ Floor
  6
Continuous
100
AcDbLine
 10
151.1044259698686
 20
136.0750670940311
 30
0.0
 11
148.1044273668732
 21
136.0750670940311
 31
0.0
  0
LINE
  5
150
330
E3
100
AcDbEntity
  8
Doc_ Floor
  6
Continuous
100
AcDbLine
 10
151.1044259698686
 20
142.9934598557597
 30
0.0
 11
148.1044273668732
 21
142.9934598557597
 31
0.0
  0
MTEXT
  5
151
330
E3
100
AcDbEntity
  8
Doc_ Floor
  6
Continuous
100
AcDbMText
 10
136.9638256135995
 20
138.4715294500545
 30
0.0
 40
2.5
 41
0.0
 71
     7
 72
     1
  1
{35 MIN.}
  7
GENERATED_STYLE_1
 73
     1
 44
1.0
  0
LINE
  5
152
330
E3
100
AcDbEntity
  8
Doc_ Floor
  6
Continuous
100
AcDbLine
 10
149.6044266683709
 20
142.0154627786218
 30
0.0
 11
149.6044266683709
 21
142.9934598557597
 31
0.0
  0
LINE
  5
153
330
E3
100
AcDbEntity
  8
Doc_ Floor
  6
Continuous
100
AcDbLine
 10
149.6044266683709
 20
142.9934598557597
 30
0.0
 11
149.6044266683709
 21
160.529132405056
 31
0.0
  0
LINE
  5
154
330
E3
100
AcDbEntity
  8
Doc_ Floor
  6
Continuous
100
AcDbLine
 10
148.6044260042596
 20
143.5708099814252
 30
0.0
 11
150.6044273324823
 21
142.4161131194329
 31
0.0
  0
LINE
  5
155
330
E3
100
AcDbEntity
  8
Doc_ Floor
  6
Continuous
100
AcDbLine
 10
150.6044273324823
 20
159.9517822793905
 30
0.0
 11
148.6044260042596
 21
161.1064825307215
 31
0.0
  0
LINE
  5
156
330
E3
100
AcDbEntity
  8
Doc_ Floor
  6
Continuous
100
AcDbLine
 10
149.6044266683709
 20
160.529132405056
 30
0.0
 11
149.6044266683709
 21
161.5071328715326
 31
0.0
  0
LINE
  5
157
330
E3
100
AcDbEntity
  8
Doc_ Floor
  6
Continuous
100
AcDbLine
 10
151.1044259698686
 20
142.9934598557597
 30
0.0
 11
148.1044273668732
 21
142.9934598557597
 31
0.0
  0
LINE
  5
158
330
E3
100
AcDbEntity
  8
Doc_ Floor
  6
Continuous
100
AcDbLine
 10
151.1044259698686
 20
160.529132405056
 30
0.0
 11
148.1044273668732
 21
160.529132405056
 31
0.0
  0
MTEXT
  5
159
330
E3
100
AcDbEntity
  8
Doc_ Floor
  6
Continuous
100
AcDbMText
 10
146.3203519561371
 20
152.495618133549
 30
0.0
 40
2.5
 41
0.0
 71
     7
 72
     1
  1
{A}
  7
GENERATED_STYLE_1
 73
     1
 44
1.0
  0
LINE
  5
15A
330
E3
100
AcDbEntity
  8
Doc_ Floor
  6
Continuous
100
AcDbLine
 10
143.4561696187296
 20
136.8591634923081
 30
0.0
 11
144.4193112242556
 21
137.0289964769147
 31
0.0
  0
LINE
  5
15B
330
E3
100
AcDbEntity
  8
Doc_ Floor
  6
Continuous
100
AcDbLine
 10
144.4193112242556
 20
137.0289964769147
 30
0.0
 11
170.0198949229402
 21
141.5431855426304
 31
0.0
  0
LINE
  5
15C
330
E3
100
AcDbEntity
  8
Doc_ Floor
  6
Continuous
100
AcDbLine
 10
144.8142369719678
 20
138.1140593748943
 30
0.0
 11
144.0243854765433
 21
135.9439301895963
 31
0.0
  0
LINE
  5
15D
330
E3
100
AcDbEntity
  8
Doc_ Floor
  6
Continuous
100
AcDbLine
 10
169.624969175228
 20
140.4581192553121
 30
0.0
 11
170.4148206706524
 21
142.6282518299488
 31
0.0
  0
LINE
  5
15E
330
E3
100
AcDbEntity
  8
Doc_ Floor
  6
Continuous
100
AcDbLine
 10
170.0198949229402
 20
141.5431855426304
 30
0.0
 11
170.9830365284661
 21
141.713018527237
 31
0.0
  0
LINE
  5
15F
330
E3
100
AcDbEntity
  8
Doc_ Floor
  6
Continuous
100
AcDbLine
 10
144.6797920729418
 20
135.5517836996349
 30
0.0
 11
144.158833764908
 21
138.5062058648557
 31
0.0
  0
LINE
  5
160
330
E3
100
AcDbEntity
  8
Doc_ Floor
  6
Continuous
100
AcDbLine
 10
170.2803723822878
 20
140.0659727653506
 30
0.0
 11
169.7594140742539
 21
143.0203949305715
 31
0.0
  0
MTEXT
  5
161
330
E3
100
AcDbEntity
  8
Doc_ Floor
  6
Continuous
100
AcDbMText
 10
156.1363835193879
 20
139.6027982693276
 30
0.0
 40
2.5
 41
0.0
 71
     7
 72
     1
  1
{B}
  7
GENERATED_STYLE_1
 11
0.9848069912509642
 21
0.1736524977742142
 31
0.0
 73
     1
 44
1.0
  0
MTEXT
  5
162
330
E3
100
AcDbEntity
  8
Doc_ Floor
  6
Continuous
100
AcDbMText
 10
200.4460231647613
 20
177.6695520222605
 30
0.0
 40
2.499999999999999
 41
0.0
 71
     4
 72
     1
  1
{HEM TO FLASHING EDGE}
  7
GENERATED_STYLE_1
 73
     1
 44
1.0
  0
LINE
  5
163
330
E3
100
AcDbEntity
  8
Doc_ Floor
  6
Continuous
100
AcDbLine
 10
170.3845674332333
 20
159.4712147208888
 30
0.0
 11
172.7686452359238
 21
162.5116718601907
 31
0.0
  0
LINE
  5
164
330
E3
100
AcDbEntity
  8
Doc_ Floor
  6
Continuous
100
AcDbLine
 10
170.3845674332333
 20
159.4712147208888
 30
0.0
 11
173.9694676085633
 21
160.9122869793919
 31
0.0
  0
LINE
  5
165
330
E3
100
AcDbEntity
  8
Doc_ Floor
  6
Continuous
100
AcDbLine
 10
172.7686452359238
 20
162.5116718601907
 30
0.0
 11
173.9694676085633
 21
160.9122869793919
 31
0.0
  0
LWPOLYLINE
  5
166
330
E3
100
AcDbEntity
  8
Doc_ Floor
  6
Continuous
100
AcDbPolyline
 90
        8
 70
   128
 43
0.0
 10
173.3690558799848
 20
161.7119793406441
 10
183.6867948679354
 20
169.2390267475036
 10
187.717435707525
 20
172.0073522981052
 10
191.0911797709622
 20
174.1719232164101
 10
193.8794688033258
 20
175.77752260461
 10
196.1537445496944
 20
176.8689335648966
 10
197.9854487551466
 20
177.4909391994613
 10
199.4460231647613
 20
177.6883226104958
  0
MTEXT
  5
168
330
E3
100
AcDbEntity
  8
Doc_ Floor
  6
Continuous
100
AcDbMText
 10
114.3049395485372
 20
138.7731514917907
 30
0.0
 40
2.499999999999999
 41
56.6835322004004
 71
     6
 72
     1
  1
\A1;{\fCentury Gothic|b0|i0|c0|p34;TRS 7\PMIN. ROOF PITCH 3\fArial|b0|i0|c0|p34;\H1.029412x;\U+00B0}
  7
GENERATED_STYLE_1
 73
     1
 44
1.056356172275314
  0
LINE
  5
169
330
E3
100
AcDbEntity
  8
Doc_ Floor
  6
Continuous
100
AcDbLine
 10
131.6600168160763
 20
132.2286184283177
 30
0.0
 11
128.0884875819986
 21
133.7025198216676
 31
0.0
  0
LINE
  5
16A
330
E3
100
AcDbEntity
  8
Doc_ Floor
  6
Continuous
100
AcDbLine
 10
131.6600168160763
 20
132.2286184283177
 30
0.0
 11
129.303934951217
 21
135.2908181755116
 31
0.0
  0
LINE
  5
16B
330
E3
100
AcDbEntity
  8
Doc_ Floor
  6
Continuous
100
AcDbLine
 10
128.0884875819986
 20
133.7025198216676
 30
0.0
 11
129.303934951217
 21
135.2908181755116
 31
0.0
  0
LWPOLYLINE
  5
16C
330
E3
100
AcDbEntity
  8
Doc_ Floor
  6
Continuous
100
AcDbPolyline
 90
        9
 70
   128
 43
0.0
 10
128.6962107925633
 20
134.4966689048765
 10
127.0361183537391
 20
135.5922155553583
 10
125.4262908421248
 20
136.5063967855335
 10
123.8396220131613
 20
137.2500904310932
 10
122.2490056222894
 20
137.8341743277285
 10
120.6273354249502
 20
138.2695263111307
 10
118.9475051765845
 20
138.5670242169908
 10
117.1824086326332
 20
138.737545881
 10
115.3049395485372
 20
138.7919691388495
  0
MTEXT
  5
16D
330
E3
100
AcDbEntity
  8
Doc_ Floor
  6
Continuous
100
AcDbMText
 10
91.91517509131607
 20
113.1694531874993
 30
0.0
 40
2.5
 41
0.0
 71
     6
 72
     1
  1
{UNDERLAY}
  7
GENERATED_STYLE_1
 73
     1
 44
1.0
  0
LINE
  5
16E
330
E3
100
AcDbEntity
  8
Doc_ Floor
  6
Continuous
100
AcDbLine
 10
119.2904997500929
 20
121.9634570404223
 30
0.0
 11
117.2817573173101
 21
118.6629766131614
 31
0.0
  0
LINE
  5
16F
330
E3
100
AcDbEntity
  8
Doc_ Floor
  6
Continuous
100
AcDbLine
 10
119.2904997500929
 20
121.9634570404223
 30
0.0
 11
115.9006390714338
 21
120.1095294323756
 31
0.0
  0
LINE
  5
170
330
E3
100
AcDbEntity
  8
Doc_ Floor
  6
Continuous
100
AcDbLine
 10
117.2817573173101
 20
118.6629766131614
 30
0.0
 11
115.9006390714338
 21
120.1095294323756
 31
0.0
  0
LWPOLYLINE
  5
171
330
E3
100
AcDbEntity
  8
Doc_ Floor
  6
Continuous
100
AcDbPolyline
 90
        9
 70
   128
 43
0.0
 10
116.5911987232457
 20
119.3862536451253
 10
114.4856759865963
 20
117.8101035511923
 10
112.2328850766837
 20
116.4961232048868
 10
109.7844629062335
 20
115.4282801536087
 10
107.0920463879714
 20
114.5905419447575
 10
104.1072724346229
 20
113.9668761257331
 10
100.7817779589138
 20
113.5412502439351
 10
97.06719987356962
 20
113.2976318467631
 10
92.91517509131607
 20
113.219988481617
  0
MTEXT
  5
172
330
E3
100
AcDbEntity
  8
Doc_ Floor
  6
Continuous
100
AcDbMText
 10
200.4460231647613
 20
106.4103931793979
 30
0.0
 40
2.5
 41
0.0
 71
     4
 72
     1
  1
{ROOF FIXING}
  7
GENERATED_STYLE_1
 73
     1
 44
1.0
  0
LINE
  5
173
330
E3
100
AcDbEntity
  8
Doc_ Floor
  6
Continuous
100
AcDbLine
 10
154.4887349117035
 20
125.0284089306573
 30
0.0
 11
157.3199546144343
 21
122.3992649917812
 31
0.0
  0
LINE
  5
174
330
E3
100
AcDbEntity
  8
Doc_ Floor
  6
Continuous
100
AcDbLine
 10
154.4887349117035
 20
125.0284089306573
 30
0.0
 11
155.6260681914306
 21
121.3358938616127
 31
0.0
  0
LINE
  5
175
330
E3
100
AcDbEntity
  8
Doc_ Floor
  6
Continuous
100
AcDbLine
 10
157.3199546144343
 20
122.3992649917812
 30
0.0
 11
155.6260681914306
 21
121.3358938616127
 31
0.0
  0
LWPOLYLINE
  5
176
330
E3
100
AcDbEntity
  8
Doc_ Floor
  6
Continuous
100
AcDbPolyline
 90
       17
 70
   128
 43
0.0
 10
156.4730117023165
 20
121.8675782633272
 10
158.0003891642899
 20
119.7990008898474
 10
159.6223405552775
 20
117.9023550111807
 10
161.3516981977599
 20
116.1723317775099
 10
163.2012944142179
 20
114.6036223390179
 10
165.183961527132
 20
113.1909178458877
 10
167.3125318589829
 20
111.928909448302
 10
169.5998377322513
 20
110.8122882964439
 10
172.0587114694178
 20
109.8357455404961
 10
174.7019853929631
 20
108.9939723306416
 10
177.5424918253678
 20
108.2816598170632
 10
180.5930630891127
 20
107.6934991499438
 10
183.8665315066783
 20
107.2241814794664
 10
187.3757294005453
 20
106.8683979558137
 10
191.1334890931943
 20
106.6208397291687
 10
195.1526429071061
 20
106.4761979497142
 10
199.4460231647613
 20
106.4291637676332
  0
MTEXT
  5
177
330
E3
100
AcDbEntity
  8
Doc_ Floor
  6
Continuous
100
AcDbMText
 10
139.667516328832
 20
92.25528789756783
 30
0.0
 40
2.499999999999999
 41
0.0
 71
     6
 72
     1
  1
{PURLIN}
  7
GENERATED_STYLE_1
 73
     1
 44
1.0
  0
LINE
  5
178
330
E3
100
AcDbEntity
  8
Doc_ Floor
  6
Continuous
100
AcDbLine
 10
152.8659568150559
 20
119.9635675603774
 30
0.0
 11
153.2407431120909
 21
116.1180848561994
 31
0.0
  0
LINE
  5
179
330
E3
100
AcDbEntity
  8
Doc_ Floor
  6
Continuous
100
AcDbLine
 10
152.8659568150559
 20
119.9635675603774
 30
0.0
 11
151.2677887068577
 21
116.4458881398909
 31
0.0
  0
LINE
  5
17A
330
E3
100
AcDbEntity
  8
Doc_ Floor
  6
Continuous
100
AcDbLine
 10
153.2407431120909
 20
116.1180848561994
 30
0.0
 11
151.2677887068577
 21
116.4458881398909
 31
0.0
  0
LWPOLYLINE
  5
17B
330
E3
100
AcDbEntity
  8
Doc_ Floor
  6
Continuous
100
AcDbPolyline
 90
       14
 70
   128
 43
0.0
 10
152.2542666494834
 20
116.281986560521
 10
151.0924473763438
 20
110.1158731366919
 10
149.9078142337513
 20
104.9891006036638
 10
148.6708420825835
 20
100.8347260878539
 10
148.0235022728081
 20
99.10126843841118
 10
147.3520057837181
 20
97.58580671567957
 10
146.6526619729229
 20
96.27997306046119
 10
145.9217801980325
 20
95.1753996135582
 10
145.1556698166565
 20
94.26371851577281
 10
144.3506401864046
 20
93.53656190790716
 10
143.5030006648865
 20
92.98556193076344
 10
142.6090606097119
 20
92.6023507251438
 10
141.6651293784905
 20
92.37856043185043
 10
140.667516328832
 20
92.30582319168548
  0
MTEXT
  5
17C
330
E3
100
AcDbEntity
  8
Doc_ Floor
  6
Continuous
100
AcDbMText
 10
114.5023231031208
 20
154.7418530923553
 30
0.0
 40
2.500000000000001
 41
61.17487090262919
 71
     6
 72
     1
  1
{NOTCHED TURN-DOWN OVER TRS 7. \P5MM MAX. GAP BETWEEN PAN AND EDGE OF FLASHING}
  7
GENERATED_STYLE_1
 73
     1
 44
1.065340909090909
  0
LINE
  5
17D
330
E3
100
AcDbEntity
  8
Doc_ Floor
  6
Continuous
100
AcDbLine
 10
144.5246484823498
 20
131.1779674863673
 30
0.0
 11
141.3044275959903
 21
133.3130000692145
 31
0.0
  0
LINE
  5
17E
330
E3
100
AcDbEntity
  8
Doc_ Floor
  6
Continuous
100
AcDbLine
 10
144.5246484823498
 20
131.1779674863673
 30
0.0
 11
142.8033728131459
 21
134.6370723550861
 31
0.0
  0
LINE
  5
17F
330
E3
100
AcDbEntity
  8
Doc_ Floor
  6
Continuous
100
AcDbLine
 10
141.3044275959903
 20
133.3130000692145
 30
0.0
 11
142.8033728131459
 21
134.6370723550861
 31
0.0
  0
LWPOLYLINE
  5
180
330
E3
100
AcDbEntity
  8
Doc_ Floor
  6
Continuous
100
AcDbPolyline
 90
       12
 70
   128
 43
0.0
 10
142.0539003826108
 20
133.9750368000541
 10
137.1872193090244
 20
139.3232873490172
 10
132.9063980990191
 20
143.7690827761675
 10
129.1396116656115
 20
147.3707859389556
 10
125.8150349218182
 20
150.1867596948323
 10
122.8608427806559
 20
152.2753669012482
 10
121.5001955963791
 20
153.0651464413616
 10
120.2052101551412
 20
153.6949704156539
 10
118.9669083210693
 20
154.1721341813063
 10
117.7763119582906
 20
154.5039330955002
 10
116.6244429309321
 20
154.6976625154169
 10
115.5023231031208
 20
154.7606177982377
  0
MTEXT
  5
181
330
E3
100
AcDbEntity
  8
Doc_ Floor
  6
Continuous
100
AcDbMText
 10
200.4460231647613
 20
119.44354036551
 30
0.0
 40
2.500000000000001
 41
0.0
 71
     4
 72
     1
  1
{STOPEND}
  7
GENERATED_STYLE_1
 73
     1
 44
1.0
  0
LINE
  5
182
330
E3
100
AcDbEntity
  8
Doc_ Floor
  6
Continuous
100
AcDbLine
 10
169.1606399385361
 20
132.4312669904162
 30
0.0
 11
172.8939118056947
 21
131.4358351549001
 31
0.0
  0
LINE
  5
183
330
E3
100
AcDbEntity
  8
Doc_ Floor
  6
Continuous
100
AcDbLine
 10
169.1606399385361
 20
132.4312669904162
 30
0.0
 11
171.8960328676224
 21
129.7025612266255
 31
0.0
  0
LINE
  5
184
330
E3
100
AcDbEntity
  8
Doc_ Floor
  6
Continuous
100
AcDbLine
 10
172.8939118056947
 20
131.4358351549001
 30
0.0
 11
171.8960328676224
 21
129.7025612266255
 31
0.0
  0
LWPOLYLINE
  5
185
330
E3
100
AcDbEntity
  8
Doc_ Floor
  6
Continuous
100
AcDbPolyline
 90
        9
 70
   128
 43
0.0
 10
172.3949714998111
 20
130.5691981273233
 10
177.4986414568468
 20
127.7138099674511
 10
181.9659915333714
 20
125.3393385305835
 10
185.8691404555095
 20
123.4149007785289
 10
189.2802069493857
 20
121.9096136730958
 10
192.2713097411245
 20
120.7925941760925
 10
194.9145675568503
 20
120.0329592493274
 10
197.2820991226877
 20
119.5998258546089
 10
199.4460231647613
 20
119.4623109537453
  0
MTEXT
  5
186
330
E3
100
AcDbEntity
  8
Doc_ Floor
  6
Continuous
100
AcDbMText
 10
101.4918736050076
 20
92.41867514365721
 30
0.0
 40
2.5
 41
0.0
 71
     6
 72
     1
  1
{ROOF FRAME}
  7
GENERATED_STYLE_1
 73
     1
 44
1.0
  0
LINE
  5
187
330
E3
100
AcDbEntity
  8
Doc_ Floor
  6
Continuous
100
AcDbLine
 10
128.9516335272538
 20
104.3539511364387
 30
0.0
 11
127.4907370265745
 21
100.7770836938762
 31
0.0
  0
LINE
  5
188
330
E3
100
AcDbEntity
  8
Doc_ Floor
  6
Continuous
100
AcDbLine
 10
128.9516335272538
 20
104.3539511364387
 30
0.0
 11
125.8980257537164
 21
101.9867386832213
 31
0.0
  0
LINE
  5
189
330
E3
100
AcDbEntity
  8
Doc_ Floor
  6
Continuous
100
AcDbLine
 10
127.4907370265745
 20
100.7770836938762
 30
0.0
 11
125.8980257537164
 21
101.9867386832213
 31
0.0
  0
LWPOLYLINE
  5
18A
330
E3
100
AcDbEntity
  8
Doc_ Floor
  6
Continuous
100
AcDbPolyline
 90
       11
 70
   128
 43
0.0
 10
126.6943821636134
 20
101.3819108531095
 10
124.5385283402276
 20
99.0914559659033
 10
122.2398026470681
 20
97.18350526138705
 10
121.0203714117235
 20
96.36554183958586
 10
119.7454324838159
 20
95.63429189779497
 10
118.4083892883055
 20
94.98678458079365
 10
117.0026452501523
 20
94.4200490333612
 10
113.9586683457585
 20
93.51700982631989
 10
110.5607291703156
 20
92.90140743490524
 10
106.7560551235049
 20
92.54947501735138
 10
102.4918736050076
 20
92.43744573189251
  0
MTEXT
  5
18B
330
E3
100
AcDbEntity
  8
Doc_ Floor
  6
Continuous
100
AcDbMText
 10
114.230057081854
 20
176.6805839226762
 30
0.0
 40
2.5
 41
56.71228972547952
 71
     6
 72
     1
  1
{CLADDING ON CAVITY BATTENS WITH BUILDING WRAP OVER METAL HIDDEN GUTTER}
  7
GENERATED_STYLE_1
 73
     1
 44
1.065340909090909
  0
LINE
  5
18C
330
E3
100
AcDbEntity
  8
Doc_ Floor
  6
Continuous
100
AcDbLine
 10
161.0614659640223
 20
156.7586727134562
 30
0.0
 11
157.4724850248728
 21
158.1895498410881
 31
0.0
  0
LINE
  5
18D
330
E3
100
AcDbEntity
  8
Doc_ Floor
  6
Continuous
100
AcDbLine
 10
161.0614659640223
 20
156.7586727134562
 30
0.0
 11
158.6687555156107
 21
159.7923376179622
 31
0.0
  0
LINE
  5
18E
330
E3
100
AcDbEntity
  8
Doc_ Floor
  6
Continuous
100
AcDbLine
 10
157.4724850248728
 20
158.1895498410881
 30
0.0
 11
158.6687555156107
 21
159.7923376179622
 31
0.0
  0
LWPOLYLINE
  5
18F
330
E3
100
AcDbEntity
  8
Doc_ Floor
  6
Continuous
100
AcDbPolyline
 90
       15
 70
   128
 43
0.0
 10
158.0706211529338
 20
158.9909433510778
 10
151.6379870397263
 20
163.5484575823993
 10
145.7423766130802
 20
167.336568325234
 10
142.9601508492426
 20
168.9576754526682
 10
140.2692156874751
 20
170.4051253850201
 10
137.6552493545879
 20
171.6851493479693
 10
135.1039300773908
 20
172.8039785671958
 10
132.6009360826938
 20
173.7678442683792
 10
130.1319455973069
 20
174.5829776771993
 10
127.6826368480399
 20
175.2556100193359
 10
125.238688061703
 20
175.7919725204687
 10
122.7857774651059
 20
176.1982964062777
 10
120.3095832850588
 20
176.4808129024424
 10
117.7957837483715
 20
176.6457532346428
 10
115.230057081854
 20
176.6993486285585
  0
MTEXT
  5
190
330
E3
100
AcDbEntity
  8
0
  6
Continuous
100
AcDbMText
 10
81.06497497887133
 20
43.95654790381578
 30
0.0
 40
2.499999999999999
 41
69.01187578516152
 71
     7
 72
     1
  1
\A1;{\fCentury Gothic|b0|i0|c0|p34;LOW, MEDIUM OR HIGH WIND ZONE.\P ROOF PITCH \fArial|b0|i0|c0|p34;\H1.029412x;\U+2265\fCentury Gothic|b0|i0|c0|p34;\H0.971429x; 10\fArial|b0|i0|c0|p34;\H1.029412x;\U+00B0}
  7
GENERATED_STYLE_1
 73
     1
 44
1.056355725756043
  0
MTEXT
  5
191
330
E3
100
AcDbEntity
  8
0
  6
Continuous
100
AcDbMText
 10
81.06497497887133
 20
33.53369551768853
 30
0.0
 40
2.5
 41
69.01187578516152
 71
     7
 72
     1
  1
\A1;{\fCentury Gothic|b0|i0|c0|p34;VERY HIGH OR EXTRA WIND ZONE.\P ROOF PITCH \fArial|b0|i0|c0|p34;\H1.029412x;<\fCentury Gothic|b0|i0|c0|p34;\H0.971429x; 10\fArial|b0|i0|c0|p34;\H1.029412x;\U+00B0}
  7
GENERATED_STYLE_1
 73
     1
 44
1.056355725756044
  0
MTEXT
  5
192
330
E3
100
AcDbEntity
  8
0
  6
Continuous
100
AcDbMText
 10
165.5643090354594
 20
45.99637563526121
 30
0.0
 40
2.499999999999999
 41
0.0
 71
     8
 72
     1
  1
{75MM}
  7
GENERATED_STYLE_1
 73
     1
 44
1.0
  0
MTEXT
  5
193
330
E3
100
AcDbEntity
  8
0
  6
Continuous
100
AcDbMText
 10
165.5643090354594
 20
34.75759611380344
 30
0.0
 40
2.499999999999999
 41
0.0
 71
     8
 72
     1
  1
{100MM}
  7
GENERATED_STYLE_1
 73
     1
 44
1.0
  0
MTEXT
  5
194
330
E3
100
AcDbEntity
  8
0
  6
Continuous
100
AcDbMText
 10
165.5643090354594
 20
55.87843970067759
 30
0.0
 40
2.499999999999999
 41
0.0
 71
     8
 72
     1
  1
{A}
  7
GENERATED_STYLE_1
 73
     1
 44
1.0
  0
MTEXT
  5
195
330
E3
100
AcDbEntity
  8
0
  6
Continuous
100
AcDbMText
 10
189.5343258722474
 20
45.99637875386539
 30
0.0
 40
2.499999999999999
 41
0.0
 71
     8
 72
     1
  1
{150MM}
  7
GENERATED_STYLE_1
 73
     1
 44
1.0
  0
MTEXT
  5
196
330
E3
100
AcDbEntity
  8
0
  6
Continuous
100
AcDbMText
 10
189.5343258722474
 20
34.75759923240764
 30
0.0
 40
2.499999999999999
 41
0.0
 71
     8
 72
     1
  1
{200MM}
  7
GENERATED_STYLE_1
 73
     1
 44
1.0
  0
MTEXT
  5
197
330
E3
100
AcDbEntity
  8
0
  6
Continuous
100
AcDbMText
 10
189.5343258722474
 20
55.87843970067765
 30
0.0
 40
2.499999999999999
 41
0.0
 71
     8
 72
     1
  1
{B}
  7
GENERATED_STYLE_1
 73
     1
 44
1.0
  0
HATCH
  5
198
330
E3
100
AcDbEntity
  8
0
  6
Continuous
 62
   255
370
     0
100
AcDbHatch
 10
0.0
 20
0.0
 30
0.0
210
0.0
220
0.0
230
1.0
  2
SOLID
 70
     1
 71
     0
 91
        1
 92
        3
 72
     0
 73
     1
 93
        4
 10
151.5446644403599
 20
137.4059810564486
 10
151.6314885291934
 20
136.9135771799425
 10
153.1087001587117
 20
137.1740494464429
 10
153.0218760698782
 20
137.666453322949
 97
        0
 75
     0
 76
     1
 98
        0
  0
HATCH
  5
199
330
E3
100
AcDbEntity
  8
0
  6
Continuous
 62
   255
370
     0
100
AcDbHatch
 10
0.0
 20
0.0
 30
0.0
210
0.0
220
0.0
230
1.0
  2
SOLID
 70
     1
 71
     0
 91
        1
 92
        3
 72
     1
 73
     1
 93
        4
 10
151.8053370600852
 20
137.3673257881143
 42
0.0
 10
151.8632197859742
 20
137.0390565371102
 42
0.1666666666666667
 10
152.8480275389864
 20
137.2127047147772
 42
0.0
 10
152.7901448130974
 20
137.5409739657812
 42
0.1666666666666667
 97
        0
 75
     0
 76
     1
 98
        0
  0
LINE
  5
19A
330
E3
100
AcDbEntity
  8
0
  6
Continuous
100
AcDbLine
 10
151.8632209545971
 20
137.0390560342371
 30
0.0
 11
151.8053378279285
 21
137.3673270466721
 31
0.0
  0
ARC
  5
19B
330
E3
100
AcDbEntity
  8
0
  6
Continuous
100
AcDbCircle
 10
152.102386736716
 20
138.5620585990866
 30
0.0
 40
1.541666666666738
100
AcDbArc
 50
261.0753555839481
 51
298.9246444160493
  0
LINE
  5
19C
330
E3
100
AcDbEntity
  8
0
  6
Continuous
100
AcDbLine
 10
152.7901440865558
 20
137.5409730373392
 30
0.0
 11
152.8480272132245
 21
137.212705414243
 31
0.0
  0
ARC
  5
19D
330
E3
100
AcDbEntity
  8
0
  6
Continuous
100
AcDbCircle
 10
152.5509778623555
 20
136.017971903805
 30
0.0
 40
1.541666666666656
100
AcDbArc
 50
81.07535558394763
 51
118.9246444160499
  0
HATCH
  5
19E
330
E3
100
AcDbEntity
  8
0
  6
Continuous
 62
   255
370
     0
100
AcDbHatch
 10
0.0
 20
0.0
 30
0.0
210
0.0
220
0.0
230
1.0
  2
SOLID
 70
     1
 71
     0
 91
        1
 92
        3
 72
     1
 73
     1
 93
        4
 10
151.3129331835791
 20
137.2805016992808
 42
0.0
 10
151.3708159094681
 20
136.9522324482768
 42
0.3333333333333333
 10
151.8632197859742
 20
137.0390565371102
 42
0.0
 10
151.8053370600852
 20
137.3673257881143
 42
0.3333333333333333
 97
        0
 75
     0
 76
     1
 98
        0
  0
LINE
  5
19F
330
E3
100
AcDbEntity
  8
0
  6
Continuous
100
AcDbLine
 10
151.3708144359447
 20
136.9522313442342
 30
0.0
 11
151.3129346986148
 21
137.2805023566691
 31
0.0
  0
ARC
  5
1A0
330
E3
100
AcDbEntity
  8
0
  6
Continuous
100
AcDbCircle
 10
151.5591351218321
 20
137.3239137436976
 30
0.0
 40
0.4166666666666698
100
AcDbArc
 50
243.1301023541581
 51
316.8698976458447
  0
LINE
  5
1A1
330
E3
100
AcDbEntity
  8
0
  6
Continuous
100
AcDbLine
 10
151.8053378279285
 20
137.3673270466721
 30
0.0
 11
151.8632209545971
 21
137.0390560342371
 31
0.0
  0
ARC
  5
1A2
330
E3
100
AcDbEntity
  8
0
  6
Continuous
100
AcDbCircle
 10
151.6170178477211
 20
136.9956444926935
 30
0.0
 40
0.4166666666667196
100
AcDbArc
 50
63.13010235415298
 51
136.8698976458365
  0
HATCH
  5
1A3
330
E3
100
AcDbEntity
  8
0
  6
Continuous
 62
   255
370
     0
100
AcDbHatch
 10
0.0
 20
0.0
 30
0.0
210
0.0
220
0.0
230
1.0
  2
SOLID
 70
     1
 71
     0
 91
        1
 92
        3
 72
     1
 73
     1
 93
        4
 10
153.2825486896035
 20
137.6277980546147
 42
0.3333333333333333
 10
152.7901448130974
 20
137.5409739657812
 42
0.0
 10
152.8480275389864
 20
137.2127047147772
 42
0.3333333333333333
 10
153.3404314154925
 20
137.2995288036106
 42
0.0
 97
        0
 75
     0
 76
     1
 98
        0
  0
ARC
  5
1A4
330
E3
100
AcDbEntity
  8
0
  6
Continuous
100
AcDbCircle
 10
153.0942294772395
 20
137.2561167591939
 30
0.0
 40
0.4166666666666698
100
AcDbArc
 50
63.13010235415805
 51
136.8698976458473
  0
LINE
  5
1A5
330
E3
100
AcDbEntity
  8
0
  6
Continuous
100
AcDbLine
 10
152.7901440865558
 20
137.5409730373392
 30
0.0
 11
152.8480272132245
 21
137.212705414243
 31
0.0
  0
ARC
  5
1A6
330
E3
100
AcDbEntity
  8
0
  6
Continuous
100
AcDbCircle
 10
153.0363467513505
 20
137.584386010198
 30
0.0
 40
0.416666666666707
100
AcDbArc
 50
243.1301023541564
 51
316.8698976458365
  0
LINE
  5
1A7
330
E3
100
AcDbEntity
  8
0
  6
Continuous
100
AcDbLine
 10
153.3404303425381
 20
137.299530104246
 30
0.0
 11
153.2825472158695
 21
137.6277977273422
 31
0.0
  0
HATCH
  5
1A8
330
E3
100
AcDbEntity
  8
0
  6
Continuous
 62
   255
370
     0
100
AcDbHatch
 10
0.0
 20
0.0
 30
0.0
210
0.0
220
0.0
230
1.0
  2
SOLID
 70
     1
 71
     0
 91
        1
 92
        3
 72
     0
 73
     1
 93
        4
 10
152.6983632666874
 20
137.1016959811989
 10
152.0418254212177
 20
136.9859306451864
 10
152.3196625054848
 20
135.4102382403669
 10
152.9762003509544
 20
135.5260035763794
 97
        0
 75
     0
 76
     1
 98
        0
  0
LINE
  5
1A9
330
E3
100
AcDbEntity
  8
0
  6
Continuous
100
AcDbLine
 10
152.0418255478124
 20
136.9859315391321
 30
0.0
 11
152.6983641833435
 21
137.1016944031306
 31
0.0
  0
LINE
  5
1AA
330
E3
100
AcDbEntity
  8
0
  6
Continuous
100
AcDbLine
 10
152.3196632000863
 20
135.4102381359895
 30
0.0
 11
152.0418255478124
 21
136.9859315391321
 31
0.0
  0
LINE
  5
1AB
330
E3
100
AcDbEntity
  8
0
  6
Continuous
100
AcDbLine
 10
152.9762018356175
 20
135.5260043893268
 30
0.0
 11
152.3196632000863
 21
135.4102381359895
 31
0.0
  0
LINE
  5
1AC
330
E3
100
AcDbEntity
  8
0
  6
Continuous
100
AcDbLine
 10
152.6983641833435
 20
137.1016944031306
 30
0.0
 11
152.9762018356175
 21
135.5260043893268
 31
0.0
  0
HATCH
  5
1AD
330
E3
100
AcDbEntity
  8
0
  6
Continuous
 62
   255
370
     0
100
AcDbHatch
 10
0.0
 20
0.0
 30
0.0
210
0.0
220
0.0
230
1.0
  2
SOLID
 70
     1
 71
     0
 91
        1
 92
        3
 72
     0
 73
     1
 93
        5
 10
152.9433737541233
 20
135.5202153616733
 10
152.352489102316
 20
135.4160264550731
 10
154.505726505386
 20
123.2044103177217
 10
154.9053577378897
 20
122.6656201192145
 10
155.0966111571933
 20
123.3085992243219
 97
        0
 75
     0
 76
     1
 98
        0
  0
LINE
  5
1AE
330
E3
100
AcDbEntity
  8
0
  6
Continuous
100
AcDbLine
 10
152.3524889455943
 20
135.4160271265241
 30
0.0
 11
152.9433727007707
 21
135.5202153987922
 31
0.0
  0
LINE
  5
1AF
330
E3
100
AcDbEntity
  8
0
  6
Continuous
100
AcDbLine
 10
154.5057256667094
 20
123.2044091835125
 30
0.0
 11
152.3524889455943
 21
135.4160271265241
 31
0.0
  0
LINE
  5
1B0
330
E3
100
AcDbEntity
  8
0
  6
Continuous
100
AcDbLine
 10
154.9053592059044
 20
122.6656195644701
 30
0.0
 11
154.5057256667094
 21
123.2044091835125
 31
0.0
  0
LINE
  5
1B1
330
E3
100
AcDbEntity
  8
0
  6
Continuous
100
AcDbLine
 10
155.0966128112245
 20
123.3086008451193
 30
0.0
 11
154.9053592059044
 21
122.6656195644701
 31
0.0
  0
LINE
  5
1B2
330
E3
100
AcDbEntity
  8
0
  6
Continuous
100
AcDbLine
 10
152.9433727007707
 20
135.5202153987922
 30
0.0
 11
155.0966128112245
 21
123.3086008451193
 31
0.0
  0
LINE
  5
1B3
330
E3
100
AcDbEntity
  8
0
  6
Continuous
100
AcDbLine
 10
151.5446637869351
 20
137.4059824547793
 30
0.0
 11
153.0218765642149
 21
137.6664531354494
 31
0.0
  0
LINE
  5
1B4
330
E3
100
AcDbEntity
  8
0
  6
Continuous
100
AcDbLine
 10
153.1087012542178
 20
137.1740500061358
 30
0.0
 11
151.631488476938
 21
136.9135759361269
 31
0.0
  0
LINE
  5
1B5
330
E3
100
AcDbEntity
  8
0
  6
Continuous
100
AcDbLine
 10
153.1403353047257
 20
135.5549449972066
 30
0.0
 11
153.139411654563
 21
135.5492263474278
 31
0.0
  0
LINE
  5
1B6
330
E3
100
AcDbEntity
  8
0
  6
Continuous
100
AcDbLine
 10
153.139411654563
 20
135.5492263474278
 30
0.0
 11
153.1347547739124
 21
135.5428494283888
 31
0.0
  0
LINE
  5
1B7
330
E3
100
AcDbEntity
  8
0
  6
Continuous
100
AcDbLine
 10
153.1347547739124
 20
135.5428494283888
 30
0.0
 11
153.1264071596937
 21
135.5358233036001
 31
0.0
  0
LINE
  5
1B8
330
E3
100
AcDbEntity
  8
0
  6
Continuous
100
AcDbLine
 10
153.1264071596937
 20
135.5358233036001
 30
0.0
 11
153.1144394046716
 21
135.5281566194143
 31
0.0
  0
LINE
  5
1B9
330
E3
100
AcDbEntity
  8
0
  6
Continuous
100
AcDbLine
 10
153.1144394046716
 20
135.5281566194143
 30
0.0
 11
153.098950126719
 21
135.5198696862427
 31
0.0
  0
LINE
  5
1BA
330
E3
100
AcDbEntity
  8
0
  6
Continuous
100
AcDbLine
 10
153.098950126719
 20
135.5198696862427
 30
0.0
 11
153.0800647313683
 21
135.5109828401176
 31
0.0
  0
LINE
  5
1BB
330
E3
100
AcDbEntity
  8
0
  6
Continuous
100
AcDbLine
 10
153.0800647313683
 20
135.5109828401176
 30
0.0
 11
153.0579357388622
 21
135.5015265850874
 31
0.0
  0
LINE
  5
1BC
330
E3
100
AcDbEntity
  8
0
  6
Continuous
100
AcDbLine
 10
153.0579357388622
 20
135.5015265850874
 30
0.0
 11
153.0327360054754
 21
135.4915246465232
 31
0.0
  0
LINE
  5
1BD
330
E3
100
AcDbEntity
  8
0
  6
Continuous
100
AcDbLine
 10
153.0327360054754
 20
135.4915246465232
 30
0.0
 11
153.0046655021922
 21
135.4810210858284
 31
0.0
  0
LINE
  5
1BE
330
E3
100
AcDbEntity
  8
0
  6
Continuous
100
AcDbLine
 10
153.0046655021922
 20
135.4810210858284
 30
0.0
 11
152.9739445360296
 21
135.4700464070514
 31
0.0
  0
LINE
  5
1BF
330
E3
100
AcDbEntity
  8
0
  6
Continuous
100
AcDbLine
 10
152.9739445360296
 20
135.4700464070514
 30
0.0
 11
152.9408137500368
 21
135.4586514502731
 31
0.0
  0
LINE
  5
1C0
330
E3
100
AcDbEntity
  8
0
  6
Continuous
100
AcDbLine
 10
152.9408137500368
 20
135.4586514502731
 30
0.0
 11
152.9055341232951
 21
135.4468734982194
 31
0.0
  0
LINE
  5
1C1
330
E3
100
AcDbEntity
  8
0
  6
Continuous
100
AcDbLine
 10
152.9055341232951
 20
135.4468734982194
 30
0.0
 11
152.8683801922411
 21
135.4347667803098
 31
0.0
  0
LINE
  5
1C2
330
E3
100
AcDbEntity
  8
0
  6
Continuous
100
AcDbLine
 10
152.8683801922411
 20
135.4347667803098
 30
0.0
 11
152.8296434400045
 21
135.4223821366251
 31
0.0
  0
LINE
  5
1C3
330
E3
100
AcDbEntity
  8
0
  6
Continuous
100
AcDbLine
 10
152.8296434400045
 20
135.4223821366251
 30
0.0
 11
152.7896255177316
 21
135.4097704072461
 31
0.0
  0
LINE
  5
1C4
330
E3
100
AcDbEntity
  8
0
  6
Continuous
100
AcDbLine
 10
152.7896255177316
 20
135.4097704072461
 30
0.0
 11
152.7486382445846
 21
135.3969858215924
 31
0.0
  0
LINE
  5
1C5
330
E3
100
AcDbEntity
  8
0
  6
Continuous
100
AcDbLine
 10
152.7486382445846
 20
135.3969858215924
 30
0.0
 11
152.7070002184033
 21
135.3840893877609
 31
0.0
  0
LINE
  5
1C6
330
E3
100
AcDbEntity
  8
0
  6
Continuous
100
AcDbLine
 10
152.7070002184033
 20
135.3840893877609
 30
0.0
 11
152.6650334263661
 21
135.3711319458325
 31
0.0
  0
LINE
  5
1C7
330
E3
100
AcDbEntity
  8
0
  6
Continuous
100
AcDbLine
 10
152.6650334263661
 20
135.3711319458325
 30
0.0
 11
152.623066634329
 21
135.3581778932427
 31
0.0
  0
LINE
  5
1C8
330
E3
100
AcDbEntity
  8
0
  6
Continuous
100
AcDbLine
 10
152.623066634329
 20
135.3581778932427
 30
0.0
 11
152.5814286081477
 21
135.3452780700725
 31
0.0
  0
LINE
  5
1C9
330
E3
100
AcDbEntity
  8
0
  6
Continuous
100
AcDbLine
 10
152.5814286081477
 20
135.3452780700725
 30
0.0
 11
152.5404413350007
 21
135.3324968737575
 31
0.0
  0
LINE
  5
1CA
330
E3
100
AcDbEntity
  8
0
  6
Continuous
100
AcDbLine
 10
152.5404413350007
 20
135.3324968737575
 30
0.0
 11
152.5004200233891
 21
135.3198851443786
 31
0.0
  0
LINE
  5
1CB
330
E3
100
AcDbEntity
  8
0
  6
Continuous
100
AcDbLine
 10
152.5004200233891
 20
135.3198851443786
 30
0.0
 11
152.4616832711526
 21
135.3074971113551
 31
0.0
  0
LINE
  5
1CC
330
E3
100
AcDbEntity
  8
0
  6
Continuous
100
AcDbLine
 10
152.4616832711526
 20
135.3074971113551
 30
0.0
 11
152.4245327294372
 21
135.2953903934455
 31
0.0
  0
LINE
  5
1CD
330
E3
100
AcDbEntity
  8
0
  6
Continuous
100
AcDbLine
 10
152.4245327294372
 20
135.2953903934455
 30
0.0
 11
152.3892531026955
 21
135.2836158307305
 31
0.0
  0
LINE
  5
1CE
330
E3
100
AcDbEntity
  8
0
  6
Continuous
100
AcDbLine
 10
152.3892531026955
 20
135.2836158307305
 30
0.0
 11
152.3561223167027
 21
135.2722174846135
 31
0.0
  0
LINE
  5
1CF
330
E3
100
AcDbEntity
  8
0
  6
Continuous
100
AcDbLine
 10
152.3561223167027
 20
135.2722174846135
 30
0.0
 11
152.3254013505401
 21
135.2612428058365
 31
0.0
  0
LINE
  5
1D0
330
E3
100
AcDbEntity
  8
0
  6
Continuous
100
AcDbLine
 10
152.3254013505401
 20
135.2612428058365
 30
0.0
 11
152.297330847257
 21
135.2507392451417
 31
0.0
  0
LINE
  5
1D1
330
E3
100
AcDbEntity
  8
0
  6
Continuous
100
AcDbLine
 10
152.297330847257
 20
135.2507392451417
 30
0.0
 11
152.27213111387
 21
135.2407406959163
 31
0.0
  0
LINE
  5
1D2
330
E3
100
AcDbEntity
  8
0
  6
Continuous
100
AcDbLine
 10
152.27213111387
 20
135.2407406959163
 30
0.0
 11
152.2499987320252
 21
135.2312810515474
 31
0.0
  0
LINE
  5
1D3
330
E3
100
AcDbEntity
  8
0
  6
Continuous
100
AcDbLine
 10
152.2499987320252
 20
135.2312810515474
 30
0.0
 11
152.2311133366747
 21
135.2223942054222
 31
0.0
  0
LINE
  5
1D4
330
E3
100
AcDbEntity
  8
0
  6
Continuous
100
AcDbLine
 10
152.2311133366747
 20
135.2223942054222
 30
0.0
 11
152.2156274480607
 21
135.2141072722506
 31
0.0
  0
LINE
  5
1D5
330
E3
100
AcDbEntity
  8
0
  6
Continuous
100
AcDbLine
 10
152.2156274480607
 20
135.2141072722506
 30
0.0
 11
152.2036596930386
 21
135.2064439774036
 31
0.0
  0
LINE
  5
1D6
330
E3
100
AcDbEntity
  8
0
  6
Continuous
100
AcDbLine
 10
152.2036596930386
 20
135.2064439774036
 30
0.0
 11
152.19531175177
 21
135.1994144888972
 31
0.0
  0
LINE
  5
1D7
330
E3
100
AcDbEntity
  8
0
  6
Continuous
100
AcDbLine
 10
152.19531175177
 20
135.1994144888972
 30
0.0
 11
152.1906546308106
 21
135.1930381846343
 31
0.0
  0
LINE
  5
1D8
330
E3
100
AcDbEntity
  8
0
  6
Continuous
100
AcDbLine
 10
152.1906546308106
 20
135.1930381846343
 30
0.0
 11
152.1897309806479
 21
135.1873195348555
 31
0.0
  0
LINE
  5
1D9
330
E3
100
AcDbEntity
  8
0
  6
Continuous
100
AcDbLine
 10
153.2087421625945
 20
135.1669904278382
 30
0.0
 11
153.2078185124318
 21
135.1612717780594
 31
0.0
  0
LINE
  5
1DA
330
E3
100
AcDbEntity
  8
0
  6
Continuous
100
AcDbLine
 10
153.2078185124318
 20
135.1612717780594
 30
0.0
 11
153.2031616317813
 21
135.1548948590203
 31
0.0
  0
LINE
  5
1DB
330
E3
100
AcDbEntity
  8
0
  6
Continuous
100
AcDbLine
 10
153.2031616317813
 20
135.1548948590203
 30
0.0
 11
153.1948141830894
 21
135.1478660362972
 31
0.0
  0
LINE
  5
1DC
330
E3
100
AcDbEntity
  8
0
  6
Continuous
100
AcDbLine
 10
153.1948141830894
 20
135.1478660362972
 30
0.0
 11
153.1828464280674
 21
135.1402027414502
 31
0.0
  0
LINE
  5
1DD
330
E3
100
AcDbEntity
  8
0
  6
Continuous
100
AcDbLine
 10
153.1828464280674
 20
135.1402027414502
 30
0.0
 11
153.1673571501147
 21
135.1319158082786
 31
0.0
  0
LINE
  5
1DE
330
E3
100
AcDbEntity
  8
0
  6
Continuous
100
AcDbLine
 10
153.1673571501147
 20
135.1319158082786
 30
0.0
 11
153.1484717547642
 21
135.1230289621534
 31
0.0
  0
LINE
  5
1DF
330
E3
100
AcDbEntity
  8
0
  6
Continuous
100
AcDbLine
 10
153.1484717547642
 20
135.1230289621534
 30
0.0
 11
153.126342762258
 21
135.1135693177845
 31
0.0
  0
LINE
  5
1E0
330
E3
100
AcDbEntity
  8
0
  6
Continuous
100
AcDbLine
 10
153.126342762258
 20
135.1135693177845
 30
0.0
 11
153.1011430288711
 21
135.1035707685591
 31
0.0
  0
LINE
  5
1E1
330
E3
100
AcDbEntity
  8
0
  6
Continuous
100
AcDbLine
 10
153.1011430288711
 20
135.1035707685591
 30
0.0
 11
153.073072525588
 21
135.0930672078642
 31
0.0
  0
LINE
  5
1E2
330
E3
100
AcDbEntity
  8
0
  6
Continuous
100
AcDbLine
 10
153.073072525588
 20
135.0930672078642
 30
0.0
 11
153.0423515594254
 21
135.0820925290872
 31
0.0
  0
LINE
  5
1E3
330
E3
100
AcDbEntity
  8
0
  6
Continuous
100
AcDbLine
 10
153.0423515594254
 20
135.0820925290872
 30
0.0
 11
153.0092207734325
 21
135.0706941829702
 31
0.0
  0
LINE
  5
1E4
330
E3
100
AcDbEntity
  8
0
  6
Continuous
100
AcDbLine
 10
153.0092207734325
 20
135.0706941829702
 30
0.0
 11
152.9739411466909
 21
135.0589196202552
 31
0.0
  0
LINE
  5
1E5
330
E3
100
AcDbEntity
  8
0
  6
Continuous
100
AcDbLine
 10
152.9739411466909
 20
135.0589196202552
 30
0.0
 11
152.9367872156368
 21
135.0468129023456
 31
0.0
  0
LINE
  5
1E6
330
E3
100
AcDbEntity
  8
0
  6
Continuous
100
AcDbLine
 10
152.9367872156368
 20
135.0468129023456
 30
0.0
 11
152.8980504634003
 21
135.0344248693222
 31
0.0
  0
LINE
  5
1E7
330
E3
100
AcDbEntity
  8
0
  6
Continuous
100
AcDbLine
 10
152.8980504634003
 20
135.0344248693222
 30
0.0
 11
152.8580325411273
 21
135.0218131399432
 31
0.0
  0
LINE
  5
1E8
330
E3
100
AcDbEntity
  8
0
  6
Continuous
100
AcDbLine
 10
152.8580325411273
 20
135.0218131399432
 30
0.0
 11
152.8170452679804
 21
135.0090319436283
 31
0.0
  0
LINE
  5
1E9
330
E3
100
AcDbEntity
  8
0
  6
Continuous
100
AcDbLine
 10
152.8170452679804
 20
135.0090319436283
 30
0.0
 11
152.7754072417991
 21
134.996132120458
 31
0.0
  0
LINE
  5
1EA
330
E3
100
AcDbEntity
  8
0
  6
Continuous
100
AcDbLine
 10
152.7754072417991
 20
134.996132120458
 30
0.0
 11
152.733440449762
 21
134.9831780678683
 31
0.0
  0
LINE
  5
1EB
330
E3
100
AcDbEntity
  8
0
  6
Continuous
100
AcDbLine
 10
152.733440449762
 20
134.9831780678683
 30
0.0
 11
152.6914736577247
 21
134.9702206259398
 31
0.0
  0
LINE
  5
1EC
330
E3
100
AcDbEntity
  8
0
  6
Continuous
100
AcDbLine
 10
152.6914736577247
 20
134.9702206259398
 30
0.0
 11
152.6498356315435
 21
134.9573241921084
 31
0.0
  0
LINE
  5
1ED
330
E3
100
AcDbEntity
  8
0
  6
Continuous
100
AcDbLine
 10
152.6498356315435
 20
134.9573241921084
 30
0.0
 11
152.6088483583965
 21
134.9445396064547
 31
0.0
  0
LINE
  5
1EE
330
E3
100
AcDbEntity
  8
0
  6
Continuous
100
AcDbLine
 10
152.6088483583965
 20
134.9445396064547
 30
0.0
 11
152.5688270467849
 21
134.9319278770757
 31
0.0
  0
LINE
  5
1EF
330
E3
100
AcDbEntity
  8
0
  6
Continuous
100
AcDbLine
 10
152.5688270467849
 20
134.9319278770757
 30
0.0
 11
152.5300902945483
 21
134.919543233391
 31
0.0
  0
LINE
  5
1F0
330
E3
100
AcDbEntity
  8
0
  6
Continuous
100
AcDbLine
 10
152.5300902945483
 20
134.919543233391
 30
0.0
 11
152.492939752833
 21
134.9074365154814
 31
0.0
  0
LINE
  5
1F1
330
E3
100
AcDbEntity
  8
0
  6
Continuous
100
AcDbLine
 10
152.492939752833
 20
134.9074365154814
 30
0.0
 11
152.4576601260913
 21
134.8956585634277
 31
0.0
  0
LINE
  5
1F2
330
E3
100
AcDbEntity
  8
0
  6
Continuous
100
AcDbLine
 10
152.4576601260913
 20
134.8956585634277
 30
0.0
 11
152.4245293400985
 21
134.8842636066493
 31
0.0
  0
LINE
  5
1F3
330
E3
100
AcDbEntity
  8
0
  6
Continuous
100
AcDbLine
 10
152.4245293400985
 20
134.8842636066493
 30
0.0
 11
152.3938083739359
 21
134.8732889278724
 31
0.0
  0
LINE
  5
1F4
330
E3
100
AcDbEntity
  8
0
  6
Continuous
100
AcDbLine
 10
152.3938083739359
 20
134.8732889278724
 30
0.0
 11
152.3657378706528
 21
134.8627853671776
 31
0.0
  0
LINE
  5
1F5
330
E3
100
AcDbEntity
  8
0
  6
Continuous
100
AcDbLine
 10
152.3657378706528
 20
134.8627853671776
 30
0.0
 11
152.3405381372659
 21
134.8527834286134
 31
0.0
  0
LINE
  5
1F6
330
E3
100
AcDbEntity
  8
0
  6
Continuous
100
AcDbLine
 10
152.3405381372659
 20
134.8527834286134
 30
0.0
 11
152.318405755421
 21
134.8433271735832
 31
0.0
  0
LINE
  5
1F7
330
E3
100
AcDbEntity
  8
0
  6
Continuous
100
AcDbLine
 10
152.318405755421
 20
134.8433271735832
 30
0.0
 11
152.2995203600704
 21
134.8344403274581
 31
0.0
  0
LINE
  5
1F8
330
E3
100
AcDbEntity
  8
0
  6
Continuous
100
AcDbLine
 10
152.2995203600704
 20
134.8344403274581
 30
0.0
 11
152.2840344714565
 21
134.8261533942865
 31
0.0
  0
LINE
  5
1F9
330
E3
100
AcDbEntity
  8
0
  6
Continuous
100
AcDbLine
 10
152.2840344714565
 20
134.8261533942865
 30
0.0
 11
152.2720667164344
 21
134.8184867101007
 31
0.0
  0
LINE
  5
1FA
330
E3
100
AcDbEntity
  8
0
  6
Continuous
100
AcDbLine
 10
152.2720667164344
 20
134.8184867101007
 30
0.0
 11
152.2637187751658
 21
134.8114606109331
 31
0.0
  0
LINE
  5
1FB
330
E3
100
AcDbEntity
  8
0
  6
Continuous
100
AcDbLine
 10
152.2637187751658
 20
134.8114606109331
 30
0.0
 11
152.2590614886794
 21
134.8050836152658
 31
0.0
  0
LINE
  5
1FC
330
E3
100
AcDbEntity
  8
0
  6
Continuous
100
AcDbLine
 10
152.2590614886794
 20
134.8050836152658
 30
0.0
 11
152.2581378385167
 21
134.799364965487
 31
0.0
  0
LINE
  5
1FD
330
E3
100
AcDbEntity
  8
0
  6
Continuous
100
AcDbLine
 10
153.2771490204633
 20
134.7790358584697
 30
0.0
 11
153.2762253703006
 21
134.7733172086909
 31
0.0
  0
LINE
  5
1FE
330
E3
100
AcDbEntity
  8
0
  6
Continuous
100
AcDbLine
 10
153.2762253703006
 20
134.7733172086909
 30
0.0
 11
153.27156848965
 21
134.7669402896519
 31
0.0
  0
LINE
  5
1FF
330
E3
100
AcDbEntity
  8
0
  6
Continuous
100
AcDbLine
 10
153.27156848965
 20
134.7669402896519
 30
0.0
 11
153.2632212064852
 21
134.7599121583331
 31
0.0
  0
LINE
  5
200
330
E3
100
AcDbEntity
  8
0
  6
Continuous
100
AcDbLine
 10
153.2632212064852
 20
134.7599121583331
 30
0.0
 11
153.2512534514632
 21
134.7522454741473
 31
0.0
  0
LINE
  5
201
330
E3
100
AcDbEntity
  8
0
  6
Continuous
100
AcDbLine
 10
153.2512534514632
 20
134.7522454741473
 30
0.0
 11
153.2357641735105
 21
134.7439585409757
 31
0.0
  0
LINE
  5
202
330
E3
100
AcDbEntity
  8
0
  6
Continuous
100
AcDbLine
 10
153.2357641735105
 20
134.7439585409757
 30
0.0
 11
153.2168787781599
 21
134.7350750841893
 31
0.0
  0
LINE
  5
203
330
E3
100
AcDbEntity
  8
0
  6
Continuous
100
AcDbLine
 10
153.2168787781599
 20
134.7350750841893
 30
0.0
 11
153.1947497856538
 21
134.7256154398204
 31
0.0
  0
LINE
  5
204
330
E3
100
AcDbEntity
  8
0
  6
Continuous
100
AcDbLine
 10
153.1947497856538
 20
134.7256154398204
 30
0.0
 11
153.1695500522669
 21
134.7156168905949
 31
0.0
  0
LINE
  5
205
330
E3
100
AcDbEntity
  8
0
  6
Continuous
100
AcDbLine
 10
153.1695500522669
 20
134.7156168905949
 30
0.0
 11
153.1414795489837
 21
134.7051099405614
 31
0.0
  0
LINE
  5
206
330
E3
100
AcDbEntity
  8
0
  6
Continuous
100
AcDbLine
 10
153.1414795489837
 20
134.7051099405614
 30
0.0
 11
153.1107585828211
 21
134.6941386511231
 31
0.0
  0
LINE
  5
207
330
E3
100
AcDbEntity
  8
0
  6
Continuous
100
AcDbLine
 10
153.1107585828211
 20
134.6941386511231
 30
0.0
 11
153.0776277968283
 21
134.6827403050061
 31
0.0
  0
LINE
  5
208
330
E3
100
AcDbEntity
  8
0
  6
Continuous
100
AcDbLine
 10
153.0776277968283
 20
134.6827403050061
 30
0.0
 11
153.0423481700867
 21
134.6709657422911
 31
0.0
  0
LINE
  5
209
330
E3
100
AcDbEntity
  8
0
  6
Continuous
100
AcDbLine
 10
153.0423481700867
 20
134.6709657422911
 30
0.0
 11
153.0051942390326
 21
134.6588590243815
 31
0.0
  0
LINE
  5
20A
330
E3
100
AcDbEntity
  8
0
  6
Continuous
100
AcDbLine
 10
153.0051942390326
 20
134.6588590243815
 30
0.0
 11
152.9664574867961
 21
134.6464709913581
 31
0.0
  0
LINE
  5
20B
330
E3
100
AcDbEntity
  8
0
  6
Continuous
100
AcDbLine
 10
152.9664574867961
 20
134.6464709913581
 30
0.0
 11
152.9264395645232
 21
134.6338592619791
 31
0.0
  0
LINE
  5
20C
330
E3
100
AcDbEntity
  8
0
  6
Continuous
100
AcDbLine
 10
152.9264395645232
 20
134.6338592619791
 30
0.0
 11
152.8854522913762
 21
134.6210780656641
 31
0.0
  0
LINE
  5
20D
330
E3
100
AcDbEntity
  8
0
  6
Continuous
100
AcDbLine
 10
152.8854522913762
 20
134.6210780656641
 30
0.0
 11
152.8438142651949
 21
134.6081782424939
 31
0.0
  0
LINE
  5
20E
330
E3
100
AcDbEntity
  8
0
  6
Continuous
100
AcDbLine
 10
152.8438142651949
 20
134.6081782424939
 30
0.0
 11
152.8018474731577
 21
134.5952241899042
 31
0.0
  0
LINE
  5
20F
330
E3
100
AcDbEntity
  8
0
  6
Continuous
100
AcDbLine
 10
152.8018474731577
 20
134.5952241899042
 30
0.0
 11
152.7598806811205
 21
134.5822667479757
 31
0.0
  0
LINE
  5
210
330
E3
100
AcDbEntity
  8
0
  6
Continuous
100
AcDbLine
 10
152.7598806811205
 20
134.5822667479757
 30
0.0
 11
152.7182426549392
 21
134.5693703141442
 31
0.0
  0
LINE
  5
211
330
E3
100
AcDbEntity
  8
0
  6
Continuous
100
AcDbLine
 10
152.7182426549392
 20
134.5693703141442
 30
0.0
 11
152.6772519924536
 21
134.5565857284905
 31
0.0
  0
LINE
  5
212
330
E3
100
AcDbEntity
  8
0
  6
Continuous
100
AcDbLine
 10
152.6772519924536
 20
134.5565857284905
 30
0.0
 11
152.6372340701807
 21
134.5439739991116
 31
0.0
  0
LINE
  5
213
330
E3
100
AcDbEntity
  8
0
  6
Continuous
100
AcDbLine
 10
152.6372340701807
 20
134.5439739991116
 30
0.0
 11
152.5984973179441
 21
134.5315893554269
 31
0.0
  0
LINE
  5
214
330
E3
100
AcDbEntity
  8
0
  6
Continuous
100
AcDbLine
 10
152.5984973179441
 20
134.5315893554269
 30
0.0
 11
152.5613467762287
 21
134.5194826375172
 31
0.0
  0
LINE
  5
215
330
E3
100
AcDbEntity
  8
0
  6
Continuous
100
AcDbLine
 10
152.5613467762287
 20
134.5194826375172
 30
0.0
 11
152.5260671494871
 21
134.5077046854635
 31
0.0
  0
LINE
  5
216
330
E3
100
AcDbEntity
  8
0
  6
Continuous
100
AcDbLine
 10
152.5260671494871
 20
134.5077046854635
 30
0.0
 11
152.4929363634943
 21
134.4963063393465
 31
0.0
  0
LINE
  5
217
330
E3
100
AcDbEntity
  8
0
  6
Continuous
100
AcDbLine
 10
152.4929363634943
 20
134.4963063393465
 30
0.0
 11
152.4622153973317
 21
134.4853350499082
 31
0.0
  0
LINE
  5
218
330
E3
100
AcDbEntity
  8
0
  6
Continuous
100
AcDbLine
 10
152.4622153973317
 20
134.4853350499082
 30
0.0
 11
152.4341448940485
 21
134.4748280998747
 31
0.0
  0
LINE
  5
219
330
E3
100
AcDbEntity
  8
0
  6
Continuous
100
AcDbLine
 10
152.4341448940485
 20
134.4748280998747
 30
0.0
 11
152.4089451606616
 21
134.4648295506492
 31
0.0
  0
LINE
  5
21A
330
E3
100
AcDbEntity
  8
0
  6
Continuous
100
AcDbLine
 10
152.4089451606616
 20
134.4648295506492
 30
0.0
 11
152.3868127788168
 21
134.455373295619
 31
0.0
  0
LINE
  5
21B
330
E3
100
AcDbEntity
  8
0
  6
Continuous
100
AcDbLine
 10
152.3868127788168
 20
134.455373295619
 30
0.0
 11
152.3679273834662
 21
134.4464864494939
 31
0.0
  0
LINE
  5
21C
330
E3
100
AcDbEntity
  8
0
  6
Continuous
100
AcDbLine
 10
152.3679273834662
 20
134.4464864494939
 30
0.0
 11
152.3524414948522
 21
134.4381995163223
 31
0.0
  0
LINE
  5
21D
330
E3
100
AcDbEntity
  8
0
  6
Continuous
100
AcDbLine
 10
152.3524414948522
 20
134.4381995163223
 30
0.0
 11
152.3404737398302
 21
134.4305328321365
 31
0.0
  0
LINE
  5
21E
330
E3
100
AcDbEntity
  8
0
  6
Continuous
100
AcDbLine
 10
152.3404737398302
 20
134.4305328321365
 30
0.0
 11
152.3321257985616
 21
134.4235067329689
 31
0.0
  0
LINE
  5
21F
330
E3
100
AcDbEntity
  8
0
  6
Continuous
100
AcDbLine
 10
152.3321257985616
 20
134.4235067329689
 30
0.0
 11
152.3274683465482
 21
134.4171290458974
 31
0.0
  0
LINE
  5
220
330
E3
100
AcDbEntity
  8
0
  6
Continuous
100
AcDbLine
 10
152.3274683465482
 20
134.4171290458974
 30
0.0
 11
152.3265446963855
 21
134.4114103961186
 31
0.0
  0
LINE
  5
221
330
E3
100
AcDbEntity
  8
0
  6
Continuous
100
AcDbLine
 10
153.3455558783321
 20
134.3910812891013
 30
0.0
 11
153.3446322281694
 21
134.3853626393225
 31
0.0
  0
LINE
  5
222
330
E3
100
AcDbEntity
  8
0
  6
Continuous
100
AcDbLine
 10
153.3446322281694
 20
134.3853626393225
 30
0.0
 11
153.3399753475188
 21
134.3789857202835
 31
0.0
  0
LINE
  5
223
330
E3
100
AcDbEntity
  8
0
  6
Continuous
100
AcDbLine
 10
153.3399753475188
 20
134.3789857202835
 30
0.0
 11
153.331628229881
 21
134.3719582803689
 31
0.0
  0
LINE
  5
224
330
E3
100
AcDbEntity
  8
0
  6
Continuous
100
AcDbLine
 10
153.331628229881
 20
134.3719582803689
 30
0.0
 11
153.3196604748589
 21
134.3642915961832
 31
0.0
  0
LINE
  5
225
330
E3
100
AcDbEntity
  8
0
  6
Continuous
100
AcDbLine
 10
153.3196604748589
 20
134.3642915961832
 30
0.0
 11
153.3041711969063
 21
134.3560046630115
 31
0.0
  0
LINE
  5
226
330
E3
100
AcDbEntity
  8
0
  6
Continuous
100
AcDbLine
 10
153.3041711969063
 20
134.3560046630115
 30
0.0
 11
153.2852858015557
 21
134.3471212062251
 31
0.0
  0
LINE
  5
227
330
E3
100
AcDbEntity
  8
0
  6
Continuous
100
AcDbLine
 10
153.2852858015557
 20
134.3471212062251
 30
0.0
 11
153.2631568090495
 21
134.3376615618562
 31
0.0
  0
LINE
  5
228
330
E3
100
AcDbEntity
  8
0
  6
Continuous
100
AcDbLine
 10
153.2631568090495
 20
134.3376615618562
 30
0.0
 11
153.2379570756627
 21
134.3276630126308
 31
0.0
  0
LINE
  5
229
330
E3
100
AcDbEntity
  8
0
  6
Continuous
100
AcDbLine
 10
153.2379570756627
 20
134.3276630126308
 30
0.0
 11
153.2098865723795
 21
134.3171560625972
 31
0.0
  0
LINE
  5
22A
330
E3
100
AcDbEntity
  8
0
  6
Continuous
100
AcDbLine
 10
153.2098865723795
 20
134.3171560625972
 30
0.0
 11
153.1791656062169
 21
134.306184773159
 31
0.0
  0
LINE
  5
22B
330
E3
100
AcDbEntity
  8
0
  6
Continuous
100
AcDbLine
 10
153.1791656062169
 20
134.306184773159
 30
0.0
 11
153.1460348202241
 21
134.294786427042
 31
0.0
  0
LINE
  5
22C
330
E3
100
AcDbEntity
  8
0
  6
Continuous
100
AcDbLine
 10
153.1460348202241
 20
134.294786427042
 30
0.0
 11
153.1107551934824
 21
134.2830084749882
 31
0.0
  0
LINE
  5
22D
330
E3
100
AcDbEntity
  8
0
  6
Continuous
100
AcDbLine
 10
153.1107551934824
 20
134.2830084749882
 30
0.0
 11
153.0736012624284
 21
134.2709017570786
 31
0.0
  0
LINE
  5
22E
330
E3
100
AcDbEntity
  8
0
  6
Continuous
100
AcDbLine
 10
153.0736012624284
 20
134.2709017570786
 30
0.0
 11
153.0348645101918
 21
134.2585171133939
 31
0.0
  0
LINE
  5
22F
330
E3
100
AcDbEntity
  8
0
  6
Continuous
100
AcDbLine
 10
153.0348645101918
 20
134.2585171133939
 30
0.0
 11
152.9948465879189
 21
134.2459053840149
 31
0.0
  0
LINE
  5
230
330
E3
100
AcDbEntity
  8
0
  6
Continuous
100
AcDbLine
 10
152.9948465879189
 20
134.2459053840149
 30
0.0
 11
152.953859314772
 21
134.2331207983612
 31
0.0
  0
LINE
  5
231
330
E3
100
AcDbEntity
  8
0
  6
Continuous
100
AcDbLine
 10
152.953859314772
 20
134.2331207983612
 30
0.0
 11
152.9122178992519
 21
134.2202243645297
 31
0.0
  0
LINE
  5
232
330
E3
100
AcDbEntity
  8
0
  6
Continuous
100
AcDbLine
 10
152.9122178992519
 20
134.2202243645297
 30
0.0
 11
152.8702544965535
 21
134.2072669226013
 31
0.0
  0
LINE
  5
233
330
E3
100
AcDbEntity
  8
0
  6
Continuous
100
AcDbLine
 10
152.8702544965535
 20
134.2072669226013
 30
0.0
 11
152.8282877045163
 21
134.1943128700115
 31
0.0
  0
LINE
  5
234
330
E3
100
AcDbEntity
  8
0
  6
Continuous
100
AcDbLine
 10
152.8282877045163
 20
134.1943128700115
 30
0.0
 11
152.786649678335
 21
134.1814164361801
 31
0.0
  0
LINE
  5
235
330
E3
100
AcDbEntity
  8
0
  6
Continuous
100
AcDbLine
 10
152.786649678335
 20
134.1814164361801
 30
0.0
 11
152.7456590158493
 21
134.1686318505264
 31
0.0
  0
LINE
  5
236
330
E3
100
AcDbEntity
  8
0
  6
Continuous
100
AcDbLine
 10
152.7456590158493
 20
134.1686318505264
 30
0.0
 11
152.7056410935764
 21
134.1560201211474
 31
0.0
  0
LINE
  5
237
330
E3
100
AcDbEntity
  8
0
  6
Continuous
100
AcDbLine
 10
152.7056410935764
 20
134.1560201211474
 30
0.0
 11
152.6669043413399
 21
134.1436354774627
 31
0.0
  0
LINE
  5
238
330
E3
100
AcDbEntity
  8
0
  6
Continuous
100
AcDbLine
 10
152.6669043413399
 20
134.1436354774627
 30
0.0
 11
152.6297537996245
 21
134.1315253702143
 31
0.0
  0
LINE
  5
239
330
E3
100
AcDbEntity
  8
0
  6
Continuous
100
AcDbLine
 10
152.6297537996245
 20
134.1315253702143
 30
0.0
 11
152.5944741728829
 21
134.1197508074993
 31
0.0
  0
LINE
  5
23A
330
E3
100
AcDbEntity
  8
0
  6
Continuous
100
AcDbLine
 10
152.5944741728829
 20
134.1197508074993
 30
0.0
 11
152.56134338689
 21
134.1083524613823
 31
0.0
  0
LINE
  5
23B
330
E3
100
AcDbEntity
  8
0
  6
Continuous
100
AcDbLine
 10
152.56134338689
 20
134.1083524613823
 30
0.0
 11
152.5306224207274
 21
134.0973811719441
 31
0.0
  0
LINE
  5
23C
330
E3
100
AcDbEntity
  8
0
  6
Continuous
100
AcDbLine
 10
152.5306224207274
 20
134.0973811719441
 30
0.0
 11
152.5025519174443
 21
134.0868742219105
 31
0.0
  0
LINE
  5
23D
330
E3
100
AcDbEntity
  8
0
  6
Continuous
100
AcDbLine
 10
152.5025519174443
 20
134.0868742219105
 30
0.0
 11
152.4773521840574
 21
134.0768756726851
 31
0.0
  0
LINE
  5
23E
330
E3
100
AcDbEntity
  8
0
  6
Continuous
100
AcDbLine
 10
152.4773521840574
 20
134.0768756726851
 30
0.0
 11
152.4552198022126
 21
134.0674160283162
 31
0.0
  0
LINE
  5
23F
330
E3
100
AcDbEntity
  8
0
  6
Continuous
100
AcDbLine
 10
152.4552198022126
 20
134.0674160283162
 30
0.0
 11
152.4363344068619
 21
134.0585325715298
 31
0.0
  0
LINE
  5
240
330
E3
100
AcDbEntity
  8
0
  6
Continuous
100
AcDbLine
 10
152.4363344068619
 20
134.0585325715298
 30
0.0
 11
152.4208451289093
 21
134.0502456383581
 31
0.0
  0
LINE
  5
241
330
E3
100
AcDbEntity
  8
0
  6
Continuous
100
AcDbLine
 10
152.4208451289093
 20
134.0502456383581
 30
0.0
 11
152.4088807632259
 21
134.0425789541724
 31
0.0
  0
LINE
  5
242
330
E3
100
AcDbEntity
  8
0
  6
Continuous
100
AcDbLine
 10
152.4088807632259
 20
134.0425789541724
 30
0.0
 11
152.4005328219574
 21
134.0355528550048
 31
0.0
  0
LINE
  5
243
330
E3
100
AcDbEntity
  8
0
  6
Continuous
100
AcDbLine
 10
152.4005328219574
 20
134.0355528550048
 30
0.0
 11
152.395875204417
 21
134.029174476529
 31
0.0
  0
LINE
  5
244
330
E3
100
AcDbEntity
  8
0
  6
Continuous
100
AcDbLine
 10
152.395875204417
 20
134.029174476529
 30
0.0
 11
152.3949515542543
 21
134.0234558267501
 31
0.0
  0
LINE
  5
245
330
E3
100
AcDbEntity
  8
0
  6
Continuous
100
AcDbLine
 10
153.4139627362009
 20
134.0031267197328
 30
0.0
 11
153.4130390860381
 21
133.997408069954
 31
0.0
  0
LINE
  5
246
330
E3
100
AcDbEntity
  8
0
  6
Continuous
100
AcDbLine
 10
153.4130390860381
 20
133.997408069954
 30
0.0
 11
153.4083822053876
 21
133.991031150915
 31
0.0
  0
LINE
  5
247
330
E3
100
AcDbEntity
  8
0
  6
Continuous
100
AcDbLine
 10
153.4083822053876
 20
133.991031150915
 30
0.0
 11
153.4000352532768
 21
133.9840044024048
 31
0.0
  0
LINE
  5
248
330
E3
100
AcDbEntity
  8
0
  6
Continuous
100
AcDbLine
 10
153.4000352532768
 20
133.9840044024048
 30
0.0
 11
153.3880674982547
 21
133.976337718219
 31
0.0
  0
LINE
  5
249
330
E3
100
AcDbEntity
  8
0
  6
Continuous
100
AcDbLine
 10
153.3880674982547
 20
133.976337718219
 30
0.0
 11
153.3725782203021
 21
133.9680507850474
 31
0.0
  0
LINE
  5
24A
330
E3
100
AcDbEntity
  8
0
  6
Continuous
100
AcDbLine
 10
153.3725782203021
 20
133.9680507850474
 30
0.0
 11
153.3536928249514
 21
133.9591639389222
 31
0.0
  0
LINE
  5
24B
330
E3
100
AcDbEntity
  8
0
  6
Continuous
100
AcDbLine
 10
153.3536928249514
 20
133.9591639389222
 30
0.0
 11
153.3315638324453
 21
133.9497076838921
 31
0.0
  0
LINE
  5
24C
330
E3
100
AcDbEntity
  8
0
  6
Continuous
100
AcDbLine
 10
153.3315638324453
 20
133.9497076838921
 30
0.0
 11
153.3063640990584
 21
133.9397091346666
 31
0.0
  0
LINE
  5
24D
330
E3
100
AcDbEntity
  8
0
  6
Continuous
100
AcDbLine
 10
153.3063640990584
 20
133.9397091346666
 30
0.0
 11
153.2782902064366
 21
133.9292021846331
 31
0.0
  0
LINE
  5
24E
330
E3
100
AcDbEntity
  8
0
  6
Continuous
100
AcDbLine
 10
153.2782902064366
 20
133.9292021846331
 30
0.0
 11
153.247569240274
 21
133.9182308951948
 31
0.0
  0
LINE
  5
24F
330
E3
100
AcDbEntity
  8
0
  6
Continuous
100
AcDbLine
 10
153.247569240274
 20
133.9182308951948
 30
0.0
 11
153.2144418436199
 21
133.9068325490778
 31
0.0
  0
LINE
  5
250
330
E3
100
AcDbEntity
  8
0
  6
Continuous
100
AcDbLine
 10
153.2144418436199
 20
133.9068325490778
 30
0.0
 11
153.1791622168782
 21
133.8950545970241
 31
0.0
  0
LINE
  5
251
330
E3
100
AcDbEntity
  8
0
  6
Continuous
100
AcDbLine
 10
153.1791622168782
 20
133.8950545970241
 30
0.0
 11
153.1420082858241
 21
133.8829478791145
 31
0.0
  0
LINE
  5
252
330
E3
100
AcDbEntity
  8
0
  6
Continuous
100
AcDbLine
 10
153.1420082858241
 20
133.8829478791145
 30
0.0
 11
153.1032715335876
 21
133.8705632354298
 31
0.0
  0
LINE
  5
253
330
E3
100
AcDbEntity
  8
0
  6
Continuous
100
AcDbLine
 10
153.1032715335876
 20
133.8705632354298
 30
0.0
 11
153.0632536113147
 21
133.8579515060508
 31
0.0
  0
LINE
  5
254
330
E3
100
AcDbEntity
  8
0
  6
Continuous
100
AcDbLine
 10
153.0632536113147
 20
133.8579515060508
 30
0.0
 11
153.0222663381677
 21
133.8451669203971
 31
0.0
  0
LINE
  5
255
330
E3
100
AcDbEntity
  8
0
  6
Continuous
100
AcDbLine
 10
153.0222663381677
 20
133.8451669203971
 30
0.0
 11
152.9806249226477
 21
133.8322704865656
 31
0.0
  0
LINE
  5
256
330
E3
100
AcDbEntity
  8
0
  6
Continuous
100
AcDbLine
 10
152.9806249226477
 20
133.8322704865656
 30
0.0
 11
152.9386615199492
 21
133.8193130446371
 31
0.0
  0
LINE
  5
257
330
E3
100
AcDbEntity
  8
0
  6
Continuous
100
AcDbLine
 10
152.9386615199492
 20
133.8193130446371
 30
0.0
 11
152.8966947279121
 21
133.8063589920474
 31
0.0
  0
LINE
  5
258
330
E3
100
AcDbEntity
  8
0
  6
Continuous
100
AcDbLine
 10
152.8966947279121
 20
133.8063589920474
 30
0.0
 11
152.8550567017308
 21
133.7934591688772
 31
0.0
  0
LINE
  5
259
330
E3
100
AcDbEntity
  8
0
  6
Continuous
100
AcDbLine
 10
152.8550567017308
 20
133.7934591688772
 30
0.0
 11
152.8140660392451
 21
133.7806779725622
 31
0.0
  0
LINE
  5
25A
330
E3
100
AcDbEntity
  8
0
  6
Continuous
100
AcDbLine
 10
152.8140660392451
 20
133.7806779725622
 30
0.0
 11
152.7740481169722
 21
133.7680662431833
 31
0.0
  0
LINE
  5
25B
330
E3
100
AcDbEntity
  8
0
  6
Continuous
100
AcDbLine
 10
152.7740481169722
 20
133.7680662431833
 30
0.0
 11
152.7353113647357
 21
133.7556782101598
 31
0.0
  0
LINE
  5
25C
330
E3
100
AcDbEntity
  8
0
  6
Continuous
100
AcDbLine
 10
152.7353113647357
 20
133.7556782101598
 30
0.0
 11
152.6981608230203
 21
133.7435714922502
 31
0.0
  0
LINE
  5
25D
330
E3
100
AcDbEntity
  8
0
  6
Continuous
100
AcDbLine
 10
152.6981608230203
 20
133.7435714922502
 30
0.0
 11
152.6628811962786
 21
133.7317969295352
 31
0.0
  0
LINE
  5
25E
330
E3
100
AcDbEntity
  8
0
  6
Continuous
100
AcDbLine
 10
152.6628811962786
 20
133.7317969295352
 30
0.0
 11
152.6297504102858
 21
133.7203985834182
 31
0.0
  0
LINE
  5
25F
330
E3
100
AcDbEntity
  8
0
  6
Continuous
100
AcDbLine
 10
152.6297504102858
 20
133.7203985834182
 30
0.0
 11
152.5990294441232
 21
133.7094272939799
 31
0.0
  0
LINE
  5
260
330
E3
100
AcDbEntity
  8
0
  6
Continuous
100
AcDbLine
 10
152.5990294441232
 20
133.7094272939799
 30
0.0
 11
152.5709589408401
 21
133.6989203439464
 31
0.0
  0
LINE
  5
261
330
E3
100
AcDbEntity
  8
0
  6
Continuous
100
AcDbLine
 10
152.5709589408401
 20
133.6989203439464
 30
0.0
 11
152.5457592074532
 21
133.6889217947209
 31
0.0
  0
LINE
  5
262
330
E3
100
AcDbEntity
  8
0
  6
Continuous
100
AcDbLine
 10
152.5457592074532
 20
133.6889217947209
 30
0.0
 11
152.5236268256083
 21
133.679462150352
 31
0.0
  0
LINE
  5
263
330
E3
100
AcDbEntity
  8
0
  6
Continuous
100
AcDbLine
 10
152.5236268256083
 20
133.679462150352
 30
0.0
 11
152.5047414302578
 21
133.6705786935656
 31
0.0
  0
LINE
  5
264
330
E3
100
AcDbEntity
  8
0
  6
Continuous
100
AcDbLine
 10
152.5047414302578
 20
133.6705786935656
 30
0.0
 11
152.4892521523051
 21
133.662291760394
 31
0.0
  0
LINE
  5
265
330
E3
100
AcDbEntity
  8
0
  6
Continuous
100
AcDbLine
 10
152.4892521523051
 20
133.662291760394
 30
0.0
 11
152.4772877866217
 21
133.6546250762082
 31
0.0
  0
LINE
  5
266
330
E3
100
AcDbEntity
  8
0
  6
Continuous
100
AcDbLine
 10
152.4772877866217
 20
133.6546250762082
 30
0.0
 11
152.4689398453531
 21
133.6475955877019
 31
0.0
  0
LINE
  5
267
330
E3
100
AcDbEntity
  8
0
  6
Continuous
100
AcDbLine
 10
152.4689398453531
 20
133.6475955877019
 30
0.0
 11
152.4642820622858
 21
133.6412199071605
 31
0.0
  0
LINE
  5
268
330
E3
100
AcDbEntity
  8
0
  6
Continuous
100
AcDbLine
 10
152.4642820622858
 20
133.6412199071605
 30
0.0
 11
152.4633584121231
 21
133.6355012573817
 31
0.0
  0
LINE
  5
269
330
E3
100
AcDbEntity
  8
0
  6
Continuous
100
AcDbLine
 10
153.4823695940697
 20
133.6151721503644
 30
0.0
 11
153.4814459439069
 21
133.6094535005856
 31
0.0
  0
LINE
  5
26A
330
E3
100
AcDbEntity
  8
0
  6
Continuous
100
AcDbLine
 10
153.4814459439069
 20
133.6094535005856
 30
0.0
 11
153.4767890632564
 21
133.6030765815466
 31
0.0
  0
LINE
  5
26B
330
E3
100
AcDbEntity
  8
0
  6
Continuous
100
AcDbLine
 10
153.4767890632564
 20
133.6030765815466
 30
0.0
 11
153.4684422766726
 21
133.5960505244406
 31
0.0
  0
LINE
  5
26C
330
E3
100
AcDbEntity
  8
0
  6
Continuous
100
AcDbLine
 10
153.4684422766726
 20
133.5960505244406
 30
0.0
 11
153.4564745216505
 21
133.5883838402548
 31
0.0
  0
LINE
  5
26D
330
E3
100
AcDbEntity
  8
0
  6
Continuous
100
AcDbLine
 10
153.4564745216505
 20
133.5883838402548
 30
0.0
 11
153.4409852436978
 21
133.5800969070832
 31
0.0
  0
LINE
  5
26E
330
E3
100
AcDbEntity
  8
0
  6
Continuous
100
AcDbLine
 10
153.4409852436978
 20
133.5800969070832
 30
0.0
 11
153.4220998483472
 21
133.5712100609581
 31
0.0
  0
LINE
  5
26F
330
E3
100
AcDbEntity
  8
0
  6
Continuous
100
AcDbLine
 10
153.4220998483472
 20
133.5712100609581
 30
0.0
 11
153.3999708558411
 21
133.5617538059279
 31
0.0
  0
LINE
  5
270
330
E3
100
AcDbEntity
  8
0
  6
Continuous
100
AcDbLine
 10
153.3999708558411
 20
133.5617538059279
 30
0.0
 11
153.3747711224542
 21
133.5517518673637
 31
0.0
  0
LINE
  5
271
330
E3
100
AcDbEntity
  8
0
  6
Continuous
100
AcDbLine
 10
153.3747711224542
 20
133.5517518673637
 30
0.0
 11
153.3466972298324
 21
133.5412483066689
 31
0.0
  0
LINE
  5
272
330
E3
100
AcDbEntity
  8
0
  6
Continuous
100
AcDbLine
 10
153.3466972298324
 20
133.5412483066689
 30
0.0
 11
153.3159762636698
 21
133.5302736278919
 31
0.0
  0
LINE
  5
273
330
E3
100
AcDbEntity
  8
0
  6
Continuous
100
AcDbLine
 10
153.3159762636698
 20
133.5302736278919
 30
0.0
 11
153.2828488670156
 21
133.5188786711136
 31
0.0
  0
LINE
  5
274
330
E3
100
AcDbEntity
  8
0
  6
Continuous
100
AcDbLine
 10
153.2828488670156
 20
133.5188786711136
 30
0.0
 11
153.247569240274
 21
133.5071007190599
 31
0.0
  0
LINE
  5
275
330
E3
100
AcDbEntity
  8
0
  6
Continuous
100
AcDbLine
 10
153.247569240274
 20
133.5071007190599
 30
0.0
 11
153.2104153092199
 21
133.4949940011503
 31
0.0
  0
LINE
  5
276
330
E3
100
AcDbEntity
  8
0
  6
Continuous
100
AcDbLine
 10
153.2104153092199
 20
133.4949940011503
 30
0.0
 11
153.1716785569834
 21
133.4826093574656
 31
0.0
  0
LINE
  5
277
330
E3
100
AcDbEntity
  8
0
  6
Continuous
100
AcDbLine
 10
153.1716785569834
 20
133.4826093574656
 30
0.0
 11
153.1316606347104
 21
133.4699942387479
 31
0.0
  0
LINE
  5
278
330
E3
100
AcDbEntity
  8
0
  6
Continuous
100
AcDbLine
 10
153.1316606347104
 20
133.4699942387479
 30
0.0
 11
153.0906733615635
 21
133.4572130424329
 31
0.0
  0
LINE
  5
279
330
E3
100
AcDbEntity
  8
0
  6
Continuous
100
AcDbLine
 10
153.0906733615635
 20
133.4572130424329
 30
0.0
 11
153.0490319460435
 21
133.4443132192627
 31
0.0
  0
LINE
  5
27A
330
E3
100
AcDbEntity
  8
0
  6
Continuous
100
AcDbLine
 10
153.0490319460435
 20
133.4443132192627
 30
0.0
 11
153.007068543345
 21
133.431359166673
 31
0.0
  0
LINE
  5
27B
330
E3
100
AcDbEntity
  8
0
  6
Continuous
100
AcDbLine
 10
153.007068543345
 20
133.431359166673
 30
0.0
 11
152.9651017513078
 21
133.4184051140832
 31
0.0
  0
LINE
  5
27C
330
E3
100
AcDbEntity
  8
0
  6
Continuous
100
AcDbLine
 10
152.9651017513078
 20
133.4184051140832
 30
0.0
 11
152.9234637251265
 21
133.4055052909131
 31
0.0
  0
LINE
  5
27D
330
E3
100
AcDbEntity
  8
0
  6
Continuous
100
AcDbLine
 10
152.9234637251265
 20
133.4055052909131
 30
0.0
 11
152.8824730626409
 21
133.392724094598
 31
0.0
  0
LINE
  5
27E
330
E3
100
AcDbEntity
  8
0
  6
Continuous
100
AcDbLine
 10
152.8824730626409
 20
133.392724094598
 30
0.0
 11
152.842455140368
 21
133.3801123652191
 31
0.0
  0
LINE
  5
27F
330
E3
100
AcDbEntity
  8
0
  6
Continuous
100
AcDbLine
 10
152.842455140368
 20
133.3801123652191
 30
0.0
 11
152.8037183881314
 21
133.3677243321957
 31
0.0
  0
LINE
  5
280
330
E3
100
AcDbEntity
  8
0
  6
Continuous
100
AcDbLine
 10
152.8037183881314
 20
133.3677243321957
 30
0.0
 11
152.7665644570774
 21
133.355617614286
 31
0.0
  0
LINE
  5
281
330
E3
100
AcDbEntity
  8
0
  6
Continuous
100
AcDbLine
 10
152.7665644570774
 20
133.355617614286
 30
0.0
 11
152.7312882196744
 21
133.343843051571
 31
0.0
  0
LINE
  5
282
330
E3
100
AcDbEntity
  8
0
  6
Continuous
100
AcDbLine
 10
152.7312882196744
 20
133.343843051571
 30
0.0
 11
152.6981574336816
 21
133.332444705454
 31
0.0
  0
LINE
  5
283
330
E3
100
AcDbEntity
  8
0
  6
Continuous
100
AcDbLine
 10
152.6981574336816
 20
133.332444705454
 30
0.0
 11
152.667436467519
 21
133.321470026677
 31
0.0
  0
LINE
  5
284
330
E3
100
AcDbEntity
  8
0
  6
Continuous
100
AcDbLine
 10
152.667436467519
 20
133.321470026677
 30
0.0
 11
152.6393659642358
 21
133.3109664659823
 31
0.0
  0
LINE
  5
285
330
E3
100
AcDbEntity
  8
0
  6
Continuous
100
AcDbLine
 10
152.6393659642358
 20
133.3109664659823
 30
0.0
 11
152.614166230849
 21
133.3009679167568
 31
0.0
  0
LINE
  5
286
330
E3
100
AcDbEntity
  8
0
  6
Continuous
100
AcDbLine
 10
152.614166230849
 20
133.3009679167568
 30
0.0
 11
152.5920338490041
 21
133.2915082723879
 31
0.0
  0
LINE
  5
287
330
E3
100
AcDbEntity
  8
0
  6
Continuous
100
AcDbLine
 10
152.5920338490041
 20
133.2915082723879
 30
0.0
 11
152.5731484536535
 21
133.2826214262628
 31
0.0
  0
LINE
  5
288
330
E3
100
AcDbEntity
  8
0
  6
Continuous
100
AcDbLine
 10
152.5731484536535
 20
133.2826214262628
 30
0.0
 11
152.5576591757008
 21
133.2743344930911
 31
0.0
  0
LINE
  5
289
330
E3
100
AcDbEntity
  8
0
  6
Continuous
100
AcDbLine
 10
152.5576591757008
 20
133.2743344930911
 30
0.0
 11
152.5456948100175
 21
133.2666711982441
 31
0.0
  0
LINE
  5
28A
330
E3
100
AcDbEntity
  8
0
  6
Continuous
100
AcDbLine
 10
152.5456948100175
 20
133.2666711982441
 30
0.0
 11
152.5373468687489
 21
133.2596417097378
 31
0.0
  0
LINE
  5
28B
330
E3
100
AcDbEntity
  8
0
  6
Continuous
100
AcDbLine
 10
152.5373468687489
 20
133.2596417097378
 30
0.0
 11
152.5326889201546
 21
133.253265337792
 31
0.0
  0
LINE
  5
28C
330
E3
100
AcDbEntity
  8
0
  6
Continuous
100
AcDbLine
 10
152.5326889201546
 20
133.253265337792
 30
0.0
 11
152.5317652699919
 21
133.2475466880132
 31
0.0
  0
LINE
  5
28D
330
E3
100
AcDbEntity
  8
0
  6
Continuous
100
AcDbLine
 10
153.5507764519384
 20
133.2272175809959
 30
0.0
 11
153.5498528017758
 21
133.2214989312171
 31
0.0
  0
LINE
  5
28E
330
E3
100
AcDbEntity
  8
0
  6
Continuous
100
AcDbLine
 10
153.5498528017758
 20
133.2214989312171
 30
0.0
 11
153.5451959211252
 21
133.2151220121781
 31
0.0
  0
LINE
  5
28F
330
E3
100
AcDbEntity
  8
0
  6
Continuous
100
AcDbLine
 10
153.5451959211252
 20
133.2151220121781
 30
0.0
 11
153.5368493000683
 21
133.2080932571377
 31
0.0
  0
LINE
  5
290
330
E3
100
AcDbEntity
  8
0
  6
Continuous
100
AcDbLine
 10
153.5368493000683
 20
133.2080932571377
 30
0.0
 11
153.5248815450463
 21
133.2004299622907
 31
0.0
  0
LINE
  5
291
330
E3
100
AcDbEntity
  8
0
  6
Continuous
100
AcDbLine
 10
153.5248815450463
 20
133.2004299622907
 30
0.0
 11
153.5093922670936
 21
133.1921430291191
 31
0.0
  0
LINE
  5
292
330
E3
100
AcDbEntity
  8
0
  6
Continuous
100
AcDbLine
 10
153.5093922670936
 20
133.1921430291191
 30
0.0
 11
153.490506871743
 21
133.1832561829939
 31
0.0
  0
LINE
  5
293
330
E3
100
AcDbEntity
  8
0
  6
Continuous
100
AcDbLine
 10
153.490506871743
 20
133.1832561829939
 30
0.0
 11
153.4683778792369
 21
133.1737965386251
 31
0.0
  0
LINE
  5
294
330
E3
100
AcDbEntity
  8
0
  6
Continuous
100
AcDbLine
 10
153.4683778792369
 20
133.1737965386251
 30
0.0
 11
153.44317814585
 21
133.1637979893996
 31
0.0
  0
LINE
  5
295
330
E3
100
AcDbEntity
  8
0
  6
Continuous
100
AcDbLine
 10
153.44317814585
 20
133.1637979893996
 30
0.0
 11
153.4151042532281
 21
133.1532944287048
 31
0.0
  0
LINE
  5
296
330
E3
100
AcDbEntity
  8
0
  6
Continuous
100
AcDbLine
 10
153.4151042532281
 20
133.1532944287048
 30
0.0
 11
153.3843832870656
 21
133.1423197499278
 31
0.0
  0
LINE
  5
297
330
E3
100
AcDbEntity
  8
0
  6
Continuous
100
AcDbLine
 10
153.3843832870656
 20
133.1423197499278
 30
0.0
 11
153.3512558904114
 21
133.1309214038108
 31
0.0
  0
LINE
  5
298
330
E3
100
AcDbEntity
  8
0
  6
Continuous
100
AcDbLine
 10
153.3512558904114
 20
133.1309214038108
 30
0.0
 11
153.3159762636698
 21
133.1191468410958
 31
0.0
  0
LINE
  5
299
330
E3
100
AcDbEntity
  8
0
  6
Continuous
100
AcDbLine
 10
153.3159762636698
 20
133.1191468410958
 30
0.0
 11
153.2788223326157
 21
133.1070401231861
 31
0.0
  0
LINE
  5
29A
330
E3
100
AcDbEntity
  8
0
  6
Continuous
100
AcDbLine
 10
153.2788223326157
 20
133.1070401231861
 30
0.0
 11
153.2400855803791
 21
133.0946520901627
 31
0.0
  0
LINE
  5
29B
330
E3
100
AcDbEntity
  8
0
  6
Continuous
100
AcDbLine
 10
153.2400855803791
 20
133.0946520901627
 30
0.0
 11
153.2000676581062
 21
133.0820403607838
 31
0.0
  0
LINE
  5
29C
330
E3
100
AcDbEntity
  8
0
  6
Continuous
100
AcDbLine
 10
153.2000676581062
 20
133.0820403607838
 30
0.0
 11
153.1590803849593
 21
133.0692591644688
 31
0.0
  0
LINE
  5
29D
330
E3
100
AcDbEntity
  8
0
  6
Continuous
100
AcDbLine
 10
153.1590803849593
 20
133.0692591644688
 30
0.0
 11
153.1174389694393
 21
133.0563593412986
 31
0.0
  0
LINE
  5
29E
330
E3
100
AcDbEntity
  8
0
  6
Continuous
100
AcDbLine
 10
153.1174389694393
 20
133.0563593412986
 30
0.0
 11
153.0754755667408
 21
133.0434052887088
 31
0.0
  0
LINE
  5
29F
330
E3
100
AcDbEntity
  8
0
  6
Continuous
100
AcDbLine
 10
153.0754755667408
 20
133.0434052887088
 30
0.0
 11
153.0335087747036
 21
133.0304478467804
 31
0.0
  0
LINE
  5
2A0
330
E3
100
AcDbEntity
  8
0
  6
Continuous
100
AcDbLine
 10
153.0335087747036
 20
133.0304478467804
 30
0.0
 11
152.9918707485223
 21
133.0175514129489
 31
0.0
  0
LINE
  5
2A1
330
E3
100
AcDbEntity
  8
0
  6
Continuous
100
AcDbLine
 10
152.9918707485223
 20
133.0175514129489
 30
0.0
 11
152.9508800860366
 21
133.0047668272952
 31
0.0
  0
LINE
  5
2A2
330
E3
100
AcDbEntity
  8
0
  6
Continuous
100
AcDbLine
 10
152.9508800860366
 20
133.0047668272952
 30
0.0
 11
152.9108621637637
 21
132.9921550979162
 31
0.0
  0
LINE
  5
2A3
330
E3
100
AcDbEntity
  8
0
  6
Continuous
100
AcDbLine
 10
152.9108621637637
 20
132.9921550979162
 30
0.0
 11
152.8721254115272
 21
132.9797704542315
 31
0.0
  0
LINE
  5
2A4
330
E3
100
AcDbEntity
  8
0
  6
Continuous
100
AcDbLine
 10
152.8721254115272
 20
132.9797704542315
 30
0.0
 11
152.8349714804731
 21
132.9676637363219
 31
0.0
  0
LINE
  5
2A5
330
E3
100
AcDbEntity
  8
0
  6
Continuous
100
AcDbLine
 10
152.8349714804731
 20
132.9676637363219
 30
0.0
 11
152.7996952430702
 21
132.9558857842682
 31
0.0
  0
LINE
  5
2A6
330
E3
100
AcDbEntity
  8
0
  6
Continuous
100
AcDbLine
 10
152.7996952430702
 20
132.9558857842682
 30
0.0
 11
152.7665644570774
 21
132.9444908274899
 31
0.0
  0
LINE
  5
2A7
330
E3
100
AcDbEntity
  8
0
  6
Continuous
100
AcDbLine
 10
152.7665644570774
 20
132.9444908274899
 30
0.0
 11
152.7358434909148
 21
132.9335161487129
 31
0.0
  0
LINE
  5
2A8
330
E3
100
AcDbEntity
  8
0
  6
Continuous
100
AcDbLine
 10
152.7358434909148
 20
132.9335161487129
 30
0.0
 11
152.7077729876316
 21
132.9230125880181
 31
0.0
  0
LINE
  5
2A9
330
E3
100
AcDbEntity
  8
0
  6
Continuous
100
AcDbLine
 10
152.7077729876316
 20
132.9230125880181
 30
0.0
 11
152.6825732542447
 21
132.9130106494539
 31
0.0
  0
LINE
  5
2AA
330
E3
100
AcDbEntity
  8
0
  6
Continuous
100
AcDbLine
 10
152.6825732542447
 20
132.9130106494539
 30
0.0
 11
152.6604408723999
 21
132.9035543944237
 31
0.0
  0
LINE
  5
2AB
330
E3
100
AcDbEntity
  8
0
  6
Continuous
100
AcDbLine
 10
152.6604408723999
 20
132.9035543944237
 30
0.0
 11
152.6415554770493
 21
132.8946675482986
 31
0.0
  0
LINE
  5
2AC
330
E3
100
AcDbEntity
  8
0
  6
Continuous
100
AcDbLine
 10
152.6415554770493
 20
132.8946675482986
 30
0.0
 11
152.6260661990966
 21
132.886380615127
 31
0.0
  0
LINE
  5
2AD
330
E3
100
AcDbEntity
  8
0
  6
Continuous
100
AcDbLine
 10
152.6260661990966
 20
132.886380615127
 30
0.0
 11
152.6140984440745
 21
132.8787139309412
 31
0.0
  0
LINE
  5
2AE
330
E3
100
AcDbEntity
  8
0
  6
Continuous
100
AcDbLine
 10
152.6140984440745
 20
132.8787139309412
 30
0.0
 11
152.6057538921447
 21
132.8716878317736
 31
0.0
  0
LINE
  5
2AF
330
E3
100
AcDbEntity
  8
0
  6
Continuous
100
AcDbLine
 10
152.6057538921447
 20
132.8716878317736
 30
0.0
 11
152.6010957780234
 21
132.8653107684236
 31
0.0
  0
LINE
  5
2B0
330
E3
100
AcDbEntity
  8
0
  6
Continuous
100
AcDbLine
 10
152.6010957780234
 20
132.8653107684236
 30
0.0
 11
152.6001721278606
 21
132.8595921186448
 31
0.0
  0
LINE
  5
2B1
330
E3
100
AcDbEntity
  8
0
  6
Continuous
100
AcDbLine
 10
153.6191833098073
 20
132.8392630116275
 30
0.0
 11
153.6182596596445
 21
132.8335443618487
 31
0.0
  0
LINE
  5
2B2
330
E3
100
AcDbEntity
  8
0
  6
Continuous
100
AcDbLine
 10
153.6182596596445
 20
132.8335443618487
 30
0.0
 11
153.613602778994
 21
132.8271674428096
 31
0.0
  0
LINE
  5
2B3
330
E3
100
AcDbEntity
  8
0
  6
Continuous
100
AcDbLine
 10
153.613602778994
 20
132.8271674428096
 30
0.0
 11
153.6052563234641
 21
132.8201393791736
 31
0.0
  0
LINE
  5
2B4
330
E3
100
AcDbEntity
  8
0
  6
Continuous
100
AcDbLine
 10
153.6052563234641
 20
132.8201393791736
 30
0.0
 11
153.5932885684421
 21
132.8124726949878
 31
0.0
  0
LINE
  5
2B5
330
E3
100
AcDbEntity
  8
0
  6
Continuous
100
AcDbLine
 10
153.5932885684421
 20
132.8124726949878
 30
0.0
 11
153.5777992904894
 21
132.8041857618162
 31
0.0
  0
LINE
  5
2B6
330
E3
100
AcDbEntity
  8
0
  6
Continuous
100
AcDbLine
 10
153.5777992904894
 20
132.8041857618162
 30
0.0
 11
153.5589138951388
 21
132.7953023050298
 31
0.0
  0
LINE
  5
2B7
330
E3
100
AcDbEntity
  8
0
  6
Continuous
100
AcDbLine
 10
153.5589138951388
 20
132.7953023050298
 30
0.0
 11
153.5367849026327
 21
132.7858426606609
 31
0.0
  0
LINE
  5
2B8
330
E3
100
AcDbEntity
  8
0
  6
Continuous
100
AcDbLine
 10
153.5367849026327
 20
132.7858426606609
 30
0.0
 11
153.511581779907
 21
132.7758441114354
 31
0.0
  0
LINE
  5
2B9
330
E3
100
AcDbEntity
  8
0
  6
Continuous
100
AcDbLine
 10
153.511581779907
 20
132.7758441114354
 30
0.0
 11
153.4835112766239
 21
132.7653371614019
 31
0.0
  0
LINE
  5
2BA
330
E3
100
AcDbEntity
  8
0
  6
Continuous
100
AcDbLine
 10
153.4835112766239
 20
132.7653371614019
 30
0.0
 11
153.4527903104613
 21
132.7543658719636
 31
0.0
  0
LINE
  5
2BB
330
E3
100
AcDbEntity
  8
0
  6
Continuous
100
AcDbLine
 10
153.4527903104613
 20
132.7543658719636
 30
0.0
 11
153.4196629138071
 21
132.7429675258466
 31
0.0
  0
LINE
  5
2BC
330
E3
100
AcDbEntity
  8
0
  6
Continuous
100
AcDbLine
 10
153.4196629138071
 20
132.7429675258466
 30
0.0
 11
153.3843832870656
 21
132.7311929631316
 31
0.0
  0
LINE
  5
2BD
330
E3
100
AcDbEntity
  8
0
  6
Continuous
100
AcDbLine
 10
153.3843832870656
 20
132.7311929631316
 30
0.0
 11
153.3472293560115
 21
132.719086245222
 31
0.0
  0
LINE
  5
2BE
330
E3
100
AcDbEntity
  8
0
  6
Continuous
100
AcDbLine
 10
153.3472293560115
 20
132.719086245222
 30
0.0
 11
153.3084926037749
 21
132.7066982121986
 31
0.0
  0
LINE
  5
2BF
330
E3
100
AcDbEntity
  8
0
  6
Continuous
100
AcDbLine
 10
153.3084926037749
 20
132.7066982121986
 30
0.0
 11
153.268474681502
 21
132.6940864828196
 31
0.0
  0
LINE
  5
2C0
330
E3
100
AcDbEntity
  8
0
  6
Continuous
100
AcDbLine
 10
153.268474681502
 20
132.6940864828196
 30
0.0
 11
153.2274874083551
 21
132.6813052865046
 31
0.0
  0
LINE
  5
2C1
330
E3
100
AcDbEntity
  8
0
  6
Continuous
100
AcDbLine
 10
153.2274874083551
 20
132.6813052865046
 30
0.0
 11
153.185845992835
 21
132.6684054633344
 31
0.0
  0
LINE
  5
2C2
330
E3
100
AcDbEntity
  8
0
  6
Continuous
100
AcDbLine
 10
153.185845992835
 20
132.6684054633344
 30
0.0
 11
153.1438825901366
 21
132.6554514107447
 31
0.0
  0
LINE
  5
2C3
330
E3
100
AcDbEntity
  8
0
  6
Continuous
100
AcDbLine
 10
153.1438825901366
 20
132.6554514107447
 30
0.0
 11
153.1019157980994
 21
132.6424939688162
 31
0.0
  0
LINE
  5
2C4
330
E3
100
AcDbEntity
  8
0
  6
Continuous
100
AcDbLine
 10
153.1019157980994
 20
132.6424939688162
 30
0.0
 11
153.0602777719181
 21
132.6295975349847
 31
0.0
  0
LINE
  5
2C5
330
E3
100
AcDbEntity
  8
0
  6
Continuous
100
AcDbLine
 10
153.0602777719181
 20
132.6295975349847
 30
0.0
 11
153.0192871094324
 21
132.616812949331
 31
0.0
  0
LINE
  5
2C6
330
E3
100
AcDbEntity
  8
0
  6
Continuous
100
AcDbLine
 10
153.0192871094324
 20
132.616812949331
 30
0.0
 11
152.9792691871595
 21
132.6042012199521
 31
0.0
  0
LINE
  5
2C7
330
E3
100
AcDbEntity
  8
0
  6
Continuous
100
AcDbLine
 10
152.9792691871595
 20
132.6042012199521
 30
0.0
 11
152.9405324349229
 21
132.5918165762674
 31
0.0
  0
LINE
  5
2C8
330
E3
100
AcDbEntity
  8
0
  6
Continuous
100
AcDbLine
 10
152.9405324349229
 20
132.5918165762674
 30
0.0
 11
152.9033785038689
 21
132.5797098583578
 31
0.0
  0
LINE
  5
2C9
330
E3
100
AcDbEntity
  8
0
  6
Continuous
100
AcDbLine
 10
152.9033785038689
 20
132.5797098583578
 30
0.0
 11
152.8680988771273
 21
132.567931906304
 31
0.0
  0
LINE
  5
2CA
330
E3
100
AcDbEntity
  8
0
  6
Continuous
100
AcDbLine
 10
152.8680988771273
 20
132.567931906304
 30
0.0
 11
152.8349714804731
 21
132.556533560187
 31
0.0
  0
LINE
  5
2CB
330
E3
100
AcDbEntity
  8
0
  6
Continuous
100
AcDbLine
 10
152.8349714804731
 20
132.556533560187
 30
0.0
 11
152.8042505143105
 21
132.5455622707488
 31
0.0
  0
LINE
  5
2CC
330
E3
100
AcDbEntity
  8
0
  6
Continuous
100
AcDbLine
 10
152.8042505143105
 20
132.5455622707488
 30
0.0
 11
152.7761800110274
 21
132.5350553207152
 31
0.0
  0
LINE
  5
2CD
330
E3
100
AcDbEntity
  8
0
  6
Continuous
100
AcDbLine
 10
152.7761800110274
 20
132.5350553207152
 30
0.0
 11
152.7509768883018
 21
132.5250567714897
 31
0.0
  0
LINE
  5
2CE
330
E3
100
AcDbEntity
  8
0
  6
Continuous
100
AcDbLine
 10
152.7509768883018
 20
132.5250567714897
 30
0.0
 11
152.7288478957957
 21
132.5156005164596
 31
0.0
  0
LINE
  5
2CF
330
E3
100
AcDbEntity
  8
0
  6
Continuous
100
AcDbLine
 10
152.7288478957957
 20
132.5156005164596
 30
0.0
 11
152.709962500445
 21
132.5067136703344
 31
0.0
  0
LINE
  5
2D0
330
E3
100
AcDbEntity
  8
0
  6
Continuous
100
AcDbLine
 10
152.709962500445
 20
132.5067136703344
 30
0.0
 11
152.6944732224923
 21
132.4984267371628
 31
0.0
  0
LINE
  5
2D1
330
E3
100
AcDbEntity
  8
0
  6
Continuous
100
AcDbLine
 10
152.6944732224923
 20
132.4984267371628
 30
0.0
 11
152.6825054674703
 21
132.4907600529771
 31
0.0
  0
LINE
  5
2D2
330
E3
100
AcDbEntity
  8
0
  6
Continuous
100
AcDbLine
 10
152.6825054674703
 20
132.4907600529771
 30
0.0
 11
152.6741609155405
 21
132.4837339538095
 31
0.0
  0
LINE
  5
2D3
330
E3
100
AcDbEntity
  8
0
  6
Continuous
100
AcDbLine
 10
152.6741609155405
 20
132.4837339538095
 30
0.0
 11
152.6695026358922
 21
132.4773561990552
 31
0.0
  0
LINE
  5
2D4
330
E3
100
AcDbEntity
  8
0
  6
Continuous
100
AcDbLine
 10
152.6695026358922
 20
132.4773561990552
 30
0.0
 11
152.6685789857295
 21
132.4716375492764
 31
0.0
  0
LINE
  5
2D5
330
E3
100
AcDbEntity
  8
0
  6
Continuous
100
AcDbLine
 10
153.6875901676761
 20
132.4513084422591
 30
0.0
 11
153.6866665175133
 21
132.4455897924802
 31
0.0
  0
LINE
  5
2D6
330
E3
100
AcDbEntity
  8
0
  6
Continuous
100
AcDbLine
 10
153.6866665175133
 20
132.4455897924802
 30
0.0
 11
153.6820096368628
 21
132.4392128734412
 31
0.0
  0
LINE
  5
2D7
330
E3
100
AcDbEntity
  8
0
  6
Continuous
100
AcDbLine
 10
153.6820096368628
 20
132.4392128734412
 30
0.0
 11
153.6736633468599
 21
132.4321855012094
 31
0.0
  0
LINE
  5
2D8
330
E3
100
AcDbEntity
  8
0
  6
Continuous
100
AcDbLine
 10
153.6736633468599
 20
132.4321855012094
 30
0.0
 11
153.6616955918378
 21
132.4245188170237
 31
0.0
  0
LINE
  5
2D9
330
E3
100
AcDbEntity
  8
0
  6
Continuous
100
AcDbLine
 10
153.6616955918378
 20
132.4245188170237
 30
0.0
 11
153.6462063138852
 21
132.416231883852
 31
0.0
  0
LINE
  5
2DA
330
E3
100
AcDbEntity
  8
0
  6
Continuous
100
AcDbLine
 10
153.6462063138852
 20
132.416231883852
 30
0.0
 11
153.6273209185345
 21
132.4073450377269
 31
0.0
  0
LINE
  5
2DB
330
E3
100
AcDbEntity
  8
0
  6
Continuous
100
AcDbLine
 10
153.6273209185345
 20
132.4073450377269
 30
0.0
 11
153.6051919260284
 21
132.3978887826967
 31
0.0
  0
LINE
  5
2DC
330
E3
100
AcDbEntity
  8
0
  6
Continuous
100
AcDbLine
 10
153.6051919260284
 20
132.3978887826967
 30
0.0
 11
153.5799888033028
 21
132.3878902334713
 31
0.0
  0
LINE
  5
2DD
330
E3
100
AcDbEntity
  8
0
  6
Continuous
100
AcDbLine
 10
153.5799888033028
 20
132.3878902334713
 30
0.0
 11
153.5519183000197
 21
132.3773832834377
 31
0.0
  0
LINE
  5
2DE
330
E3
100
AcDbEntity
  8
0
  6
Continuous
100
AcDbLine
 10
153.5519183000197
 20
132.3773832834377
 30
0.0
 11
153.5211973338571
 21
132.3664119939995
 31
0.0
  0
LINE
  5
2DF
330
E3
100
AcDbEntity
  8
0
  6
Continuous
100
AcDbLine
 10
153.5211973338571
 20
132.3664119939995
 30
0.0
 11
153.488069937203
 21
132.3550136478825
 31
0.0
  0
LINE
  5
2E0
330
E3
100
AcDbEntity
  8
0
  6
Continuous
100
AcDbLine
 10
153.488069937203
 20
132.3550136478825
 30
0.0
 11
153.4527903104613
 21
132.3432356958287
 31
0.0
  0
LINE
  5
2E1
330
E3
100
AcDbEntity
  8
0
  6
Continuous
100
AcDbLine
 10
153.4527903104613
 20
132.3432356958287
 30
0.0
 11
153.4156363794072
 21
132.3311289779191
 31
0.0
  0
LINE
  5
2E2
330
E3
100
AcDbEntity
  8
0
  6
Continuous
100
AcDbLine
 10
153.4156363794072
 20
132.3311289779191
 30
0.0
 11
153.3768996271707
 21
132.3187443342344
 31
0.0
  0
LINE
  5
2E3
330
E3
100
AcDbEntity
  8
0
  6
Continuous
100
AcDbLine
 10
153.3768996271707
 20
132.3187443342344
 30
0.0
 11
153.3368817048978
 21
132.3061326048555
 31
0.0
  0
LINE
  5
2E4
330
E3
100
AcDbEntity
  8
0
  6
Continuous
100
AcDbLine
 10
153.3368817048978
 20
132.3061326048555
 30
0.0
 11
153.2958944317508
 21
132.2933480192017
 31
0.0
  0
LINE
  5
2E5
330
E3
100
AcDbEntity
  8
0
  6
Continuous
100
AcDbLine
 10
153.2958944317508
 20
132.2933480192017
 30
0.0
 11
153.2542530162308
 21
132.2804515853703
 31
0.0
  0
LINE
  5
2E6
330
E3
100
AcDbEntity
  8
0
  6
Continuous
100
AcDbLine
 10
153.2542530162308
 20
132.2804515853703
 30
0.0
 11
153.2122896135323
 21
132.2674941434418
 31
0.0
  0
LINE
  5
2E7
330
E3
100
AcDbEntity
  8
0
  6
Continuous
100
AcDbLine
 10
153.2122896135323
 20
132.2674941434418
 30
0.0
 11
153.1703228214952
 21
132.2545400908521
 31
0.0
  0
LINE
  5
2E8
330
E3
100
AcDbEntity
  8
0
  6
Continuous
100
AcDbLine
 10
153.1703228214952
 20
132.2545400908521
 30
0.0
 11
153.1286847953139
 21
132.2416436570206
 31
0.0
  0
LINE
  5
2E9
330
E3
100
AcDbEntity
  8
0
  6
Continuous
100
AcDbLine
 10
153.1286847953139
 20
132.2416436570206
 30
0.0
 11
153.0876941328282
 21
132.2288590713669
 31
0.0
  0
LINE
  5
2EA
330
E3
100
AcDbEntity
  8
0
  6
Continuous
100
AcDbLine
 10
153.0876941328282
 20
132.2288590713669
 30
0.0
 11
153.0476762105553
 21
132.2162473419879
 31
0.0
  0
LINE
  5
2EB
330
E3
100
AcDbEntity
  8
0
  6
Continuous
100
AcDbLine
 10
153.0476762105553
 20
132.2162473419879
 30
0.0
 11
153.0089394583187
 21
132.2038593089645
 31
0.0
  0
LINE
  5
2EC
330
E3
100
AcDbEntity
  8
0
  6
Continuous
100
AcDbLine
 10
153.0089394583187
 20
132.2038593089645
 30
0.0
 11
152.9717855272646
 21
132.1917525910549
 31
0.0
  0
LINE
  5
2ED
330
E3
100
AcDbEntity
  8
0
  6
Continuous
100
AcDbLine
 10
152.9717855272646
 20
132.1917525910549
 30
0.0
 11
152.936505900523
 21
132.1799780283399
 31
0.0
  0
LINE
  5
2EE
330
E3
100
AcDbEntity
  8
0
  6
Continuous
100
AcDbLine
 10
152.936505900523
 20
132.1799780283399
 30
0.0
 11
152.9033785038689
 21
132.1685796822229
 31
0.0
  0
LINE
  5
2EF
330
E3
100
AcDbEntity
  8
0
  6
Continuous
100
AcDbLine
 10
152.9033785038689
 20
132.1685796822229
 30
0.0
 11
152.8726575377063
 21
132.1576083927846
 31
0.0
  0
LINE
  5
2F0
330
E3
100
AcDbEntity
  8
0
  6
Continuous
100
AcDbLine
 10
152.8726575377063
 20
132.1576083927846
 30
0.0
 11
152.8445870344232
 21
132.1471014427511
 31
0.0
  0
LINE
  5
2F1
330
E3
100
AcDbEntity
  8
0
  6
Continuous
100
AcDbLine
 10
152.8445870344232
 20
132.1471014427511
 30
0.0
 11
152.8193839116975
 21
132.1371028935256
 31
0.0
  0
LINE
  5
2F2
330
E3
100
AcDbEntity
  8
0
  6
Continuous
100
AcDbLine
 10
152.8193839116975
 20
132.1371028935256
 30
0.0
 11
152.7972549191914
 21
132.1276432491567
 31
0.0
  0
LINE
  5
2F3
330
E3
100
AcDbEntity
  8
0
  6
Continuous
100
AcDbLine
 10
152.7972549191914
 20
132.1276432491567
 30
0.0
 11
152.7783695238408
 21
132.1187597923703
 31
0.0
  0
LINE
  5
2F4
330
E3
100
AcDbEntity
  8
0
  6
Continuous
100
AcDbLine
 10
152.7783695238408
 20
132.1187597923703
 30
0.0
 11
152.7628802458882
 21
132.1104728591987
 31
0.0
  0
LINE
  5
2F5
330
E3
100
AcDbEntity
  8
0
  6
Continuous
100
AcDbLine
 10
152.7628802458882
 20
132.1104728591987
 30
0.0
 11
152.7509124908661
 21
132.1028061750129
 31
0.0
  0
LINE
  5
2F6
330
E3
100
AcDbEntity
  8
0
  6
Continuous
100
AcDbLine
 10
152.7509124908661
 20
132.1028061750129
 30
0.0
 11
152.7425679389362
 21
132.0957800758453
 31
0.0
  0
LINE
  5
2F7
330
E3
100
AcDbEntity
  8
0
  6
Continuous
100
AcDbLine
 10
152.7425679389362
 20
132.0957800758453
 30
0.0
 11
152.737909493761
 21
132.0894016296867
 31
0.0
  0
LINE
  5
2F8
330
E3
100
AcDbEntity
  8
0
  6
Continuous
100
AcDbLine
 10
152.737909493761
 20
132.0894016296867
 30
0.0
 11
152.7369858435982
 21
132.0836829799079
 31
0.0
  0
LINE
  5
2F9
330
E3
100
AcDbEntity
  8
0
  6
Continuous
100
AcDbLine
 10
153.7559970255448
 20
132.0633538728906
 30
0.0
 11
153.7550733753821
 21
132.0576352231118
 31
0.0
  0
LINE
  5
2FA
330
E3
100
AcDbEntity
  8
0
  6
Continuous
100
AcDbLine
 10
153.7550733753821
 20
132.0576352231118
 30
0.0
 11
153.7504164947316
 21
132.0512583040728
 31
0.0
  0
LINE
  5
2FB
330
E3
100
AcDbEntity
  8
0
  6
Continuous
100
AcDbLine
 10
153.7504164947316
 20
132.0512583040728
 30
0.0
 11
153.7420703702557
 21
132.0442316232453
 31
0.0
  0
LINE
  5
2FC
330
E3
100
AcDbEntity
  8
0
  6
Continuous
100
AcDbLine
 10
153.7420703702557
 20
132.0442316232453
 30
0.0
 11
153.7301026152336
 21
132.0365649390595
 31
0.0
  0
LINE
  5
2FD
330
E3
100
AcDbEntity
  8
0
  6
Continuous
100
AcDbLine
 10
153.7301026152336
 20
132.0365649390595
 30
0.0
 11
153.7146133372809
 21
132.0282780058879
 31
0.0
  0
LINE
  5
2FE
330
E3
100
AcDbEntity
  8
0
  6
Continuous
100
AcDbLine
 10
153.7146133372809
 20
132.0282780058879
 30
0.0
 11
153.6957279419303
 21
132.0193911597628
 31
0.0
  0
LINE
  5
2FF
330
E3
100
AcDbEntity
  8
0
  6
Continuous
100
AcDbLine
 10
153.6957279419303
 20
132.0193911597628
 30
0.0
 11
153.6735989494242
 21
132.0099349047326
 31
0.0
  0
LINE
  5
300
330
E3
100
AcDbEntity
  8
0
  6
Continuous
100
AcDbLine
 10
153.6735989494242
 20
132.0099349047326
 30
0.0
 11
153.6483958266986
 21
131.9999363555071
 31
0.0
  0
LINE
  5
301
330
E3
100
AcDbEntity
  8
0
  6
Continuous
100
AcDbLine
 10
153.6483958266986
 20
131.9999363555071
 30
0.0
 11
153.6203253234155
 21
131.9894294054736
 31
0.0
  0
LINE
  5
302
330
E3
100
AcDbEntity
  8
0
  6
Continuous
100
AcDbLine
 10
153.6203253234155
 20
131.9894294054736
 30
0.0
 11
153.5896043572529
 21
131.9784581160353
 31
0.0
  0
LINE
  5
303
330
E3
100
AcDbEntity
  8
0
  6
Continuous
100
AcDbLine
 10
153.5896043572529
 20
131.9784581160353
 30
0.0
 11
153.5564769605987
 21
131.9670597699183
 31
0.0
  0
LINE
  5
304
330
E3
100
AcDbEntity
  8
0
  6
Continuous
100
AcDbLine
 10
153.5564769605987
 20
131.9670597699183
 30
0.0
 11
153.5211973338571
 21
131.9552818178646
 31
0.0
  0
LINE
  5
305
330
E3
100
AcDbEntity
  8
0
  6
Continuous
100
AcDbLine
 10
153.5211973338571
 20
131.9552818178646
 30
0.0
 11
153.484043402803
 21
131.943175099955
 31
0.0
  0
LINE
  5
306
330
E3
100
AcDbEntity
  8
0
  6
Continuous
100
AcDbLine
 10
153.484043402803
 20
131.943175099955
 30
0.0
 11
153.4453066505664
 21
131.9307904562703
 31
0.0
  0
LINE
  5
307
330
E3
100
AcDbEntity
  8
0
  6
Continuous
100
AcDbLine
 10
153.4453066505664
 20
131.9307904562703
 30
0.0
 11
153.4052887282936
 21
131.9181787268913
 31
0.0
  0
LINE
  5
308
330
E3
100
AcDbEntity
  8
0
  6
Continuous
100
AcDbLine
 10
153.4052887282936
 20
131.9181787268913
 30
0.0
 11
153.3642980658079
 21
131.9053941412376
 31
0.0
  0
LINE
  5
309
330
E3
100
AcDbEntity
  8
0
  6
Continuous
100
AcDbLine
 10
153.3642980658079
 20
131.9053941412376
 30
0.0
 11
153.3226600396266
 21
131.8924977074061
 31
0.0
  0
LINE
  5
30A
330
E3
100
AcDbEntity
  8
0
  6
Continuous
100
AcDbLine
 10
153.3226600396266
 20
131.8924977074061
 30
0.0
 11
153.2806932475894
 21
131.8795402654777
 31
0.0
  0
LINE
  5
30B
330
E3
100
AcDbEntity
  8
0
  6
Continuous
100
AcDbLine
 10
153.2806932475894
 20
131.8795402654777
 30
0.0
 11
153.2387298448909
 21
131.8665862128879
 31
0.0
  0
LINE
  5
30C
330
E3
100
AcDbEntity
  8
0
  6
Continuous
100
AcDbLine
 10
153.2387298448909
 20
131.8665862128879
 30
0.0
 11
153.1970884293709
 21
131.8536863897177
 31
0.0
  0
LINE
  5
30D
330
E3
100
AcDbEntity
  8
0
  6
Continuous
100
AcDbLine
 10
153.1970884293709
 20
131.8536863897177
 30
0.0
 11
153.156101156224
 21
131.8409051934027
 31
0.0
  0
LINE
  5
30E
330
E3
100
AcDbEntity
  8
0
  6
Continuous
100
AcDbLine
 10
153.156101156224
 20
131.8409051934027
 30
0.0
 11
153.1160832339511
 21
131.8282934640237
 31
0.0
  0
LINE
  5
30F
330
E3
100
AcDbEntity
  8
0
  6
Continuous
100
AcDbLine
 10
153.1160832339511
 20
131.8282934640237
 30
0.0
 11
153.0773464817145
 21
131.8159054310003
 31
0.0
  0
LINE
  5
310
330
E3
100
AcDbEntity
  8
0
  6
Continuous
100
AcDbLine
 10
153.0773464817145
 20
131.8159054310003
 30
0.0
 11
153.0401925506604
 21
131.8037987130907
 31
0.0
  0
LINE
  5
311
330
E3
100
AcDbEntity
  8
0
  6
Continuous
100
AcDbLine
 10
153.0401925506604
 20
131.8037987130907
 30
0.0
 11
153.0049129239188
 21
131.7920241503757
 31
0.0
  0
LINE
  5
312
330
E3
100
AcDbEntity
  8
0
  6
Continuous
100
AcDbLine
 10
153.0049129239188
 20
131.7920241503757
 30
0.0
 11
152.9717855272646
 21
131.7806258042587
 31
0.0
  0
LINE
  5
313
330
E3
100
AcDbEntity
  8
0
  6
Continuous
100
AcDbLine
 10
152.9717855272646
 20
131.7806258042587
 30
0.0
 11
152.9410645611021
 21
131.7696545148204
 31
0.0
  0
LINE
  5
314
330
E3
100
AcDbEntity
  8
0
  6
Continuous
100
AcDbLine
 10
152.9410645611021
 20
131.7696545148204
 30
0.0
 11
152.9129940578189
 21
131.7591475647869
 31
0.0
  0
LINE
  5
315
330
E3
100
AcDbEntity
  8
0
  6
Continuous
100
AcDbLine
 10
152.9129940578189
 20
131.7591475647869
 30
0.0
 11
152.8877909350933
 21
131.7491490155614
 31
0.0
  0
LINE
  5
316
330
E3
100
AcDbEntity
  8
0
  6
Continuous
100
AcDbLine
 10
152.8877909350933
 20
131.7491490155614
 30
0.0
 11
152.8656619425872
 21
131.7396893711926
 31
0.0
  0
LINE
  5
317
330
E3
100
AcDbEntity
  8
0
  6
Continuous
100
AcDbLine
 10
152.8656619425872
 20
131.7396893711926
 30
0.0
 11
152.8467765472366
 21
131.7308059144061
 31
0.0
  0
LINE
  5
318
330
E3
100
AcDbEntity
  8
0
  6
Continuous
100
AcDbLine
 10
152.8467765472366
 20
131.7308059144061
 30
0.0
 11
152.8312872692839
 21
131.7225189812345
 31
0.0
  0
LINE
  5
319
330
E3
100
AcDbEntity
  8
0
  6
Continuous
100
AcDbLine
 10
152.8312872692839
 20
131.7225189812345
 30
0.0
 11
152.8193195142619
 21
131.7148522970487
 31
0.0
  0
LINE
  5
31A
330
E3
100
AcDbEntity
  8
0
  6
Continuous
100
AcDbLine
 10
152.8193195142619
 20
131.7148522970487
 30
0.0
 11
152.8109715729933
 21
131.7078228085424
 31
0.0
  0
LINE
  5
31B
330
E3
100
AcDbEntity
  8
0
  6
Continuous
100
AcDbLine
 10
152.8109715729933
 20
131.7078228085424
 30
0.0
 11
152.8063163516298
 21
131.7014470603183
 31
0.0
  0
LINE
  5
31C
330
E3
100
AcDbEntity
  8
0
  6
Continuous
100
AcDbLine
 10
152.8063163516298
 20
131.7014470603183
 30
0.0
 11
152.805392701467
 21
131.6957284105395
 31
0.0
  0
LINE
  5
31D
330
E3
100
AcDbEntity
  8
0
  6
Continuous
100
AcDbLine
 10
153.8244038834137
 20
131.6753993035222
 30
0.0
 11
153.8234802332509
 21
131.6696806537433
 31
0.0
  0
LINE
  5
31E
330
E3
100
AcDbEntity
  8
0
  6
Continuous
100
AcDbLine
 10
153.8234802332509
 20
131.6696806537433
 30
0.0
 11
153.8188233526004
 21
131.6633037347043
 31
0.0
  0
LINE
  5
31F
330
E3
100
AcDbEntity
  8
0
  6
Continuous
100
AcDbLine
 10
153.8188233526004
 20
131.6633037347043
 30
0.0
 11
153.8104773936514
 21
131.6562777452811
 31
0.0
  0
LINE
  5
320
330
E3
100
AcDbEntity
  8
0
  6
Continuous
100
AcDbLine
 10
153.8104773936514
 20
131.6562777452811
 30
0.0
 11
153.7985096386294
 21
131.6486110610954
 31
0.0
  0
LINE
  5
321
330
E3
100
AcDbEntity
  8
0
  6
Continuous
100
AcDbLine
 10
153.7985096386294
 20
131.6486110610954
 30
0.0
 11
153.7830203606767
 21
131.6403241279237
 31
0.0
  0
LINE
  5
322
330
E3
100
AcDbEntity
  8
0
  6
Continuous
100
AcDbLine
 10
153.7830203606767
 20
131.6403241279237
 30
0.0
 11
153.7641349653261
 21
131.6314372817986
 31
0.0
  0
LINE
  5
323
330
E3
100
AcDbEntity
  8
0
  6
Continuous
100
AcDbLine
 10
153.7641349653261
 20
131.6314372817986
 30
0.0
 11
153.74200597282
 21
131.6219810267684
 31
0.0
  0
LINE
  5
324
330
E3
100
AcDbEntity
  8
0
  6
Continuous
100
AcDbLine
 10
153.74200597282
 20
131.6219810267684
 30
0.0
 11
153.7168028500944
 21
131.6119790882042
 31
0.0
  0
LINE
  5
325
330
E3
100
AcDbEntity
  8
0
  6
Continuous
100
AcDbLine
 10
153.7168028500944
 20
131.6119790882042
 30
0.0
 11
153.6887323468112
 21
131.6014755275094
 31
0.0
  0
LINE
  5
326
330
E3
100
AcDbEntity
  8
0
  6
Continuous
100
AcDbLine
 10
153.6887323468112
 20
131.6014755275094
 30
0.0
 11
153.6580113806486
 21
131.5905008487325
 31
0.0
  0
LINE
  5
327
330
E3
100
AcDbEntity
  8
0
  6
Continuous
100
AcDbLine
 10
153.6580113806486
 20
131.5905008487325
 30
0.0
 11
153.6248839839945
 21
131.5791058919542
 31
0.0
  0
LINE
  5
328
330
E3
100
AcDbEntity
  8
0
  6
Continuous
100
AcDbLine
 10
153.6248839839945
 20
131.5791058919542
 30
0.0
 11
153.5896043572529
 21
131.5673279399004
 31
0.0
  0
LINE
  5
329
330
E3
100
AcDbEntity
  8
0
  6
Continuous
100
AcDbLine
 10
153.5896043572529
 20
131.5673279399004
 30
0.0
 11
153.5524504261988
 21
131.5552212219908
 31
0.0
  0
LINE
  5
32A
330
E3
100
AcDbEntity
  8
0
  6
Continuous
100
AcDbLine
 10
153.5524504261988
 20
131.5552212219908
 30
0.0
 11
153.5137136739622
 21
131.5428365783061
 31
0.0
  0
LINE
  5
32B
330
E3
100
AcDbEntity
  8
0
  6
Continuous
100
AcDbLine
 10
153.5137136739622
 20
131.5428365783061
 30
0.0
 11
153.4736957516893
 21
131.5302214595884
 31
0.0
  0
LINE
  5
32C
330
E3
100
AcDbEntity
  8
0
  6
Continuous
100
AcDbLine
 10
153.4736957516893
 20
131.5302214595884
 30
0.0
 11
153.4327050892036
 21
131.5174402632734
 31
0.0
  0
LINE
  5
32D
330
E3
100
AcDbEntity
  8
0
  6
Continuous
100
AcDbLine
 10
153.4327050892036
 20
131.5174402632734
 30
0.0
 11
153.3910670630223
 21
131.5045404401032
 31
0.0
  0
LINE
  5
32E
330
E3
100
AcDbEntity
  8
0
  6
Continuous
100
AcDbLine
 10
153.3910670630223
 20
131.5045404401032
 30
0.0
 11
153.3491002709852
 21
131.4915863875135
 31
0.0
  0
LINE
  5
32F
330
E3
100
AcDbEntity
  8
0
  6
Continuous
100
AcDbLine
 10
153.3491002709852
 20
131.4915863875135
 30
0.0
 11
153.3071368682867
 21
131.4786323349238
 31
0.0
  0
LINE
  5
330
330
E3
100
AcDbEntity
  8
0
  6
Continuous
100
AcDbLine
 10
153.3071368682867
 20
131.4786323349238
 30
0.0
 11
153.2654954527667
 21
131.4657325117536
 31
0.0
  0
LINE
  5
331
330
E3
100
AcDbEntity
  8
0
  6
Continuous
100
AcDbLine
 10
153.2654954527667
 20
131.4657325117536
 30
0.0
 11
153.2245081796197
 21
131.4529513154386
 31
0.0
  0
LINE
  5
332
330
E3
100
AcDbEntity
  8
0
  6
Continuous
100
AcDbLine
 10
153.2245081796197
 20
131.4529513154386
 30
0.0
 11
153.1844902573469
 21
131.4403395860596
 31
0.0
  0
LINE
  5
333
330
E3
100
AcDbEntity
  8
0
  6
Continuous
100
AcDbLine
 10
153.1844902573469
 20
131.4403395860596
 30
0.0
 11
153.1457535051103
 21
131.4279515530362
 31
0.0
  0
LINE
  5
334
330
E3
100
AcDbEntity
  8
0
  6
Continuous
100
AcDbLine
 10
153.1457535051103
 20
131.4279515530362
 30
0.0
 11
153.1085995740562
 21
131.4158448351266
 31
0.0
  0
LINE
  5
335
330
E3
100
AcDbEntity
  8
0
  6
Continuous
100
AcDbLine
 10
153.1085995740562
 20
131.4158448351266
 30
0.0
 11
153.0733199473146
 21
131.4040668830729
 31
0.0
  0
LINE
  5
336
330
E3
100
AcDbEntity
  8
0
  6
Continuous
100
AcDbLine
 10
153.0733199473146
 20
131.4040668830729
 30
0.0
 11
153.0401925506604
 21
131.3926719262946
 31
0.0
  0
LINE
  5
337
330
E3
100
AcDbEntity
  8
0
  6
Continuous
100
AcDbLine
 10
153.0401925506604
 20
131.3926719262946
 30
0.0
 11
153.0094715844978
 21
131.3816972475176
 31
0.0
  0
LINE
  5
338
330
E3
100
AcDbEntity
  8
0
  6
Continuous
100
AcDbLine
 10
153.0094715844978
 20
131.3816972475176
 30
0.0
 11
152.9814010812147
 21
131.3711936868227
 31
0.0
  0
LINE
  5
339
330
E3
100
AcDbEntity
  8
0
  6
Continuous
100
AcDbLine
 10
152.9814010812147
 20
131.3711936868227
 30
0.0
 11
152.9561979584891
 21
131.3611951375973
 31
0.0
  0
LINE
  5
33A
330
E3
100
AcDbEntity
  8
0
  6
Continuous
100
AcDbLine
 10
152.9561979584891
 20
131.3611951375973
 30
0.0
 11
152.934068965983
 21
131.3517354932284
 31
0.0
  0
LINE
  5
33B
330
E3
100
AcDbEntity
  8
0
  6
Continuous
100
AcDbLine
 10
152.934068965983
 20
131.3517354932284
 30
0.0
 11
152.9151835706324
 21
131.3428486471032
 31
0.0
  0
LINE
  5
33C
330
E3
100
AcDbEntity
  8
0
  6
Continuous
100
AcDbLine
 10
152.9151835706324
 20
131.3428486471032
 30
0.0
 11
152.8996942926797
 21
131.3345617139316
 31
0.0
  0
LINE
  5
33D
330
E3
100
AcDbEntity
  8
0
  6
Continuous
100
AcDbLine
 10
152.8996942926797
 20
131.3345617139316
 30
0.0
 11
152.8877265376576
 21
131.3268984190846
 31
0.0
  0
LINE
  5
33E
330
E3
100
AcDbEntity
  8
0
  6
Continuous
100
AcDbLine
 10
152.8877265376576
 20
131.3268984190846
 30
0.0
 11
152.879378596389
 21
131.3198689305783
 31
0.0
  0
LINE
  5
33F
330
E3
100
AcDbEntity
  8
0
  6
Continuous
100
AcDbLine
 10
152.879378596389
 20
131.3198689305783
 30
0.0
 11
152.8747232094985
 21
131.3134924909498
 31
0.0
  0
LINE
  5
340
330
E3
100
AcDbEntity
  8
0
  6
Continuous
100
AcDbLine
 10
152.8747232094985
 20
131.3134924909498
 30
0.0
 11
152.8737995593358
 21
131.307773841171
 31
0.0
  0
LINE
  5
341
330
E3
100
AcDbEntity
  8
0
  6
Continuous
100
AcDbLine
 10
153.8928107412824
 20
131.2874447341537
 30
0.0
 11
153.8918870911197
 21
131.2817260843749
 31
0.0
  0
LINE
  5
342
330
E3
100
AcDbEntity
  8
0
  6
Continuous
100
AcDbLine
 10
153.8918870911197
 20
131.2817260843749
 30
0.0
 11
153.8872302104692
 21
131.2753491653359
 31
0.0
  0
LINE
  5
343
330
E3
100
AcDbEntity
  8
0
  6
Continuous
100
AcDbLine
 10
153.8872302104692
 20
131.2753491653359
 30
0.0
 11
153.8788844170472
 21
131.2683204779782
 31
0.0
  0
LINE
  5
344
330
E3
100
AcDbEntity
  8
0
  6
Continuous
100
AcDbLine
 10
153.8788844170472
 20
131.2683204779782
 30
0.0
 11
153.8669166620251
 21
131.2606571831312
 31
0.0
  0
LINE
  5
345
330
E3
100
AcDbEntity
  8
0
  6
Continuous
100
AcDbLine
 10
153.8669166620251
 20
131.2606571831312
 30
0.0
 11
153.8514273840725
 21
131.2523702499596
 31
0.0
  0
LINE
  5
346
330
E3
100
AcDbEntity
  8
0
  6
Continuous
100
AcDbLine
 10
153.8514273840725
 20
131.2523702499596
 30
0.0
 11
153.8325419887219
 21
131.2434834038345
 31
0.0
  0
LINE
  5
347
330
E3
100
AcDbEntity
  8
0
  6
Continuous
100
AcDbLine
 10
153.8325419887219
 20
131.2434834038345
 30
0.0
 11
153.810409606877
 21
131.2340237594655
 31
0.0
  0
LINE
  5
348
330
E3
100
AcDbEntity
  8
0
  6
Continuous
100
AcDbLine
 10
153.810409606877
 20
131.2340237594655
 30
0.0
 11
153.7852098734901
 21
131.2240252102401
 31
0.0
  0
LINE
  5
349
330
E3
100
AcDbEntity
  8
0
  6
Continuous
100
AcDbLine
 10
153.7852098734901
 20
131.2240252102401
 30
0.0
 11
153.757139370207
 21
131.2135216495453
 31
0.0
  0
LINE
  5
34A
330
E3
100
AcDbEntity
  8
0
  6
Continuous
100
AcDbLine
 10
153.757139370207
 20
131.2135216495453
 30
0.0
 11
153.7264184040444
 21
131.2025469707683
 31
0.0
  0
LINE
  5
34B
330
E3
100
AcDbEntity
  8
0
  6
Continuous
100
AcDbLine
 10
153.7264184040444
 20
131.2025469707683
 30
0.0
 11
153.6932876180516
 21
131.1911486246513
 31
0.0
  0
LINE
  5
34C
330
E3
100
AcDbEntity
  8
0
  6
Continuous
100
AcDbLine
 10
153.6932876180516
 20
131.1911486246513
 30
0.0
 11
153.6580113806486
 21
131.1793740619363
 31
0.0
  0
LINE
  5
34D
330
E3
100
AcDbEntity
  8
0
  6
Continuous
100
AcDbLine
 10
153.6580113806486
 20
131.1793740619363
 30
0.0
 11
153.6208574495946
 21
131.1672673440267
 31
0.0
  0
LINE
  5
34E
330
E3
100
AcDbEntity
  8
0
  6
Continuous
100
AcDbLine
 10
153.6208574495946
 20
131.1672673440267
 30
0.0
 11
153.582120697358
 21
131.1548793110032
 31
0.0
  0
LINE
  5
34F
330
E3
100
AcDbEntity
  8
0
  6
Continuous
100
AcDbLine
 10
153.582120697358
 20
131.1548793110032
 30
0.0
 11
153.5421027750851
 21
131.1422675816243
 31
0.0
  0
LINE
  5
350
330
E3
100
AcDbEntity
  8
0
  6
Continuous
100
AcDbLine
 10
153.5421027750851
 20
131.1422675816243
 30
0.0
 11
153.5011121125994
 21
131.1294863853093
 31
0.0
  0
LINE
  5
351
330
E3
100
AcDbEntity
  8
0
  6
Continuous
100
AcDbLine
 10
153.5011121125994
 20
131.1294863853093
 30
0.0
 11
153.4594740864181
 21
131.1165865621391
 31
0.0
  0
LINE
  5
352
330
E3
100
AcDbEntity
  8
0
  6
Continuous
100
AcDbLine
 10
153.4594740864181
 20
131.1165865621391
 30
0.0
 11
153.417507294381
 21
131.1036325095494
 31
0.0
  0
LINE
  5
353
330
E3
100
AcDbEntity
  8
0
  6
Continuous
100
AcDbLine
 10
153.417507294381
 20
131.1036325095494
 30
0.0
 11
153.3755438916825
 21
131.0906750676209
 31
0.0
  0
LINE
  5
354
330
E3
100
AcDbEntity
  8
0
  6
Continuous
100
AcDbLine
 10
153.3755438916825
 20
131.0906750676209
 30
0.0
 11
153.3339024761625
 21
131.0777786337894
 31
0.0
  0
LINE
  5
355
330
E3
100
AcDbEntity
  8
0
  6
Continuous
100
AcDbLine
 10
153.3339024761625
 20
131.0777786337894
 30
0.0
 11
153.2929152030155
 21
131.0649940481357
 31
0.0
  0
LINE
  5
356
330
E3
100
AcDbEntity
  8
0
  6
Continuous
100
AcDbLine
 10
153.2929152030155
 20
131.0649940481357
 30
0.0
 11
153.2528972807426
 21
131.0523823187567
 31
0.0
  0
LINE
  5
357
330
E3
100
AcDbEntity
  8
0
  6
Continuous
100
AcDbLine
 10
153.2528972807426
 20
131.0523823187567
 30
0.0
 11
153.2141605285061
 21
131.039997675072
 31
0.0
  0
LINE
  5
358
330
E3
100
AcDbEntity
  8
0
  6
Continuous
100
AcDbLine
 10
153.2141605285061
 20
131.039997675072
 30
0.0
 11
153.177006597452
 21
131.0278909571624
 31
0.0
  0
LINE
  5
359
330
E3
100
AcDbEntity
  8
0
  6
Continuous
100
AcDbLine
 10
153.177006597452
 20
131.0278909571624
 30
0.0
 11
153.1417269707103
 21
131.0161130051087
 31
0.0
  0
LINE
  5
35A
330
E3
100
AcDbEntity
  8
0
  6
Continuous
100
AcDbLine
 10
153.1417269707103
 20
131.0161130051087
 30
0.0
 11
153.1085995740562
 21
131.0047180483304
 31
0.0
  0
LINE
  5
35B
330
E3
100
AcDbEntity
  8
0
  6
Continuous
100
AcDbLine
 10
153.1085995740562
 20
131.0047180483304
 30
0.0
 11
153.0778786078936
 21
130.9937433695534
 31
0.0
  0
LINE
  5
35C
330
E3
100
AcDbEntity
  8
0
  6
Continuous
100
AcDbLine
 10
153.0778786078936
 20
130.9937433695534
 30
0.0
 11
153.0498047152717
 21
130.9832398088586
 31
0.0
  0
LINE
  5
35D
330
E3
100
AcDbEntity
  8
0
  6
Continuous
100
AcDbLine
 10
153.0498047152717
 20
130.9832398088586
 30
0.0
 11
153.0246049818849
 21
130.9732378702944
 31
0.0
  0
LINE
  5
35E
330
E3
100
AcDbEntity
  8
0
  6
Continuous
100
AcDbLine
 10
153.0246049818849
 20
130.9732378702944
 30
0.0
 11
153.0024759893788
 21
130.9637816152642
 31
0.0
  0
LINE
  5
35F
330
E3
100
AcDbEntity
  8
0
  6
Continuous
100
AcDbLine
 10
153.0024759893788
 20
130.9637816152642
 30
0.0
 11
152.9835905940282
 21
130.9548947691391
 31
0.0
  0
LINE
  5
360
330
E3
100
AcDbEntity
  8
0
  6
Continuous
100
AcDbLine
 10
152.9835905940282
 20
130.9548947691391
 30
0.0
 11
152.9681013160755
 21
130.9466078359675
 31
0.0
  0
LINE
  5
361
330
E3
100
AcDbEntity
  8
0
  6
Continuous
100
AcDbLine
 10
152.9681013160755
 20
130.9466078359675
 30
0.0
 11
152.9561335610534
 21
130.9389411517817
 31
0.0
  0
LINE
  5
362
330
E3
100
AcDbEntity
  8
0
  6
Continuous
100
AcDbLine
 10
152.9561335610534
 20
130.9389411517817
 30
0.0
 11
152.9477856197848
 21
130.9319150526141
 31
0.0
  0
LINE
  5
363
330
E3
100
AcDbEntity
  8
0
  6
Continuous
100
AcDbLine
 10
152.9477856197848
 20
130.9319150526141
 30
0.0
 11
152.9431300673673
 21
130.9255379215814
 31
0.0
  0
LINE
  5
364
330
E3
100
AcDbEntity
  8
0
  6
Continuous
100
AcDbLine
 10
152.9431300673673
 20
130.9255379215814
 30
0.0
 11
152.9422064172046
 21
130.9198192718026
 31
0.0
  0
LINE
  5
365
330
E3
100
AcDbEntity
  8
0
  6
Continuous
100
AcDbLine
 10
153.9612175991512
 20
130.8994901647853
 30
0.0
 11
153.9602939489885
 21
130.8937715150065
 31
0.0
  0
LINE
  5
366
330
E3
100
AcDbEntity
  8
0
  6
Continuous
100
AcDbLine
 10
153.9602939489885
 20
130.8937715150065
 30
0.0
 11
153.9556370683379
 21
130.8873945959674
 31
0.0
  0
LINE
  5
367
330
E3
100
AcDbEntity
  8
0
  6
Continuous
100
AcDbLine
 10
153.9556370683379
 20
130.8873945959674
 30
0.0
 11
153.9472880511043
 21
130.8803666000141
 31
0.0
  0
LINE
  5
368
330
E3
100
AcDbEntity
  8
0
  6
Continuous
100
AcDbLine
 10
153.9472880511043
 20
130.8803666000141
 30
0.0
 11
153.9353236854209
 21
130.8726999158283
 31
0.0
  0
LINE
  5
369
330
E3
100
AcDbEntity
  8
0
  6
Continuous
100
AcDbLine
 10
153.9353236854209
 20
130.8726999158283
 30
0.0
 11
153.9198344074683
 21
130.8644129826567
 31
0.0
  0
LINE
  5
36A
330
E3
100
AcDbEntity
  8
0
  6
Continuous
100
AcDbLine
 10
153.9198344074683
 20
130.8644129826567
 30
0.0
 11
153.9009490121176
 21
130.8555295258703
 31
0.0
  0
LINE
  5
36B
330
E3
100
AcDbEntity
  8
0
  6
Continuous
100
AcDbLine
 10
153.9009490121176
 20
130.8555295258703
 30
0.0
 11
153.8788166302728
 21
130.8460698815014
 31
0.0
  0
LINE
  5
36C
330
E3
100
AcDbEntity
  8
0
  6
Continuous
100
AcDbLine
 10
153.8788166302728
 20
130.8460698815014
 30
0.0
 11
153.8536168968859
 21
130.8360713322759
 31
0.0
  0
LINE
  5
36D
330
E3
100
AcDbEntity
  8
0
  6
Continuous
100
AcDbLine
 10
153.8536168968859
 20
130.8360713322759
 30
0.0
 11
153.8255463936027
 21
130.8255643822424
 31
0.0
  0
LINE
  5
36E
330
E3
100
AcDbEntity
  8
0
  6
Continuous
100
AcDbLine
 10
153.8255463936027
 20
130.8255643822424
 30
0.0
 11
153.7948254274402
 21
130.8145930928042
 31
0.0
  0
LINE
  5
36F
330
E3
100
AcDbEntity
  8
0
  6
Continuous
100
AcDbLine
 10
153.7948254274402
 20
130.8145930928042
 30
0.0
 11
153.7616946414473
 21
130.8031947466871
 31
0.0
  0
LINE
  5
370
330
E3
100
AcDbEntity
  8
0
  6
Continuous
100
AcDbLine
 10
153.7616946414473
 20
130.8031947466871
 30
0.0
 11
153.7264184040444
 21
130.7914201839721
 31
0.0
  0
LINE
  5
371
330
E3
100
AcDbEntity
  8
0
  6
Continuous
100
AcDbLine
 10
153.7264184040444
 20
130.7914201839721
 30
0.0
 11
153.6892644729903
 21
130.7793134660625
 31
0.0
  0
LINE
  5
372
330
E3
100
AcDbEntity
  8
0
  6
Continuous
100
AcDbLine
 10
153.6892644729903
 20
130.7793134660625
 30
0.0
 11
153.6505277207538
 21
130.7669254330391
 31
0.0
  0
LINE
  5
373
330
E3
100
AcDbEntity
  8
0
  6
Continuous
100
AcDbLine
 10
153.6505277207538
 20
130.7669254330391
 30
0.0
 11
153.6105097984809
 21
130.7543137036601
 31
0.0
  0
LINE
  5
374
330
E3
100
AcDbEntity
  8
0
  6
Continuous
100
AcDbLine
 10
153.6105097984809
 20
130.7543137036601
 30
0.0
 11
153.5695191359952
 21
130.7415291180064
 31
0.0
  0
LINE
  5
375
330
E3
100
AcDbEntity
  8
0
  6
Continuous
100
AcDbLine
 10
153.5695191359952
 20
130.7415291180064
 30
0.0
 11
153.5278811098139
 21
130.7286326841749
 31
0.0
  0
LINE
  5
376
330
E3
100
AcDbEntity
  8
0
  6
Continuous
100
AcDbLine
 10
153.5278811098139
 20
130.7286326841749
 30
0.0
 11
153.4859143177767
 21
130.7156786315852
 31
0.0
  0
LINE
  5
377
330
E3
100
AcDbEntity
  8
0
  6
Continuous
100
AcDbLine
 10
153.4859143177767
 20
130.7156786315852
 30
0.0
 11
153.4439509150782
 21
130.7027211896567
 31
0.0
  0
LINE
  5
378
330
E3
100
AcDbEntity
  8
0
  6
Continuous
100
AcDbLine
 10
153.4439509150782
 20
130.7027211896567
 30
0.0
 11
153.4023094995582
 21
130.6898247558252
 31
0.0
  0
LINE
  5
379
330
E3
100
AcDbEntity
  8
0
  6
Continuous
100
AcDbLine
 10
153.4023094995582
 20
130.6898247558252
 30
0.0
 11
153.3613222264113
 21
130.6770401701716
 31
0.0
  0
LINE
  5
37A
330
E3
100
AcDbEntity
  8
0
  6
Continuous
100
AcDbLine
 10
153.3613222264113
 20
130.6770401701716
 30
0.0
 11
153.3213043041384
 21
130.6644284407926
 31
0.0
  0
LINE
  5
37B
330
E3
100
AcDbEntity
  8
0
  6
Continuous
100
AcDbLine
 10
153.3213043041384
 20
130.6644284407926
 30
0.0
 11
153.2825675519018
 21
130.6520437971079
 31
0.0
  0
LINE
  5
37C
330
E3
100
AcDbEntity
  8
0
  6
Continuous
100
AcDbLine
 10
153.2825675519018
 20
130.6520437971079
 30
0.0
 11
153.2454136208478
 21
130.6399370791983
 31
0.0
  0
LINE
  5
37D
330
E3
100
AcDbEntity
  8
0
  6
Continuous
100
AcDbLine
 10
153.2454136208478
 20
130.6399370791983
 30
0.0
 11
153.2101339941061
 21
130.6281591271445
 31
0.0
  0
LINE
  5
37E
330
E3
100
AcDbEntity
  8
0
  6
Continuous
100
AcDbLine
 10
153.2101339941061
 20
130.6281591271445
 30
0.0
 11
153.177006597452
 21
130.6167607810275
 31
0.0
  0
LINE
  5
37F
330
E3
100
AcDbEntity
  8
0
  6
Continuous
100
AcDbLine
 10
153.177006597452
 20
130.6167607810275
 30
0.0
 11
153.1462856312894
 21
130.6057894915893
 31
0.0
  0
LINE
  5
380
330
E3
100
AcDbEntity
  8
0
  6
Continuous
100
AcDbLine
 10
153.1462856312894
 20
130.6057894915893
 30
0.0
 11
153.1182117386676
 21
130.5952825415557
 31
0.0
  0
LINE
  5
381
330
E3
100
AcDbEntity
  8
0
  6
Continuous
100
AcDbLine
 10
153.1182117386676
 20
130.5952825415557
 30
0.0
 11
153.0930120052806
 21
130.5852839923303
 31
0.0
  0
LINE
  5
382
330
E3
100
AcDbEntity
  8
0
  6
Continuous
100
AcDbLine
 10
153.0930120052806
 20
130.5852839923303
 30
0.0
 11
153.0708830127745
 21
130.5758277373001
 31
0.0
  0
LINE
  5
383
330
E3
100
AcDbEntity
  8
0
  6
Continuous
100
AcDbLine
 10
153.0708830127745
 20
130.5758277373001
 30
0.0
 11
153.0519976174239
 21
130.5669408911749
 31
0.0
  0
LINE
  5
384
330
E3
100
AcDbEntity
  8
0
  6
Continuous
100
AcDbLine
 10
153.0519976174239
 20
130.5669408911749
 30
0.0
 11
153.0365083394713
 21
130.5586539580033
 31
0.0
  0
LINE
  5
385
330
E3
100
AcDbEntity
  8
0
  6
Continuous
100
AcDbLine
 10
153.0365083394713
 20
130.5586539580033
 30
0.0
 11
153.0245405844492
 21
130.5509872738176
 31
0.0
  0
LINE
  5
386
330
E3
100
AcDbEntity
  8
0
  6
Continuous
100
AcDbLine
 10
153.0245405844492
 20
130.5509872738176
 30
0.0
 11
153.0161926431806
 21
130.54396117465
 31
0.0
  0
LINE
  5
387
330
E3
100
AcDbEntity
  8
0
  6
Continuous
100
AcDbLine
 10
153.0161926431806
 20
130.54396117465
 30
0.0
 11
153.0115369252361
 21
130.5375833522129
 31
0.0
  0
LINE
  5
388
330
E3
100
AcDbEntity
  8
0
  6
Continuous
100
AcDbLine
 10
153.0115369252361
 20
130.5375833522129
 30
0.0
 11
153.0106132750734
 21
130.5318647024341
 31
0.0
  0
LINE
  5
389
330
E3
100
AcDbEntity
  8
0
  6
Continuous
100
AcDbLine
 10
154.02962445702
 20
130.5115355954168
 30
0.0
 11
154.0287008068573
 21
130.505816945638
 31
0.0
  0
LINE
  5
38A
330
E3
100
AcDbEntity
  8
0
  6
Continuous
100
AcDbLine
 10
154.0287008068573
 20
130.505816945638
 30
0.0
 11
154.0240439262068
 21
130.499440026599
 31
0.0
  0
LINE
  5
38B
330
E3
100
AcDbEntity
  8
0
  6
Continuous
100
AcDbLine
 10
154.0240439262068
 20
130.499440026599
 30
0.0
 11
154.0156950745
 21
130.4924127220499
 31
0.0
  0
LINE
  5
38C
330
E3
100
AcDbEntity
  8
0
  6
Continuous
100
AcDbLine
 10
154.0156950745
 20
130.4924127220499
 30
0.0
 11
154.0037307088167
 21
130.4847460378642
 31
0.0
  0
LINE
  5
38D
330
E3
100
AcDbEntity
  8
0
  6
Continuous
100
AcDbLine
 10
154.0037307088167
 20
130.4847460378642
 30
0.0
 11
153.988241430864
 21
130.4764591046926
 31
0.0
  0
LINE
  5
38E
330
E3
100
AcDbEntity
  8
0
  6
Continuous
100
AcDbLine
 10
153.988241430864
 20
130.4764591046926
 30
0.0
 11
153.9693560355134
 21
130.4675722585674
 31
0.0
  0
LINE
  5
38F
330
E3
100
AcDbEntity
  8
0
  6
Continuous
100
AcDbLine
 10
153.9693560355134
 20
130.4675722585674
 30
0.0
 11
153.9472236536686
 21
130.4581160035372
 31
0.0
  0
LINE
  5
390
330
E3
100
AcDbEntity
  8
0
  6
Continuous
100
AcDbLine
 10
153.9472236536686
 20
130.4581160035372
 30
0.0
 11
153.9220239202817
 21
130.4481174543118
 31
0.0
  0
LINE
  5
391
330
E3
100
AcDbEntity
  8
0
  6
Continuous
100
AcDbLine
 10
153.9220239202817
 20
130.4481174543118
 30
0.0
 11
153.8939534169986
 21
130.4376105042782
 31
0.0
  0
LINE
  5
392
330
E3
100
AcDbEntity
  8
0
  6
Continuous
100
AcDbLine
 10
153.8939534169986
 20
130.4376105042782
 30
0.0
 11
153.8632324508359
 21
130.42663921484
 31
0.0
  0
LINE
  5
393
330
E3
100
AcDbEntity
  8
0
  6
Continuous
100
AcDbLine
 10
153.8632324508359
 20
130.42663921484
 30
0.0
 11
153.8301016648431
 21
130.415240868723
 31
0.0
  0
LINE
  5
394
330
E3
100
AcDbEntity
  8
0
  6
Continuous
100
AcDbLine
 10
153.8301016648431
 20
130.415240868723
 30
0.0
 11
153.7948220381015
 21
130.4034629166692
 31
0.0
  0
LINE
  5
395
330
E3
100
AcDbEntity
  8
0
  6
Continuous
100
AcDbLine
 10
153.7948220381015
 20
130.4034629166692
 30
0.0
 11
153.7576714963861
 21
130.3913561987596
 31
0.0
  0
LINE
  5
396
330
E3
100
AcDbEntity
  8
0
  6
Continuous
100
AcDbLine
 10
153.7576714963861
 20
130.3913561987596
 30
0.0
 11
153.7189347441495
 21
130.3789715550749
 31
0.0
  0
LINE
  5
397
330
E3
100
AcDbEntity
  8
0
  6
Continuous
100
AcDbLine
 10
153.7189347441495
 20
130.3789715550749
 30
0.0
 11
153.6789168218767
 21
130.366359825696
 31
0.0
  0
LINE
  5
398
330
E3
100
AcDbEntity
  8
0
  6
Continuous
100
AcDbLine
 10
153.6789168218767
 20
130.366359825696
 30
0.0
 11
153.637926159391
 21
130.3535752400423
 31
0.0
  0
LINE
  5
399
330
E3
100
AcDbEntity
  8
0
  6
Continuous
100
AcDbLine
 10
153.637926159391
 20
130.3535752400423
 30
0.0
 11
153.5962881332097
 21
130.3406788062108
 31
0.0
  0
LINE
  5
39A
330
E3
100
AcDbEntity
  8
0
  6
Continuous
100
AcDbLine
 10
153.5962881332097
 20
130.3406788062108
 30
0.0
 11
153.5543213411725
 21
130.3277213642823
 31
0.0
  0
LINE
  5
39B
330
E3
100
AcDbEntity
  8
0
  6
Continuous
100
AcDbLine
 10
153.5543213411725
 20
130.3277213642823
 30
0.0
 11
153.512357938474
 21
130.3147673116926
 31
0.0
  0
LINE
  5
39C
330
E3
100
AcDbEntity
  8
0
  6
Continuous
100
AcDbLine
 10
153.512357938474
 20
130.3147673116926
 30
0.0
 11
153.470716522954
 21
130.3018708778611
 31
0.0
  0
LINE
  5
39D
330
E3
100
AcDbEntity
  8
0
  6
Continuous
100
AcDbLine
 10
153.470716522954
 20
130.3018708778611
 30
0.0
 11
153.4297292498071
 21
130.2890862922074
 31
0.0
  0
LINE
  5
39E
330
E3
100
AcDbEntity
  8
0
  6
Continuous
100
AcDbLine
 10
153.4297292498071
 20
130.2890862922074
 30
0.0
 11
153.3897113275341
 21
130.2764745628284
 31
0.0
  0
LINE
  5
39F
330
E3
100
AcDbEntity
  8
0
  6
Continuous
100
AcDbLine
 10
153.3897113275341
 20
130.2764745628284
 30
0.0
 11
153.3509745752976
 21
130.264086529805
 31
0.0
  0
LINE
  5
3A0
330
E3
100
AcDbEntity
  8
0
  6
Continuous
100
AcDbLine
 10
153.3509745752976
 20
130.264086529805
 30
0.0
 11
153.3138206442435
 21
130.2519798118954
 31
0.0
  0
LINE
  5
3A1
330
E3
100
AcDbEntity
  8
0
  6
Continuous
100
AcDbLine
 10
153.3138206442435
 20
130.2519798118954
 30
0.0
 11
153.2785410175019
 21
130.2402052491804
 31
0.0
  0
LINE
  5
3A2
330
E3
100
AcDbEntity
  8
0
  6
Continuous
100
AcDbLine
 10
153.2785410175019
 20
130.2402052491804
 30
0.0
 11
153.2454136208478
 21
130.2288069030634
 31
0.0
  0
LINE
  5
3A3
330
E3
100
AcDbEntity
  8
0
  6
Continuous
100
AcDbLine
 10
153.2454136208478
 20
130.2288069030634
 30
0.0
 11
153.2146926546852
 21
130.2178356136251
 31
0.0
  0
LINE
  5
3A4
330
E3
100
AcDbEntity
  8
0
  6
Continuous
100
AcDbLine
 10
153.2146926546852
 20
130.2178356136251
 30
0.0
 11
153.1866187620633
 21
130.2073286635916
 31
0.0
  0
LINE
  5
3A5
330
E3
100
AcDbEntity
  8
0
  6
Continuous
100
AcDbLine
 10
153.1866187620633
 20
130.2073286635916
 30
0.0
 11
153.1614190286764
 21
130.1973301143661
 31
0.0
  0
LINE
  5
3A6
330
E3
100
AcDbEntity
  8
0
  6
Continuous
100
AcDbLine
 10
153.1614190286764
 20
130.1973301143661
 30
0.0
 11
153.1392900361703
 21
130.1878704699972
 31
0.0
  0
LINE
  5
3A7
330
E3
100
AcDbEntity
  8
0
  6
Continuous
100
AcDbLine
 10
153.1392900361703
 20
130.1878704699972
 30
0.0
 11
153.1204046408197
 21
130.1789870132108
 31
0.0
  0
LINE
  5
3A8
330
E3
100
AcDbEntity
  8
0
  6
Continuous
100
AcDbLine
 10
153.1204046408197
 20
130.1789870132108
 30
0.0
 11
153.104915362867
 21
130.1707000800392
 31
0.0
  0
LINE
  5
3A9
330
E3
100
AcDbEntity
  8
0
  6
Continuous
100
AcDbLine
 10
153.104915362867
 20
130.1707000800392
 30
0.0
 11
153.092947607845
 21
130.1630333958534
 31
0.0
  0
LINE
  5
3AA
330
E3
100
AcDbEntity
  8
0
  6
Continuous
100
AcDbLine
 10
153.092947607845
 20
130.1630333958534
 30
0.0
 11
153.0845996665764
 21
130.1560072966858
 31
0.0
  0
LINE
  5
3AB
330
E3
100
AcDbEntity
  8
0
  6
Continuous
100
AcDbLine
 10
153.0845996665764
 20
130.1560072966858
 30
0.0
 11
153.0799437831049
 21
130.1496287828445
 31
0.0
  0
LINE
  5
3AC
330
E3
100
AcDbEntity
  8
0
  6
Continuous
100
AcDbLine
 10
153.0799437831049
 20
130.1496287828445
 30
0.0
 11
153.0790201329422
 21
130.1439101330657
 31
0.0
  0
LINE
  5
3AD
330
E3
100
AcDbEntity
  8
0
  6
Continuous
100
AcDbLine
 10
154.0980313148888
 20
130.1235810260484
 30
0.0
 11
154.0971076647261
 21
130.1178623762696
 31
0.0
  0
LINE
  5
3AE
330
E3
100
AcDbEntity
  8
0
  6
Continuous
100
AcDbLine
 10
154.0971076647261
 20
130.1178623762696
 30
0.0
 11
154.0924507840755
 21
130.1114854572306
 31
0.0
  0
LINE
  5
3AF
330
E3
100
AcDbEntity
  8
0
  6
Continuous
100
AcDbLine
 10
154.0924507840755
 20
130.1114854572306
 30
0.0
 11
154.0841020978958
 21
130.1044588440858
 31
0.0
  0
LINE
  5
3B0
330
E3
100
AcDbEntity
  8
0
  6
Continuous
100
AcDbLine
 10
154.0841020978958
 20
130.1044588440858
 30
0.0
 11
154.0721377322125
 21
130.0967921599
 31
0.0
  0
LINE
  5
3B1
330
E3
100
AcDbEntity
  8
0
  6
Continuous
100
AcDbLine
 10
154.0721377322125
 20
130.0967921599
 30
0.0
 11
154.0566484542598
 21
130.0885052267284
 31
0.0
  0
LINE
  5
3B2
330
E3
100
AcDbEntity
  8
0
  6
Continuous
100
AcDbLine
 10
154.0566484542598
 20
130.0885052267284
 30
0.0
 11
154.0377630589092
 21
130.0796183806033
 31
0.0
  0
LINE
  5
3B3
330
E3
100
AcDbEntity
  8
0
  6
Continuous
100
AcDbLine
 10
154.0377630589092
 20
130.0796183806033
 30
0.0
 11
154.0156306770644
 21
130.0701621255731
 31
0.0
  0
LINE
  5
3B4
330
E3
100
AcDbEntity
  8
0
  6
Continuous
100
AcDbLine
 10
154.0156306770644
 20
130.0701621255731
 30
0.0
 11
153.9904309436775
 21
130.0601635763476
 31
0.0
  0
LINE
  5
3B5
330
E3
100
AcDbEntity
  8
0
  6
Continuous
100
AcDbLine
 10
153.9904309436775
 20
130.0601635763476
 30
0.0
 11
153.9623604403943
 21
130.0496566263141
 31
0.0
  0
LINE
  5
3B6
330
E3
100
AcDbEntity
  8
0
  6
Continuous
100
AcDbLine
 10
153.9623604403943
 20
130.0496566263141
 30
0.0
 11
153.9316394742317
 21
130.0386853368759
 31
0.0
  0
LINE
  5
3B7
330
E3
100
AcDbEntity
  8
0
  6
Continuous
100
AcDbLine
 10
153.9316394742317
 20
130.0386853368759
 30
0.0
 11
153.8985086882389
 21
130.0272869907588
 31
0.0
  0
LINE
  5
3B8
330
E3
100
AcDbEntity
  8
0
  6
Continuous
100
AcDbLine
 10
153.8985086882389
 20
130.0272869907588
 30
0.0
 11
153.8632290614972
 21
130.0155090387051
 31
0.0
  0
LINE
  5
3B9
330
E3
100
AcDbEntity
  8
0
  6
Continuous
100
AcDbLine
 10
153.8632290614972
 20
130.0155090387051
 30
0.0
 11
153.8260785197819
 21
130.0034023207955
 31
0.0
  0
LINE
  5
3BA
330
E3
100
AcDbEntity
  8
0
  6
Continuous
100
AcDbLine
 10
153.8260785197819
 20
130.0034023207955
 30
0.0
 11
153.7873417675453
 21
129.9910176771108
 31
0.0
  0
LINE
  5
3BB
330
E3
100
AcDbEntity
  8
0
  6
Continuous
100
AcDbLine
 10
153.7873417675453
 20
129.9910176771108
 30
0.0
 11
153.7473238452724
 21
129.9784059477318
 31
0.0
  0
LINE
  5
3BC
330
E3
100
AcDbEntity
  8
0
  6
Continuous
100
AcDbLine
 10
153.7473238452724
 20
129.9784059477318
 30
0.0
 11
153.7063331827868
 21
129.9656213620781
 31
0.0
  0
LINE
  5
3BD
330
E3
100
AcDbEntity
  8
0
  6
Continuous
100
AcDbLine
 10
153.7063331827868
 20
129.9656213620781
 30
0.0
 11
153.6646951566055
 21
129.9527249282466
 31
0.0
  0
LINE
  5
3BE
330
E3
100
AcDbEntity
  8
0
  6
Continuous
100
AcDbLine
 10
153.6646951566055
 20
129.9527249282466
 30
0.0
 11
153.6227283645683
 21
129.9397674863182
 31
0.0
  0
LINE
  5
3BF
330
E3
100
AcDbEntity
  8
0
  6
Continuous
100
AcDbLine
 10
153.6227283645683
 20
129.9397674863182
 30
0.0
 11
153.5807649618698
 21
129.9268134337285
 31
0.0
  0
LINE
  5
3C0
330
E3
100
AcDbEntity
  8
0
  6
Continuous
100
AcDbLine
 10
153.5807649618698
 20
129.9268134337285
 30
0.0
 11
153.5391235463498
 21
129.9139136105582
 31
0.0
  0
LINE
  5
3C1
330
E3
100
AcDbEntity
  8
0
  6
Continuous
100
AcDbLine
 10
153.5391235463498
 20
129.9139136105582
 30
0.0
 11
153.4981362732028
 21
129.9011324142432
 31
0.0
  0
LINE
  5
3C2
330
E3
100
AcDbEntity
  8
0
  6
Continuous
100
AcDbLine
 10
153.4981362732028
 20
129.9011324142432
 30
0.0
 11
153.4581183509299
 21
129.8885206848643
 31
0.0
  0
LINE
  5
3C3
330
E3
100
AcDbEntity
  8
0
  6
Continuous
100
AcDbLine
 10
153.4581183509299
 20
129.8885206848643
 30
0.0
 11
153.4193815986934
 21
129.8761326518408
 31
0.0
  0
LINE
  5
3C4
330
E3
100
AcDbEntity
  8
0
  6
Continuous
100
AcDbLine
 10
153.4193815986934
 20
129.8761326518408
 30
0.0
 11
153.3822276676393
 21
129.8640259339312
 31
0.0
  0
LINE
  5
3C5
330
E3
100
AcDbEntity
  8
0
  6
Continuous
100
AcDbLine
 10
153.3822276676393
 20
129.8640259339312
 30
0.0
 11
153.3469480408976
 21
129.8522513712163
 31
0.0
  0
LINE
  5
3C6
330
E3
100
AcDbEntity
  8
0
  6
Continuous
100
AcDbLine
 10
153.3469480408976
 20
129.8522513712163
 30
0.0
 11
153.3138172549048
 21
129.8408530250992
 31
0.0
  0
LINE
  5
3C7
330
E3
100
AcDbEntity
  8
0
  6
Continuous
100
AcDbLine
 10
153.3138172549048
 20
129.8408530250992
 30
0.0
 11
153.2830962887423
 21
129.829881735661
 31
0.0
  0
LINE
  5
3C8
330
E3
100
AcDbEntity
  8
0
  6
Continuous
100
AcDbLine
 10
153.2830962887423
 20
129.829881735661
 30
0.0
 11
153.2550257854591
 21
129.8193747856274
 31
0.0
  0
LINE
  5
3C9
330
E3
100
AcDbEntity
  8
0
  6
Continuous
100
AcDbLine
 10
153.2550257854591
 20
129.8193747856274
 30
0.0
 11
153.2298260520722
 21
129.809376236402
 31
0.0
  0
LINE
  5
3CA
330
E3
100
AcDbEntity
  8
0
  6
Continuous
100
AcDbLine
 10
153.2298260520722
 20
129.809376236402
 30
0.0
 11
153.2076970595661
 21
129.799916592033
 31
0.0
  0
LINE
  5
3CB
330
E3
100
AcDbEntity
  8
0
  6
Continuous
100
AcDbLine
 10
153.2076970595661
 20
129.799916592033
 30
0.0
 11
153.1888116642155
 21
129.7910331352466
 31
0.0
  0
LINE
  5
3CC
330
E3
100
AcDbEntity
  8
0
  6
Continuous
100
AcDbLine
 10
153.1888116642155
 20
129.7910331352466
 30
0.0
 11
153.1733223862628
 21
129.782746202075
 31
0.0
  0
LINE
  5
3CD
330
E3
100
AcDbEntity
  8
0
  6
Continuous
100
AcDbLine
 10
153.1733223862628
 20
129.782746202075
 30
0.0
 11
153.1613546312407
 21
129.7750795178893
 31
0.0
  0
LINE
  5
3CE
330
E3
100
AcDbEntity
  8
0
  6
Continuous
100
AcDbLine
 10
153.1613546312407
 20
129.7750795178893
 30
0.0
 11
153.1530066899722
 21
129.768050029383
 31
0.0
  0
LINE
  5
3CF
330
E3
100
AcDbEntity
  8
0
  6
Continuous
100
AcDbLine
 10
153.1530066899722
 20
129.768050029383
 30
0.0
 11
153.1483506409737
 21
129.761674213476
 31
0.0
  0
LINE
  5
3D0
330
E3
100
AcDbEntity
  8
0
  6
Continuous
100
AcDbLine
 10
153.1483506409737
 20
129.761674213476
 30
0.0
 11
153.147426990811
 21
129.7559555636972
 31
0.0
  0
LINE
  5
3D1
330
E3
100
AcDbEntity
  8
0
  6
Continuous
100
AcDbLine
 10
154.1664381727576
 20
129.7356264566799
 30
0.0
 11
154.1655145225949
 21
129.7299078069011
 31
0.0
  0
LINE
  5
3D2
330
E3
100
AcDbEntity
  8
0
  6
Continuous
100
AcDbLine
 10
154.1655145225949
 20
129.7299078069011
 30
0.0
 11
154.1608576419443
 21
129.7235308878621
 31
0.0
  0
LINE
  5
3D3
330
E3
100
AcDbEntity
  8
0
  6
Continuous
100
AcDbLine
 10
154.1608576419443
 20
129.7235308878621
 30
0.0
 11
154.1525091212916
 21
129.7165015767829
 31
0.0
  0
LINE
  5
3D4
330
E3
100
AcDbEntity
  8
0
  6
Continuous
100
AcDbLine
 10
154.1525091212916
 20
129.7165015767829
 30
0.0
 11
154.1405413662695
 21
129.7088382819359
 31
0.0
  0
LINE
  5
3D5
330
E3
100
AcDbEntity
  8
0
  6
Continuous
100
AcDbLine
 10
154.1405413662695
 20
129.7088382819359
 30
0.0
 11
154.1250554776556
 21
129.7005513487643
 31
0.0
  0
LINE
  5
3D6
330
E3
100
AcDbEntity
  8
0
  6
Continuous
100
AcDbLine
 10
154.1250554776556
 20
129.7005513487643
 30
0.0
 11
154.1061700823049
 21
129.6916645026391
 31
0.0
  0
LINE
  5
3D7
330
E3
100
AcDbEntity
  8
0
  6
Continuous
100
AcDbLine
 10
154.1061700823049
 20
129.6916645026391
 30
0.0
 11
154.0840377004601
 21
129.6822082476089
 31
0.0
  0
LINE
  5
3D8
330
E3
100
AcDbEntity
  8
0
  6
Continuous
100
AcDbLine
 10
154.0840377004601
 20
129.6822082476089
 30
0.0
 11
154.0588379670733
 21
129.6722063090448
 31
0.0
  0
LINE
  5
3D9
330
E3
100
AcDbEntity
  8
0
  6
Continuous
100
AcDbLine
 10
154.0588379670733
 20
129.6722063090448
 30
0.0
 11
154.0307674637901
 21
129.66170274835
 31
0.0
  0
LINE
  5
3DA
330
E3
100
AcDbEntity
  8
0
  6
Continuous
100
AcDbLine
 10
154.0307674637901
 20
129.66170274835
 30
0.0
 11
154.0000464976275
 21
129.650728069573
 31
0.0
  0
LINE
  5
3DB
330
E3
100
AcDbEntity
  8
0
  6
Continuous
100
AcDbLine
 10
154.0000464976275
 20
129.650728069573
 30
0.0
 11
153.9669157116346
 21
129.6393331127946
 31
0.0
  0
LINE
  5
3DC
330
E3
100
AcDbEntity
  8
0
  6
Continuous
100
AcDbLine
 10
153.9669157116346
 20
129.6393331127946
 30
0.0
 11
153.931636084893
 21
129.6275551607409
 31
0.0
  0
LINE
  5
3DD
330
E3
100
AcDbEntity
  8
0
  6
Continuous
100
AcDbLine
 10
153.931636084893
 20
129.6275551607409
 30
0.0
 11
153.8944855431777
 21
129.6154484428313
 31
0.0
  0
LINE
  5
3DE
330
E3
100
AcDbEntity
  8
0
  6
Continuous
100
AcDbLine
 10
153.8944855431777
 20
129.6154484428313
 30
0.0
 11
153.8557487909411
 21
129.6030637991467
 31
0.0
  0
LINE
  5
3DF
330
E3
100
AcDbEntity
  8
0
  6
Continuous
100
AcDbLine
 10
153.8557487909411
 20
129.6030637991467
 30
0.0
 11
153.8157308686682
 21
129.5904486804289
 31
0.0
  0
LINE
  5
3E0
330
E3
100
AcDbEntity
  8
0
  6
Continuous
100
AcDbLine
 10
153.8157308686682
 20
129.5904486804289
 30
0.0
 11
153.7747402061825
 21
129.577667484114
 31
0.0
  0
LINE
  5
3E1
330
E3
100
AcDbEntity
  8
0
  6
Continuous
100
AcDbLine
 10
153.7747402061825
 20
129.577667484114
 30
0.0
 11
153.7331021800013
 21
129.5647676609437
 31
0.0
  0
LINE
  5
3E2
330
E3
100
AcDbEntity
  8
0
  6
Continuous
100
AcDbLine
 10
153.7331021800013
 20
129.5647676609437
 30
0.0
 11
153.691135387964
 21
129.551813608354
 31
0.0
  0
LINE
  5
3E3
330
E3
100
AcDbEntity
  8
0
  6
Continuous
100
AcDbLine
 10
153.691135387964
 20
129.551813608354
 30
0.0
 11
153.6491685959269
 21
129.5388595557643
 31
0.0
  0
LINE
  5
3E4
330
E3
100
AcDbEntity
  8
0
  6
Continuous
100
AcDbLine
 10
153.6491685959269
 20
129.5388595557643
 30
0.0
 11
153.6075305697456
 21
129.5259597325941
 31
0.0
  0
LINE
  5
3E5
330
E3
100
AcDbEntity
  8
0
  6
Continuous
100
AcDbLine
 10
153.6075305697456
 20
129.5259597325941
 30
0.0
 11
153.5665432965986
 21
129.5131785362791
 31
0.0
  0
LINE
  5
3E6
330
E3
100
AcDbEntity
  8
0
  6
Continuous
100
AcDbLine
 10
153.5665432965986
 20
129.5131785362791
 30
0.0
 11
153.5265253743257
 21
129.5005634175614
 31
0.0
  0
LINE
  5
3E7
330
E3
100
AcDbEntity
  8
0
  6
Continuous
100
AcDbLine
 10
153.5265253743257
 20
129.5005634175614
 30
0.0
 11
153.4877886220892
 21
129.4881787738767
 31
0.0
  0
LINE
  5
3E8
330
E3
100
AcDbEntity
  8
0
  6
Continuous
100
AcDbLine
 10
153.4877886220892
 20
129.4881787738767
 30
0.0
 11
153.4506346910351
 21
129.4760720559671
 31
0.0
  0
LINE
  5
3E9
330
E3
100
AcDbEntity
  8
0
  6
Continuous
100
AcDbLine
 10
153.4506346910351
 20
129.4760720559671
 30
0.0
 11
153.4153550642934
 21
129.4642941039133
 31
0.0
  0
LINE
  5
3EA
330
E3
100
AcDbEntity
  8
0
  6
Continuous
100
AcDbLine
 10
153.4153550642934
 20
129.4642941039133
 30
0.0
 11
153.3822242783006
 21
129.4528991471351
 31
0.0
  0
LINE
  5
3EB
330
E3
100
AcDbEntity
  8
0
  6
Continuous
100
AcDbLine
 10
153.3822242783006
 20
129.4528991471351
 30
0.0
 11
153.351503312138
 21
129.4419244683581
 31
0.0
  0
LINE
  5
3EC
330
E3
100
AcDbEntity
  8
0
  6
Continuous
100
AcDbLine
 10
153.351503312138
 20
129.4419244683581
 30
0.0
 11
153.3234328088548
 21
129.4314209076633
 31
0.0
  0
LINE
  5
3ED
330
E3
100
AcDbEntity
  8
0
  6
Continuous
100
AcDbLine
 10
153.3234328088548
 20
129.4314209076633
 30
0.0
 11
153.298233075468
 21
129.4214223584378
 31
0.0
  0
LINE
  5
3EE
330
E3
100
AcDbEntity
  8
0
  6
Continuous
100
AcDbLine
 10
153.298233075468
 20
129.4214223584378
 30
0.0
 11
153.2761040829618
 21
129.4119627140689
 31
0.0
  0
LINE
  5
3EF
330
E3
100
AcDbEntity
  8
0
  6
Continuous
100
AcDbLine
 10
153.2761040829618
 20
129.4119627140689
 30
0.0
 11
153.2572186876113
 21
129.4030758679438
 31
0.0
  0
LINE
  5
3F0
330
E3
100
AcDbEntity
  8
0
  6
Continuous
100
AcDbLine
 10
153.2572186876113
 20
129.4030758679438
 30
0.0
 11
153.2417294096586
 21
129.3947889347722
 31
0.0
  0
LINE
  5
3F1
330
E3
100
AcDbEntity
  8
0
  6
Continuous
100
AcDbLine
 10
153.2417294096586
 20
129.3947889347722
 30
0.0
 11
153.2297616546365
 21
129.3871256399251
 31
0.0
  0
LINE
  5
3F2
330
E3
100
AcDbEntity
  8
0
  6
Continuous
100
AcDbLine
 10
153.2297616546365
 20
129.3871256399251
 30
0.0
 11
153.2214137133679
 21
129.3800961514188
 31
0.0
  0
LINE
  5
3F3
330
E3
100
AcDbEntity
  8
0
  6
Continuous
100
AcDbLine
 10
153.2214137133679
 20
129.3800961514188
 30
0.0
 11
153.2167574988425
 21
129.3737196441076
 31
0.0
  0
LINE
  5
3F4
330
E3
100
AcDbEntity
  8
0
  6
Continuous
100
AcDbLine
 10
153.2167574988425
 20
129.3737196441076
 30
0.0
 11
153.2158338486798
 21
129.3680009943288
 31
0.0
  0
LINE
  5
3F5
330
E3
100
AcDbEntity
  8
0
  6
Continuous
100
AcDbLine
 10
154.2348450306264
 20
129.3476718873115
 30
0.0
 11
154.2339213804637
 21
129.3419532375327
 31
0.0
  0
LINE
  5
3F6
330
E3
100
AcDbEntity
  8
0
  6
Continuous
100
AcDbLine
 10
154.2339213804637
 20
129.3419532375327
 30
0.0
 11
154.2292644998131
 21
129.3355763184937
 31
0.0
  0
LINE
  5
3F7
330
E3
100
AcDbEntity
  8
0
  6
Continuous
100
AcDbLine
 10
154.2292644998131
 20
129.3355763184937
 30
0.0
 11
154.2209161446874
 21
129.3285476988188
 31
0.0
  0
LINE
  5
3F8
330
E3
100
AcDbEntity
  8
0
  6
Continuous
100
AcDbLine
 10
154.2209161446874
 20
129.3285476988188
 30
0.0
 11
154.2089483896653
 21
129.3208844039717
 31
0.0
  0
LINE
  5
3F9
330
E3
100
AcDbEntity
  8
0
  6
Continuous
100
AcDbLine
 10
154.2089483896653
 20
129.3208844039717
 30
0.0
 11
154.1934625010513
 21
129.3125974708001
 31
0.0
  0
LINE
  5
3FA
330
E3
100
AcDbEntity
  8
0
  6
Continuous
100
AcDbLine
 10
154.1934625010513
 20
129.3125974708001
 30
0.0
 11
154.1745771057008
 21
129.303710624675
 31
0.0
  0
LINE
  5
3FB
330
E3
100
AcDbEntity
  8
0
  6
Continuous
100
AcDbLine
 10
154.1745771057008
 20
129.303710624675
 30
0.0
 11
154.1524447238559
 21
129.2942509803061
 31
0.0
  0
LINE
  5
3FC
330
E3
100
AcDbEntity
  8
0
  6
Continuous
100
AcDbLine
 10
154.1524447238559
 20
129.2942509803061
 30
0.0
 11
154.127244990469
 21
129.2842524310806
 31
0.0
  0
LINE
  5
3FD
330
E3
100
AcDbEntity
  8
0
  6
Continuous
100
AcDbLine
 10
154.127244990469
 20
129.2842524310806
 30
0.0
 11
154.0991744871858
 21
129.2737488703858
 31
0.0
  0
LINE
  5
3FE
330
E3
100
AcDbEntity
  8
0
  6
Continuous
100
AcDbLine
 10
154.0991744871858
 20
129.2737488703858
 30
0.0
 11
154.0684535210233
 21
129.2627741916088
 31
0.0
  0
LINE
  5
3FF
330
E3
100
AcDbEntity
  8
0
  6
Continuous
100
AcDbLine
 10
154.0684535210233
 20
129.2627741916088
 30
0.0
 11
154.0353227350305
 21
129.2513758454918
 31
0.0
  0
LINE
  5
400
330
E3
100
AcDbEntity
  8
0
  6
Continuous
100
AcDbLine
 10
154.0353227350305
 20
129.2513758454918
 30
0.0
 11
154.0000431082888
 21
129.2396012827768
 31
0.0
  0
LINE
  5
401
330
E3
100
AcDbEntity
  8
0
  6
Continuous
100
AcDbLine
 10
154.0000431082888
 20
129.2396012827768
 30
0.0
 11
153.9628925665734
 21
129.2274945648672
 31
0.0
  0
LINE
  5
402
330
E3
100
AcDbEntity
  8
0
  6
Continuous
100
AcDbLine
 10
153.9628925665734
 20
129.2274945648672
 30
0.0
 11
153.9241558143369
 21
129.2151065318438
 31
0.0
  0
LINE
  5
403
330
E3
100
AcDbEntity
  8
0
  6
Continuous
100
AcDbLine
 10
153.9241558143369
 20
129.2151065318438
 30
0.0
 11
153.8841345027253
 21
129.2024948024648
 31
0.0
  0
LINE
  5
404
330
E3
100
AcDbEntity
  8
0
  6
Continuous
100
AcDbLine
 10
153.8841345027253
 20
129.2024948024648
 30
0.0
 11
153.8431472295783
 21
129.1897136061498
 31
0.0
  0
LINE
  5
405
330
E3
100
AcDbEntity
  8
0
  6
Continuous
100
AcDbLine
 10
153.8431472295783
 20
129.1897136061498
 30
0.0
 11
153.801509203397
 21
129.1768137829796
 31
0.0
  0
LINE
  5
406
330
E3
100
AcDbEntity
  8
0
  6
Continuous
100
AcDbLine
 10
153.801509203397
 20
129.1768137829796
 30
0.0
 11
153.7595424113598
 21
129.1638597303898
 31
0.0
  0
LINE
  5
407
330
E3
100
AcDbEntity
  8
0
  6
Continuous
100
AcDbLine
 10
153.7595424113598
 20
129.1638597303898
 30
0.0
 11
153.7175756193226
 21
129.1509022884614
 31
0.0
  0
LINE
  5
408
330
E3
100
AcDbEntity
  8
0
  6
Continuous
100
AcDbLine
 10
153.7175756193226
 20
129.1509022884614
 30
0.0
 11
153.6759375931414
 21
129.1380058546299
 31
0.0
  0
LINE
  5
409
330
E3
100
AcDbEntity
  8
0
  6
Continuous
100
AcDbLine
 10
153.6759375931414
 20
129.1380058546299
 30
0.0
 11
153.6349503199943
 21
129.1252212689762
 31
0.0
  0
LINE
  5
40A
330
E3
100
AcDbEntity
  8
0
  6
Continuous
100
AcDbLine
 10
153.6349503199943
 20
129.1252212689762
 30
0.0
 11
153.5949323977215
 21
129.1126095395973
 31
0.0
  0
LINE
  5
40B
330
E3
100
AcDbEntity
  8
0
  6
Continuous
100
AcDbLine
 10
153.5949323977215
 20
129.1126095395973
 30
0.0
 11
153.5561956454849
 21
129.1002248959126
 31
0.0
  0
LINE
  5
40C
330
E3
100
AcDbEntity
  8
0
  6
Continuous
100
AcDbLine
 10
153.5561956454849
 20
129.1002248959126
 30
0.0
 11
153.5190417144309
 21
129.088118178003
 31
0.0
  0
LINE
  5
40D
330
E3
100
AcDbEntity
  8
0
  6
Continuous
100
AcDbLine
 10
153.5190417144309
 20
129.088118178003
 30
0.0
 11
153.4837620876892
 21
129.0763402259492
 31
0.0
  0
LINE
  5
40E
330
E3
100
AcDbEntity
  8
0
  6
Continuous
100
AcDbLine
 10
153.4837620876892
 20
129.0763402259492
 30
0.0
 11
153.4506313016964
 21
129.0649452691709
 31
0.0
  0
LINE
  5
40F
330
E3
100
AcDbEntity
  8
0
  6
Continuous
100
AcDbLine
 10
153.4506313016964
 20
129.0649452691709
 30
0.0
 11
153.4199103355338
 21
129.053970590394
 31
0.0
  0
LINE
  5
410
330
E3
100
AcDbEntity
  8
0
  6
Continuous
100
AcDbLine
 10
153.4199103355338
 20
129.053970590394
 30
0.0
 11
153.3918398322506
 21
129.0434670296991
 31
0.0
  0
LINE
  5
411
330
E3
100
AcDbEntity
  8
0
  6
Continuous
100
AcDbLine
 10
153.3918398322506
 20
129.0434670296991
 30
0.0
 11
153.3666400988637
 21
129.033465091135
 31
0.0
  0
LINE
  5
412
330
E3
100
AcDbEntity
  8
0
  6
Continuous
100
AcDbLine
 10
153.3666400988637
 20
129.033465091135
 30
0.0
 11
153.3445111063576
 21
129.0240088361048
 31
0.0
  0
LINE
  5
413
330
E3
100
AcDbEntity
  8
0
  6
Continuous
100
AcDbLine
 10
153.3445111063576
 20
129.0240088361048
 30
0.0
 11
153.325625711007
 21
129.0151219899796
 31
0.0
  0
LINE
  5
414
330
E3
100
AcDbEntity
  8
0
  6
Continuous
100
AcDbLine
 10
153.325625711007
 20
129.0151219899796
 30
0.0
 11
153.3101364330544
 21
129.006835056808
 31
0.0
  0
LINE
  5
415
330
E3
100
AcDbEntity
  8
0
  6
Continuous
100
AcDbLine
 10
153.3101364330544
 20
129.006835056808
 30
0.0
 11
153.2981686780323
 21
128.9991683726222
 31
0.0
  0
LINE
  5
416
330
E3
100
AcDbEntity
  8
0
  6
Continuous
100
AcDbLine
 10
153.2981686780323
 20
128.9991683726222
 30
0.0
 11
153.2898207367637
 21
128.9921422734546
 31
0.0
  0
LINE
  5
417
330
E3
100
AcDbEntity
  8
0
  6
Continuous
100
AcDbLine
 10
153.2898207367637
 20
128.9921422734546
 30
0.0
 11
153.2851643567113
 21
128.9857650747391
 31
0.0
  0
LINE
  5
418
330
E3
100
AcDbEntity
  8
0
  6
Continuous
100
AcDbLine
 10
153.2851643567113
 20
128.9857650747391
 30
0.0
 11
153.2842407065486
 21
128.9800464249603
 31
0.0
  0
LINE
  5
419
330
E3
100
AcDbEntity
  8
0
  6
Continuous
100
AcDbLine
 10
154.3032518884952
 20
128.959717317943
 30
0.0
 11
154.3023282383324
 21
128.9539986681642
 31
0.0
  0
LINE
  5
41A
330
E3
100
AcDbEntity
  8
0
  6
Continuous
100
AcDbLine
 10
154.3023282383324
 20
128.9539986681642
 30
0.0
 11
154.2976713576819
 21
128.9476217491252
 31
0.0
  0
LINE
  5
41B
330
E3
100
AcDbEntity
  8
0
  6
Continuous
100
AcDbLine
 10
154.2976713576819
 20
128.9476217491252
 30
0.0
 11
154.2893231680831
 21
128.9405938208546
 31
0.0
  0
LINE
  5
41C
330
E3
100
AcDbEntity
  8
0
  6
Continuous
100
AcDbLine
 10
154.2893231680831
 20
128.9405938208546
 30
0.0
 11
154.277355413061
 21
128.9329271366688
 31
0.0
  0
LINE
  5
41D
330
E3
100
AcDbEntity
  8
0
  6
Continuous
100
AcDbLine
 10
154.277355413061
 20
128.9329271366688
 30
0.0
 11
154.2618695244471
 21
128.9246402034973
 31
0.0
  0
LINE
  5
41E
330
E3
100
AcDbEntity
  8
0
  6
Continuous
100
AcDbLine
 10
154.2618695244471
 20
128.9246402034973
 30
0.0
 11
154.2429841290965
 21
128.9157567467108
 31
0.0
  0
LINE
  5
41F
330
E3
100
AcDbEntity
  8
0
  6
Continuous
100
AcDbLine
 10
154.2429841290965
 20
128.9157567467108
 30
0.0
 11
154.2208517472517
 21
128.9062971023419
 31
0.0
  0
LINE
  5
420
330
E3
100
AcDbEntity
  8
0
  6
Continuous
100
AcDbLine
 10
154.2208517472517
 20
128.9062971023419
 30
0.0
 11
154.1956520138648
 21
128.8962985531165
 31
0.0
  0
LINE
  5
421
330
E3
100
AcDbEntity
  8
0
  6
Continuous
100
AcDbLine
 10
154.1956520138648
 20
128.8962985531165
 30
0.0
 11
154.1675815105816
 21
128.8857916030829
 31
0.0
  0
LINE
  5
422
330
E3
100
AcDbEntity
  8
0
  6
Continuous
100
AcDbLine
 10
154.1675815105816
 20
128.8857916030829
 30
0.0
 11
154.1368605444191
 21
128.8748203136447
 31
0.0
  0
LINE
  5
423
330
E3
100
AcDbEntity
  8
0
  6
Continuous
100
AcDbLine
 10
154.1368605444191
 20
128.8748203136447
 30
0.0
 11
154.1037297584262
 21
128.8634219675276
 31
0.0
  0
LINE
  5
424
330
E3
100
AcDbEntity
  8
0
  6
Continuous
100
AcDbLine
 10
154.1037297584262
 20
128.8634219675276
 30
0.0
 11
154.0684501316846
 21
128.8516474048126
 31
0.0
  0
LINE
  5
425
330
E3
100
AcDbEntity
  8
0
  6
Continuous
100
AcDbLine
 10
154.0684501316846
 20
128.8516474048126
 30
0.0
 11
154.0312995899692
 21
128.839540686903
 31
0.0
  0
LINE
  5
426
330
E3
100
AcDbEntity
  8
0
  6
Continuous
100
AcDbLine
 10
154.0312995899692
 20
128.839540686903
 30
0.0
 11
153.9925628377327
 21
128.8271526538796
 31
0.0
  0
LINE
  5
427
330
E3
100
AcDbEntity
  8
0
  6
Continuous
100
AcDbLine
 10
153.9925628377327
 20
128.8271526538796
 30
0.0
 11
153.952541526121
 21
128.8145409245006
 31
0.0
  0
LINE
  5
428
330
E3
100
AcDbEntity
  8
0
  6
Continuous
100
AcDbLine
 10
153.952541526121
 20
128.8145409245006
 30
0.0
 11
153.9115542529741
 21
128.8017563388469
 31
0.0
  0
LINE
  5
429
330
E3
100
AcDbEntity
  8
0
  6
Continuous
100
AcDbLine
 10
153.9115542529741
 20
128.8017563388469
 30
0.0
 11
153.8699162267928
 21
128.7888599050155
 31
0.0
  0
LINE
  5
42A
330
E3
100
AcDbEntity
  8
0
  6
Continuous
100
AcDbLine
 10
153.8699162267928
 20
128.7888599050155
 30
0.0
 11
153.8279494347556
 21
128.7759058524257
 31
0.0
  0
LINE
  5
42B
330
E3
100
AcDbEntity
  8
0
  6
Continuous
100
AcDbLine
 10
153.8279494347556
 20
128.7759058524257
 30
0.0
 11
153.7859826427184
 21
128.7629484104973
 31
0.0
  0
LINE
  5
42C
330
E3
100
AcDbEntity
  8
0
  6
Continuous
100
AcDbLine
 10
153.7859826427184
 20
128.7629484104973
 30
0.0
 11
153.7443446165371
 21
128.7500519766658
 31
0.0
  0
LINE
  5
42D
330
E3
100
AcDbEntity
  8
0
  6
Continuous
100
AcDbLine
 10
153.7443446165371
 20
128.7500519766658
 30
0.0
 11
153.7033573433902
 21
128.737267391012
 31
0.0
  0
LINE
  5
42E
330
E3
100
AcDbEntity
  8
0
  6
Continuous
100
AcDbLine
 10
153.7033573433902
 20
128.737267391012
 30
0.0
 11
153.6633394211173
 21
128.7246556616331
 31
0.0
  0
LINE
  5
42F
330
E3
100
AcDbEntity
  8
0
  6
Continuous
100
AcDbLine
 10
153.6633394211173
 20
128.7246556616331
 30
0.0
 11
153.6246026688807
 21
128.7122710179484
 31
0.0
  0
LINE
  5
430
330
E3
100
AcDbEntity
  8
0
  6
Continuous
100
AcDbLine
 10
153.6246026688807
 20
128.7122710179484
 30
0.0
 11
153.5874487378267
 21
128.7001643000388
 31
0.0
  0
LINE
  5
431
330
E3
100
AcDbEntity
  8
0
  6
Continuous
100
AcDbLine
 10
153.5874487378267
 20
128.7001643000388
 30
0.0
 11
153.552169111085
 21
128.6883863479851
 31
0.0
  0
LINE
  5
432
330
E3
100
AcDbEntity
  8
0
  6
Continuous
100
AcDbLine
 10
153.552169111085
 20
128.6883863479851
 30
0.0
 11
153.5190383250921
 21
128.676988001868
 31
0.0
  0
LINE
  5
433
330
E3
100
AcDbEntity
  8
0
  6
Continuous
100
AcDbLine
 10
153.5190383250921
 20
128.676988001868
 30
0.0
 11
153.4883173589295
 21
128.6660167124298
 31
0.0
  0
LINE
  5
434
330
E3
100
AcDbEntity
  8
0
  6
Continuous
100
AcDbLine
 10
153.4883173589295
 20
128.6660167124298
 30
0.0
 11
153.4602468556464
 21
128.6555097623962
 31
0.0
  0
LINE
  5
435
330
E3
100
AcDbEntity
  8
0
  6
Continuous
100
AcDbLine
 10
153.4602468556464
 20
128.6555097623962
 30
0.0
 11
153.4350471222595
 21
128.6455112131708
 31
0.0
  0
LINE
  5
436
330
E3
100
AcDbEntity
  8
0
  6
Continuous
100
AcDbLine
 10
153.4350471222595
 20
128.6455112131708
 30
0.0
 11
153.4129181297534
 21
128.6360549581406
 31
0.0
  0
LINE
  5
437
330
E3
100
AcDbEntity
  8
0
  6
Continuous
100
AcDbLine
 10
153.4129181297534
 20
128.6360549581406
 30
0.0
 11
153.3940327344028
 21
128.6271681120154
 31
0.0
  0
LINE
  5
438
330
E3
100
AcDbEntity
  8
0
  6
Continuous
100
AcDbLine
 10
153.3940327344028
 20
128.6271681120154
 30
0.0
 11
153.3785434564501
 21
128.6188811788438
 31
0.0
  0
LINE
  5
439
330
E3
100
AcDbEntity
  8
0
  6
Continuous
100
AcDbLine
 10
153.3785434564501
 20
128.6188811788438
 30
0.0
 11
153.366575701428
 21
128.6112144946581
 31
0.0
  0
LINE
  5
43A
330
E3
100
AcDbEntity
  8
0
  6
Continuous
100
AcDbLine
 10
153.366575701428
 20
128.6112144946581
 30
0.0
 11
153.3582277601595
 21
128.6041883954905
 31
0.0
  0
LINE
  5
43B
330
E3
100
AcDbEntity
  8
0
  6
Continuous
100
AcDbLine
 10
153.3582277601595
 20
128.6041883954905
 30
0.0
 11
153.3535712145801
 21
128.5978105053707
 31
0.0
  0
LINE
  5
43C
330
E3
100
AcDbEntity
  8
0
  6
Continuous
100
AcDbLine
 10
153.3535712145801
 20
128.5978105053707
 30
0.0
 11
153.3526475644174
 21
128.5920918555919
 31
0.0
  0
LINE
  5
43D
330
E3
100
AcDbEntity
  8
0
  6
Continuous
100
AcDbLine
 10
154.371658746364
 20
128.5717627485746
 30
0.0
 11
154.3707350962013
 21
128.5660440987958
 31
0.0
  0
LINE
  5
43E
330
E3
100
AcDbEntity
  8
0
  6
Continuous
100
AcDbLine
 10
154.3707350962013
 20
128.5660440987958
 30
0.0
 11
154.3660782155507
 21
128.5596671797568
 31
0.0
  0
LINE
  5
43F
330
E3
100
AcDbEntity
  8
0
  6
Continuous
100
AcDbLine
 10
154.3660782155507
 20
128.5596671797568
 30
0.0
 11
154.3577301914789
 21
128.5526399428905
 31
0.0
  0
LINE
  5
440
330
E3
100
AcDbEntity
  8
0
  6
Continuous
100
AcDbLine
 10
154.3577301914789
 20
128.5526399428905
 30
0.0
 11
154.3457624364569
 21
128.5449732587047
 31
0.0
  0
LINE
  5
441
330
E3
100
AcDbEntity
  8
0
  6
Continuous
100
AcDbLine
 10
154.3457624364569
 20
128.5449732587047
 30
0.0
 11
154.3302731585042
 21
128.5366863255331
 31
0.0
  0
LINE
  5
442
330
E3
100
AcDbEntity
  8
0
  6
Continuous
100
AcDbLine
 10
154.3302731585042
 20
128.5366863255331
 30
0.0
 11
154.3113911524923
 21
128.5277994794079
 31
0.0
  0
LINE
  5
443
330
E3
100
AcDbEntity
  8
0
  6
Continuous
100
AcDbLine
 10
154.3113911524923
 20
128.5277994794079
 30
0.0
 11
154.2892587706475
 21
128.5183432243778
 31
0.0
  0
LINE
  5
444
330
E3
100
AcDbEntity
  8
0
  6
Continuous
100
AcDbLine
 10
154.2892587706475
 20
128.5183432243778
 30
0.0
 11
154.2640590372606
 21
128.5083446751523
 31
0.0
  0
LINE
  5
445
330
E3
100
AcDbEntity
  8
0
  6
Continuous
100
AcDbLine
 10
154.2640590372606
 20
128.5083446751523
 30
0.0
 11
154.2359885339774
 21
128.4978377251188
 31
0.0
  0
LINE
  5
446
330
E3
100
AcDbEntity
  8
0
  6
Continuous
100
AcDbLine
 10
154.2359885339774
 20
128.4978377251188
 30
0.0
 11
154.2052675678148
 21
128.4868664356805
 31
0.0
  0
LINE
  5
447
330
E3
100
AcDbEntity
  8
0
  6
Continuous
100
AcDbLine
 10
154.2052675678148
 20
128.4868664356805
 30
0.0
 11
154.172136781822
 21
128.4754680895635
 31
0.0
  0
LINE
  5
448
330
E3
100
AcDbEntity
  8
0
  6
Continuous
100
AcDbLine
 10
154.172136781822
 20
128.4754680895635
 30
0.0
 11
154.1368571550803
 21
128.4636901375098
 31
0.0
  0
LINE
  5
449
330
E3
100
AcDbEntity
  8
0
  6
Continuous
100
AcDbLine
 10
154.1368571550803
 20
128.4636901375098
 30
0.0
 11
154.099706613365
 21
128.4515834196002
 31
0.0
  0
LINE
  5
44A
330
E3
100
AcDbEntity
  8
0
  6
Continuous
100
AcDbLine
 10
154.099706613365
 20
128.4515834196002
 30
0.0
 11
154.0609698611284
 21
128.4391987759155
 31
0.0
  0
LINE
  5
44B
330
E3
100
AcDbEntity
  8
0
  6
Continuous
100
AcDbLine
 10
154.0609698611284
 20
128.4391987759155
 30
0.0
 11
154.0209485495168
 21
128.4265870465365
 31
0.0
  0
LINE
  5
44C
330
E3
100
AcDbEntity
  8
0
  6
Continuous
100
AcDbLine
 10
154.0209485495168
 20
128.4265870465365
 30
0.0
 11
153.9799612763699
 21
128.4138024608828
 31
0.0
  0
LINE
  5
44D
330
E3
100
AcDbEntity
  8
0
  6
Continuous
100
AcDbLine
 10
153.9799612763699
 20
128.4138024608828
 30
0.0
 11
153.9383232501885
 21
128.4009060270513
 31
0.0
  0
LINE
  5
44E
330
E3
100
AcDbEntity
  8
0
  6
Continuous
100
AcDbLine
 10
153.9383232501885
 20
128.4009060270513
 30
0.0
 11
153.8963564581514
 21
128.3879485851228
 31
0.0
  0
LINE
  5
44F
330
E3
100
AcDbEntity
  8
0
  6
Continuous
100
AcDbLine
 10
153.8963564581514
 20
128.3879485851228
 30
0.0
 11
153.8543896661142
 21
128.3749945325331
 31
0.0
  0
LINE
  5
450
330
E3
100
AcDbEntity
  8
0
  6
Continuous
100
AcDbLine
 10
153.8543896661142
 20
128.3749945325331
 30
0.0
 11
153.8127516399329
 21
128.3620980987016
 31
0.0
  0
LINE
  5
451
330
E3
100
AcDbEntity
  8
0
  6
Continuous
100
AcDbLine
 10
153.8127516399329
 20
128.3620980987016
 30
0.0
 11
153.7717643667859
 21
128.3493135130479
 31
0.0
  0
LINE
  5
452
330
E3
100
AcDbEntity
  8
0
  6
Continuous
100
AcDbLine
 10
153.7717643667859
 20
128.3493135130479
 30
0.0
 11
153.731746444513
 21
128.3367017836689
 31
0.0
  0
LINE
  5
453
330
E3
100
AcDbEntity
  8
0
  6
Continuous
100
AcDbLine
 10
153.731746444513
 20
128.3367017836689
 30
0.0
 11
153.6930096922765
 21
128.3243137506455
 31
0.0
  0
LINE
  5
454
330
E3
100
AcDbEntity
  8
0
  6
Continuous
100
AcDbLine
 10
153.6930096922765
 20
128.3243137506455
 30
0.0
 11
153.6558557612224
 21
128.3122070327359
 31
0.0
  0
LINE
  5
455
330
E3
100
AcDbEntity
  8
0
  6
Continuous
100
AcDbLine
 10
153.6558557612224
 20
128.3122070327359
 30
0.0
 11
153.6205761344808
 21
128.3004324700209
 31
0.0
  0
LINE
  5
456
330
E3
100
AcDbEntity
  8
0
  6
Continuous
100
AcDbLine
 10
153.6205761344808
 20
128.3004324700209
 30
0.0
 11
153.5874453484879
 21
128.2890341239039
 31
0.0
  0
LINE
  5
457
330
E3
100
AcDbEntity
  8
0
  6
Continuous
100
AcDbLine
 10
153.5874453484879
 20
128.2890341239039
 30
0.0
 11
153.5567243823253
 21
128.2780628344656
 31
0.0
  0
LINE
  5
458
330
E3
100
AcDbEntity
  8
0
  6
Continuous
100
AcDbLine
 10
153.5567243823253
 20
128.2780628344656
 30
0.0
 11
153.5286538790422
 21
128.2675558844321
 31
0.0
  0
LINE
  5
459
330
E3
100
AcDbEntity
  8
0
  6
Continuous
100
AcDbLine
 10
153.5286538790422
 20
128.2675558844321
 30
0.0
 11
153.5034541456553
 21
128.2575573352066
 31
0.0
  0
LINE
  5
45A
330
E3
100
AcDbEntity
  8
0
  6
Continuous
100
AcDbLine
 10
153.5034541456553
 20
128.2575573352066
 30
0.0
 11
153.4813251531492
 21
128.2480976908377
 31
0.0
  0
LINE
  5
45B
330
E3
100
AcDbEntity
  8
0
  6
Continuous
100
AcDbLine
 10
153.4813251531492
 20
128.2480976908377
 30
0.0
 11
153.4624397577986
 21
128.2392142340513
 31
0.0
  0
LINE
  5
45C
330
E3
100
AcDbEntity
  8
0
  6
Continuous
100
AcDbLine
 10
153.4624397577986
 20
128.2392142340513
 30
0.0
 11
153.4469504798459
 21
128.2309273008797
 31
0.0
  0
LINE
  5
45D
330
E3
100
AcDbEntity
  8
0
  6
Continuous
100
AcDbLine
 10
153.4469504798459
 20
128.2309273008797
 30
0.0
 11
153.4349827248238
 21
128.2232606166939
 31
0.0
  0
LINE
  5
45E
330
E3
100
AcDbEntity
  8
0
  6
Continuous
100
AcDbLine
 10
153.4349827248238
 20
128.2232606166939
 30
0.0
 11
153.4266347835552
 21
128.2162345175263
 31
0.0
  0
LINE
  5
45F
330
E3
100
AcDbEntity
  8
0
  6
Continuous
100
AcDbLine
 10
153.4266347835552
 20
128.2162345175263
 30
0.0
 11
153.4219780724489
 21
128.2098559360023
 31
0.0
  0
LINE
  5
460
330
E3
100
AcDbEntity
  8
0
  6
Continuous
100
AcDbLine
 10
153.4219780724489
 20
128.2098559360023
 30
0.0
 11
153.4210544222861
 21
128.2041372862234
 31
0.0
  0
LINE
  5
461
330
E3
100
AcDbEntity
  8
0
  6
Continuous
100
AcDbLine
 10
154.4400656042328
 20
128.1838081792062
 30
0.0
 11
154.43914195407
 21
128.1780895294273
 31
0.0
  0
LINE
  5
462
330
E3
100
AcDbEntity
  8
0
  6
Continuous
100
AcDbLine
 10
154.43914195407
 20
128.1780895294273
 30
0.0
 11
154.4344850734195
 21
128.1717126103883
 31
0.0
  0
LINE
  5
463
330
E3
100
AcDbEntity
  8
0
  6
Continuous
100
AcDbLine
 10
154.4344850734195
 20
128.1717126103883
 30
0.0
 11
154.4261372148747
 21
128.1646860649263
 31
0.0
  0
LINE
  5
464
330
E3
100
AcDbEntity
  8
0
  6
Continuous
100
AcDbLine
 10
154.4261372148747
 20
128.1646860649263
 30
0.0
 11
154.4141694598526
 21
128.1570193807405
 31
0.0
  0
LINE
  5
465
330
E3
100
AcDbEntity
  8
0
  6
Continuous
100
AcDbLine
 10
154.4141694598526
 20
128.1570193807405
 30
0.0
 11
154.3986801818999
 21
128.1487324475689
 31
0.0
  0
LINE
  5
466
330
E3
100
AcDbEntity
  8
0
  6
Continuous
100
AcDbLine
 10
154.3986801818999
 20
128.1487324475689
 30
0.0
 11
154.379798175888
 21
128.1398456014438
 31
0.0
  0
LINE
  5
467
330
E3
100
AcDbEntity
  8
0
  6
Continuous
100
AcDbLine
 10
154.379798175888
 20
128.1398456014438
 30
0.0
 11
154.3576657940432
 21
128.1303893464136
 31
0.0
  0
LINE
  5
468
330
E3
100
AcDbEntity
  8
0
  6
Continuous
100
AcDbLine
 10
154.3576657940432
 20
128.1303893464136
 30
0.0
 11
154.3324660606563
 21
128.1203907971882
 31
0.0
  0
LINE
  5
469
330
E3
100
AcDbEntity
  8
0
  6
Continuous
100
AcDbLine
 10
154.3324660606563
 20
128.1203907971882
 30
0.0
 11
154.3043955573732
 21
128.1098838471546
 31
0.0
  0
LINE
  5
46A
330
E3
100
AcDbEntity
  8
0
  6
Continuous
100
AcDbLine
 10
154.3043955573732
 20
128.1098838471546
 30
0.0
 11
154.2736745912106
 21
128.0989125577163
 31
0.0
  0
LINE
  5
46B
330
E3
100
AcDbEntity
  8
0
  6
Continuous
100
AcDbLine
 10
154.2736745912106
 20
128.0989125577163
 30
0.0
 11
154.2405438052177
 21
128.0875142115993
 31
0.0
  0
LINE
  5
46C
330
E3
100
AcDbEntity
  8
0
  6
Continuous
100
AcDbLine
 10
154.2405438052177
 20
128.0875142115993
 30
0.0
 11
154.2052641784761
 21
128.0757362595456
 31
0.0
  0
LINE
  5
46D
330
E3
100
AcDbEntity
  8
0
  6
Continuous
100
AcDbLine
 10
154.2052641784761
 20
128.0757362595456
 30
0.0
 11
154.168110247422
 21
128.063629541636
 31
0.0
  0
LINE
  5
46E
330
E3
100
AcDbEntity
  8
0
  6
Continuous
100
AcDbLine
 10
154.168110247422
 20
128.063629541636
 30
0.0
 11
154.1293734951855
 21
128.0512448979513
 31
0.0
  0
LINE
  5
46F
330
E3
100
AcDbEntity
  8
0
  6
Continuous
100
AcDbLine
 10
154.1293734951855
 20
128.0512448979513
 30
0.0
 11
154.0893555729126
 21
128.0386331685723
 31
0.0
  0
LINE
  5
470
330
E3
100
AcDbEntity
  8
0
  6
Continuous
100
AcDbLine
 10
154.0893555729126
 20
128.0386331685723
 30
0.0
 11
154.0483682997656
 21
128.0258485829186
 31
0.0
  0
LINE
  5
471
330
E3
100
AcDbEntity
  8
0
  6
Continuous
100
AcDbLine
 10
154.0483682997656
 20
128.0258485829186
 30
0.0
 11
154.0067302735843
 21
128.0129521490871
 31
0.0
  0
LINE
  5
472
330
E3
100
AcDbEntity
  8
0
  6
Continuous
100
AcDbLine
 10
154.0067302735843
 20
128.0129521490871
 30
0.0
 11
153.9647634815472
 21
127.9999947071587
 31
0.0
  0
LINE
  5
473
330
E3
100
AcDbEntity
  8
0
  6
Continuous
100
AcDbLine
 10
153.9647634815472
 20
127.9999947071587
 30
0.0
 11
153.92279668951
 21
127.987040654569
 31
0.0
  0
LINE
  5
474
330
E3
100
AcDbEntity
  8
0
  6
Continuous
100
AcDbLine
 10
153.92279668951
 20
127.987040654569
 30
0.0
 11
153.8811586633286
 21
127.9741408313987
 31
0.0
  0
LINE
  5
475
330
E3
100
AcDbEntity
  8
0
  6
Continuous
100
AcDbLine
 10
153.8811586633286
 20
127.9741408313987
 30
0.0
 11
153.8401713901817
 21
127.9613596350837
 31
0.0
  0
LINE
  5
476
330
E3
100
AcDbEntity
  8
0
  6
Continuous
100
AcDbLine
 10
153.8401713901817
 20
127.9613596350837
 30
0.0
 11
153.8001534679088
 21
127.9487479057048
 31
0.0
  0
LINE
  5
477
330
E3
100
AcDbEntity
  8
0
  6
Continuous
100
AcDbLine
 10
153.8001534679088
 20
127.9487479057048
 30
0.0
 11
153.7614167156723
 21
127.9363598726814
 31
0.0
  0
LINE
  5
478
330
E3
100
AcDbEntity
  8
0
  6
Continuous
100
AcDbLine
 10
153.7614167156723
 20
127.9363598726814
 30
0.0
 11
153.7242627846182
 21
127.9242531547718
 31
0.0
  0
LINE
  5
479
330
E3
100
AcDbEntity
  8
0
  6
Continuous
100
AcDbLine
 10
153.7242627846182
 20
127.9242531547718
 30
0.0
 11
153.6889831578765
 21
127.9124785920568
 31
0.0
  0
LINE
  5
47A
330
E3
100
AcDbEntity
  8
0
  6
Continuous
100
AcDbLine
 10
153.6889831578765
 20
127.9124785920568
 30
0.0
 11
153.6558523718837
 21
127.9010802459397
 31
0.0
  0
LINE
  5
47B
330
E3
100
AcDbEntity
  8
0
  6
Continuous
100
AcDbLine
 10
153.6558523718837
 20
127.9010802459397
 30
0.0
 11
153.6251314057211
 21
127.8901055671628
 31
0.0
  0
LINE
  5
47C
330
E3
100
AcDbEntity
  8
0
  6
Continuous
100
AcDbLine
 10
153.6251314057211
 20
127.8901055671628
 30
0.0
 11
153.597060902438
 21
127.8796020064679
 31
0.0
  0
LINE
  5
47D
330
E3
100
AcDbEntity
  8
0
  6
Continuous
100
AcDbLine
 10
153.597060902438
 20
127.8796020064679
 30
0.0
 11
153.5718611690511
 21
127.8696034572425
 31
0.0
  0
LINE
  5
47E
330
E3
100
AcDbEntity
  8
0
  6
Continuous
100
AcDbLine
 10
153.5718611690511
 20
127.8696034572425
 30
0.0
 11
153.5497287872062
 21
127.8601438128736
 31
0.0
  0
LINE
  5
47F
330
E3
100
AcDbEntity
  8
0
  6
Continuous
100
AcDbLine
 10
153.5497287872062
 20
127.8601438128736
 30
0.0
 11
153.5308467811944
 21
127.8512603560872
 31
0.0
  0
LINE
  5
480
330
E3
100
AcDbEntity
  8
0
  6
Continuous
100
AcDbLine
 10
153.5308467811944
 20
127.8512603560872
 30
0.0
 11
153.5153575032417
 21
127.8429734229155
 31
0.0
  0
LINE
  5
481
330
E3
100
AcDbEntity
  8
0
  6
Continuous
100
AcDbLine
 10
153.5153575032417
 20
127.8429734229155
 30
0.0
 11
153.5033897482196
 21
127.8353067387298
 31
0.0
  0
LINE
  5
482
330
E3
100
AcDbEntity
  8
0
  6
Continuous
100
AcDbLine
 10
153.5033897482196
 20
127.8353067387298
 30
0.0
 11
153.495041806951
 21
127.8282772502235
 31
0.0
  0
LINE
  5
483
330
E3
100
AcDbEntity
  8
0
  6
Continuous
100
AcDbLine
 10
153.495041806951
 20
127.8282772502235
 30
0.0
 11
153.4903849303177
 21
127.8219013666338
 31
0.0
  0
LINE
  5
484
330
E3
100
AcDbEntity
  8
0
  6
Continuous
100
AcDbLine
 10
153.4903849303177
 20
127.8219013666338
 30
0.0
 11
153.489461280155
 21
127.816182716855
 31
0.0
  0
LINE
  5
485
330
E3
100
AcDbEntity
  8
0
  6
Continuous
100
AcDbLine
 10
154.5084724621016
 20
127.7958536098377
 30
0.0
 11
154.5075488119388
 21
127.7901349600589
 31
0.0
  0
LINE
  5
486
330
E3
100
AcDbEntity
  8
0
  6
Continuous
100
AcDbLine
 10
154.5075488119388
 20
127.7901349600589
 30
0.0
 11
154.5028919312883
 21
127.7837580410199
 31
0.0
  0
LINE
  5
487
330
E3
100
AcDbEntity
  8
0
  6
Continuous
100
AcDbLine
 10
154.5028919312883
 20
127.7837580410199
 30
0.0
 11
154.4945442382705
 21
127.7767287976234
 31
0.0
  0
LINE
  5
488
330
E3
100
AcDbEntity
  8
0
  6
Continuous
100
AcDbLine
 10
154.4945442382705
 20
127.7767287976234
 30
0.0
 11
154.4825764832484
 21
127.7690655027764
 31
0.0
  0
LINE
  5
489
330
E3
100
AcDbEntity
  8
0
  6
Continuous
100
AcDbLine
 10
154.4825764832484
 20
127.7690655027764
 30
0.0
 11
154.4670872052957
 21
127.7607785696048
 31
0.0
  0
LINE
  5
48A
330
E3
100
AcDbEntity
  8
0
  6
Continuous
100
AcDbLine
 10
154.4670872052957
 20
127.7607785696048
 30
0.0
 11
154.4482018099451
 21
127.7518917234796
 31
0.0
  0
LINE
  5
48B
330
E3
100
AcDbEntity
  8
0
  6
Continuous
100
AcDbLine
 10
154.4482018099451
 20
127.7518917234796
 30
0.0
 11
154.426072817439
 21
127.7424354684495
 31
0.0
  0
LINE
  5
48C
330
E3
100
AcDbEntity
  8
0
  6
Continuous
100
AcDbLine
 10
154.426072817439
 20
127.7424354684495
 30
0.0
 11
154.4008730840521
 21
127.7324335298853
 31
0.0
  0
LINE
  5
48D
330
E3
100
AcDbEntity
  8
0
  6
Continuous
100
AcDbLine
 10
154.4008730840521
 20
127.7324335298853
 30
0.0
 11
154.372802580769
 21
127.7219299691905
 31
0.0
  0
LINE
  5
48E
330
E3
100
AcDbEntity
  8
0
  6
Continuous
100
AcDbLine
 10
154.372802580769
 20
127.7219299691905
 30
0.0
 11
154.3420816146064
 21
127.7109552904135
 31
0.0
  0
LINE
  5
48F
330
E3
100
AcDbEntity
  8
0
  6
Continuous
100
AcDbLine
 10
154.3420816146064
 20
127.7109552904135
 30
0.0
 11
154.3089508286135
 21
127.6995603336352
 31
0.0
  0
LINE
  5
490
330
E3
100
AcDbEntity
  8
0
  6
Continuous
100
AcDbLine
 10
154.3089508286135
 20
127.6995603336352
 30
0.0
 11
154.2736712018719
 21
127.6877823815815
 31
0.0
  0
LINE
  5
491
330
E3
100
AcDbEntity
  8
0
  6
Continuous
100
AcDbLine
 10
154.2736712018719
 20
127.6877823815815
 30
0.0
 11
154.2365172708178
 21
127.6756756636719
 31
0.0
  0
LINE
  5
492
330
E3
100
AcDbEntity
  8
0
  6
Continuous
100
AcDbLine
 10
154.2365172708178
 20
127.6756756636719
 30
0.0
 11
154.1977805185813
 21
127.6632910199872
 31
0.0
  0
LINE
  5
493
330
E3
100
AcDbEntity
  8
0
  6
Continuous
100
AcDbLine
 10
154.1977805185813
 20
127.6632910199872
 30
0.0
 11
154.1577625963084
 21
127.6506759012695
 31
0.0
  0
LINE
  5
494
330
E3
100
AcDbEntity
  8
0
  6
Continuous
100
AcDbLine
 10
154.1577625963084
 20
127.6506759012695
 30
0.0
 11
154.1167753231614
 21
127.6378947049545
 31
0.0
  0
LINE
  5
495
330
E3
100
AcDbEntity
  8
0
  6
Continuous
100
AcDbLine
 10
154.1167753231614
 20
127.6378947049545
 30
0.0
 11
154.0751372969801
 21
127.6249948817843
 31
0.0
  0
LINE
  5
496
330
E3
100
AcDbEntity
  8
0
  6
Continuous
100
AcDbLine
 10
154.0751372969801
 20
127.6249948817843
 30
0.0
 11
154.0331705049429
 21
127.6120408291945
 31
0.0
  0
LINE
  5
497
330
E3
100
AcDbEntity
  8
0
  6
Continuous
100
AcDbLine
 10
154.0331705049429
 20
127.6120408291945
 30
0.0
 11
153.9912037129057
 21
127.5990867766048
 31
0.0
  0
LINE
  5
498
330
E3
100
AcDbEntity
  8
0
  6
Continuous
100
AcDbLine
 10
153.9912037129057
 20
127.5990867766048
 30
0.0
 11
153.9495656867245
 21
127.5861869534346
 31
0.0
  0
LINE
  5
499
330
E3
100
AcDbEntity
  8
0
  6
Continuous
100
AcDbLine
 10
153.9495656867245
 20
127.5861869534346
 30
0.0
 11
153.9085784135775
 21
127.5734057571196
 31
0.0
  0
LINE
  5
49A
330
E3
100
AcDbEntity
  8
0
  6
Continuous
100
AcDbLine
 10
153.9085784135775
 20
127.5734057571196
 30
0.0
 11
153.8685571019659
 21
127.5607906384019
 31
0.0
  0
LINE
  5
49B
330
E3
100
AcDbEntity
  8
0
  6
Continuous
100
AcDbLine
 10
153.8685571019659
 20
127.5607906384019
 30
0.0
 11
153.8298203497293
 21
127.5484059947172
 31
0.0
  0
LINE
  5
49C
330
E3
100
AcDbEntity
  8
0
  6
Continuous
100
AcDbLine
 10
153.8298203497293
 20
127.5484059947172
 30
0.0
 11
153.792669808014
 21
127.5362992768076
 31
0.0
  0
LINE
  5
49D
330
E3
100
AcDbEntity
  8
0
  6
Continuous
100
AcDbLine
 10
153.792669808014
 20
127.5362992768076
 30
0.0
 11
153.7573901812723
 21
127.5245213247539
 31
0.0
  0
LINE
  5
49E
330
E3
100
AcDbEntity
  8
0
  6
Continuous
100
AcDbLine
 10
153.7573901812723
 20
127.5245213247539
 30
0.0
 11
153.7242593952795
 21
127.5131263679756
 31
0.0
  0
LINE
  5
49F
330
E3
100
AcDbEntity
  8
0
  6
Continuous
100
AcDbLine
 10
153.7242593952795
 20
127.5131263679756
 30
0.0
 11
153.6935384291169
 21
127.5021516891986
 31
0.0
  0
LINE
  5
4A0
330
E3
100
AcDbEntity
  8
0
  6
Continuous
100
AcDbLine
 10
153.6935384291169
 20
127.5021516891986
 30
0.0
 11
153.6654679258337
 21
127.4916481285038
 31
0.0
  0
LINE
  5
4A1
330
E3
100
AcDbEntity
  8
0
  6
Continuous
100
AcDbLine
 10
153.6654679258337
 20
127.4916481285038
 30
0.0
 11
153.6402681924468
 21
127.4816495792783
 31
0.0
  0
LINE
  5
4A2
330
E3
100
AcDbEntity
  8
0
  6
Continuous
100
AcDbLine
 10
153.6402681924468
 20
127.4816495792783
 30
0.0
 11
153.618135810602
 21
127.4721899349094
 31
0.0
  0
LINE
  5
4A3
330
E3
100
AcDbEntity
  8
0
  6
Continuous
100
AcDbLine
 10
153.618135810602
 20
127.4721899349094
 30
0.0
 11
153.5992504152514
 21
127.4633030887843
 31
0.0
  0
LINE
  5
4A4
330
E3
100
AcDbEntity
  8
0
  6
Continuous
100
AcDbLine
 10
153.5992504152514
 20
127.4633030887843
 30
0.0
 11
153.5837645266375
 21
127.4550161556127
 31
0.0
  0
LINE
  5
4A5
330
E3
100
AcDbEntity
  8
0
  6
Continuous
100
AcDbLine
 10
153.5837645266375
 20
127.4550161556127
 30
0.0
 11
153.5717967716154
 21
127.4473528607656
 31
0.0
  0
LINE
  5
4A6
330
E3
100
AcDbEntity
  8
0
  6
Continuous
100
AcDbLine
 10
153.5717967716154
 20
127.4473528607656
 30
0.0
 11
153.5634488303468
 21
127.4403233722593
 31
0.0
  0
LINE
  5
4A7
330
E3
100
AcDbEntity
  8
0
  6
Continuous
100
AcDbLine
 10
153.5634488303468
 20
127.4403233722593
 30
0.0
 11
153.5587917881865
 21
127.4339467972654
 31
0.0
  0
LINE
  5
4A8
330
E3
100
AcDbEntity
  8
0
  6
Continuous
100
AcDbLine
 10
153.5587917881865
 20
127.4339467972654
 30
0.0
 11
153.5578681380237
 21
127.4282281474865
 31
0.0
  0
LINE
  5
4A9
330
E3
100
AcDbEntity
  8
0
  6
Continuous
100
AcDbLine
 10
154.5768793199703
 20
127.4078990404693
 30
0.0
 11
154.5759556698076
 21
127.4021803906905
 31
0.0
  0
LINE
  5
4AA
330
E3
100
AcDbEntity
  8
0
  6
Continuous
100
AcDbLine
 10
154.5759556698076
 20
127.4021803906905
 30
0.0
 11
154.5712987891571
 21
127.3958034716514
 31
0.0
  0
LINE
  5
4AB
330
E3
100
AcDbEntity
  8
0
  6
Continuous
100
AcDbLine
 10
154.5712987891571
 20
127.3958034716514
 30
0.0
 11
154.5629512616663
 21
127.3887749196593
 31
0.0
  0
LINE
  5
4AC
330
E3
100
AcDbEntity
  8
0
  6
Continuous
100
AcDbLine
 10
154.5629512616663
 20
127.3887749196593
 30
0.0
 11
154.5509835066441
 21
127.3811082354735
 31
0.0
  0
LINE
  5
4AD
330
E3
100
AcDbEntity
  8
0
  6
Continuous
100
AcDbLine
 10
154.5509835066441
 20
127.3811082354735
 30
0.0
 11
154.5354942286915
 21
127.3728246916406
 31
0.0
  0
LINE
  5
4AE
330
E3
100
AcDbEntity
  8
0
  6
Continuous
100
AcDbLine
 10
154.5354942286915
 20
127.3728246916406
 30
0.0
 11
154.5166088333409
 21
127.3639378455155
 31
0.0
  0
LINE
  5
4AF
330
E3
100
AcDbEntity
  8
0
  6
Continuous
100
AcDbLine
 10
154.5166088333409
 20
127.3639378455155
 30
0.0
 11
154.4944798408347
 21
127.3544782011466
 31
0.0
  0
LINE
  5
4B0
330
E3
100
AcDbEntity
  8
0
  6
Continuous
100
AcDbLine
 10
154.4944798408347
 20
127.3544782011466
 30
0.0
 11
154.4692801074479
 21
127.3444796519211
 31
0.0
  0
LINE
  5
4B1
330
E3
100
AcDbEntity
  8
0
  6
Continuous
100
AcDbLine
 10
154.4692801074479
 20
127.3444796519211
 30
0.0
 11
154.4412096041648
 21
127.3339760912263
 31
0.0
  0
LINE
  5
4B2
330
E3
100
AcDbEntity
  8
0
  6
Continuous
100
AcDbLine
 10
154.4412096041648
 20
127.3339760912263
 30
0.0
 11
154.4104886380022
 21
127.3230014124493
 31
0.0
  0
LINE
  5
4B3
330
E3
100
AcDbEntity
  8
0
  6
Continuous
100
AcDbLine
 10
154.4104886380022
 20
127.3230014124493
 30
0.0
 11
154.3773578520093
 21
127.3116030663323
 31
0.0
  0
LINE
  5
4B4
330
E3
100
AcDbEntity
  8
0
  6
Continuous
100
AcDbLine
 10
154.3773578520093
 20
127.3116030663323
 30
0.0
 11
154.3420782252677
 21
127.2998285036173
 31
0.0
  0
LINE
  5
4B5
330
E3
100
AcDbEntity
  8
0
  6
Continuous
100
AcDbLine
 10
154.3420782252677
 20
127.2998285036173
 30
0.0
 11
154.3049242942135
 21
127.2877217857077
 31
0.0
  0
LINE
  5
4B6
330
E3
100
AcDbEntity
  8
0
  6
Continuous
100
AcDbLine
 10
154.3049242942135
 20
127.2877217857077
 30
0.0
 11
154.266187541977
 21
127.2753337526843
 31
0.0
  0
LINE
  5
4B7
330
E3
100
AcDbEntity
  8
0
  6
Continuous
100
AcDbLine
 10
154.266187541977
 20
127.2753337526843
 30
0.0
 11
154.2261696197041
 21
127.2627220233053
 31
0.0
  0
LINE
  5
4B8
330
E3
100
AcDbEntity
  8
0
  6
Continuous
100
AcDbLine
 10
154.2261696197041
 20
127.2627220233053
 30
0.0
 11
154.1851823465572
 21
127.2499408269903
 31
0.0
  0
LINE
  5
4B9
330
E3
100
AcDbEntity
  8
0
  6
Continuous
100
AcDbLine
 10
154.1851823465572
 20
127.2499408269903
 30
0.0
 11
154.1435443203759
 21
127.2370410038201
 31
0.0
  0
LINE
  5
4BA
330
E3
100
AcDbEntity
  8
0
  6
Continuous
100
AcDbLine
 10
154.1435443203759
 20
127.2370410038201
 30
0.0
 11
154.1015775283387
 21
127.2240869512304
 31
0.0
  0
LINE
  5
4BB
330
E3
100
AcDbEntity
  8
0
  6
Continuous
100
AcDbLine
 10
154.1015775283387
 20
127.2240869512304
 30
0.0
 11
154.0596107363015
 21
127.2111295093019
 31
0.0
  0
LINE
  5
4BC
330
E3
100
AcDbEntity
  8
0
  6
Continuous
100
AcDbLine
 10
154.0596107363015
 20
127.2111295093019
 30
0.0
 11
154.0179727101202
 21
127.1982330754704
 31
0.0
  0
LINE
  5
4BD
330
E3
100
AcDbEntity
  8
0
  6
Continuous
100
AcDbLine
 10
154.0179727101202
 20
127.1982330754704
 30
0.0
 11
153.9769854369733
 21
127.1854484898167
 31
0.0
  0
LINE
  5
4BE
330
E3
100
AcDbEntity
  8
0
  6
Continuous
100
AcDbLine
 10
153.9769854369733
 20
127.1854484898167
 30
0.0
 11
153.9369641253616
 21
127.1728367604377
 31
0.0
  0
LINE
  5
4BF
330
E3
100
AcDbEntity
  8
0
  6
Continuous
100
AcDbLine
 10
153.9369641253616
 20
127.1728367604377
 30
0.0
 11
153.8982273731251
 21
127.1604521167531
 31
0.0
  0
LINE
  5
4C0
330
E3
100
AcDbEntity
  8
0
  6
Continuous
100
AcDbLine
 10
153.8982273731251
 20
127.1604521167531
 30
0.0
 11
153.8610768314097
 21
127.1483453988435
 31
0.0
  0
LINE
  5
4C1
330
E3
100
AcDbEntity
  8
0
  6
Continuous
100
AcDbLine
 10
153.8610768314097
 20
127.1483453988435
 30
0.0
 11
153.8257972046681
 21
127.1365674467897
 31
0.0
  0
LINE
  5
4C2
330
E3
100
AcDbEntity
  8
0
  6
Continuous
100
AcDbLine
 10
153.8257972046681
 20
127.1365674467897
 30
0.0
 11
153.7926664186752
 21
127.1251724900114
 31
0.0
  0
LINE
  5
4C3
330
E3
100
AcDbEntity
  8
0
  6
Continuous
100
AcDbLine
 10
153.7926664186752
 20
127.1251724900114
 30
0.0
 11
153.7619454525127
 21
127.1141978112344
 31
0.0
  0
LINE
  5
4C4
330
E3
100
AcDbEntity
  8
0
  6
Continuous
100
AcDbLine
 10
153.7619454525127
 20
127.1141978112344
 30
0.0
 11
153.7338749492295
 21
127.1036942505396
 31
0.0
  0
LINE
  5
4C5
330
E3
100
AcDbEntity
  8
0
  6
Continuous
100
AcDbLine
 10
153.7338749492295
 20
127.1036942505396
 30
0.0
 11
153.7086752158426
 21
127.0936923119755
 31
0.0
  0
LINE
  5
4C6
330
E3
100
AcDbEntity
  8
0
  6
Continuous
100
AcDbLine
 10
153.7086752158426
 20
127.0936923119755
 30
0.0
 11
153.6865428339978
 21
127.0842360569453
 31
0.0
  0
LINE
  5
4C7
330
E3
100
AcDbEntity
  8
0
  6
Continuous
100
AcDbLine
 10
153.6865428339978
 20
127.0842360569453
 30
0.0
 11
153.6676574386472
 21
127.0753492108201
 31
0.0
  0
LINE
  5
4C8
330
E3
100
AcDbEntity
  8
0
  6
Continuous
100
AcDbLine
 10
153.6676574386472
 20
127.0753492108201
 30
0.0
 11
153.6521715500332
 21
127.0670622776485
 31
0.0
  0
LINE
  5
4C9
330
E3
100
AcDbEntity
  8
0
  6
Continuous
100
AcDbLine
 10
153.6521715500332
 20
127.0670622776485
 30
0.0
 11
153.6402037950111
 21
127.0593955934627
 31
0.0
  0
LINE
  5
4CA
330
E3
100
AcDbEntity
  8
0
  6
Continuous
100
AcDbLine
 10
153.6402037950111
 20
127.0593955934627
 30
0.0
 11
153.6318558537426
 21
127.0523694942952
 31
0.0
  0
LINE
  5
4CB
330
E3
100
AcDbEntity
  8
0
  6
Continuous
100
AcDbLine
 10
153.6318558537426
 20
127.0523694942952
 30
0.0
 11
153.6271986460553
 21
127.0459922278969
 31
0.0
  0
LINE
  5
4CC
330
E3
100
AcDbEntity
  8
0
  6
Continuous
100
AcDbLine
 10
153.6271986460553
 20
127.0459922278969
 30
0.0
 11
153.6262749958925
 21
127.0402735781181
 31
0.0
  0
LINE
  5
4CD
330
E3
100
AcDbEntity
  8
0
  6
Continuous
100
AcDbLine
 10
154.6452861778392
 20
127.0199444711008
 30
0.0
 11
154.6443625276764
 21
127.014225821322
 31
0.0
  0
LINE
  5
4CE
330
E3
100
AcDbEntity
  8
0
  6
Continuous
100
AcDbLine
 10
154.6443625276764
 20
127.014225821322
 30
0.0
 11
154.6397056470259
 21
127.007848902283
 31
0.0
  0
LINE
  5
4CF
330
E3
100
AcDbEntity
  8
0
  6
Continuous
100
AcDbLine
 10
154.6397056470259
 20
127.007848902283
 30
0.0
 11
154.631358285062
 21
127.0008210416951
 31
0.0
  0
LINE
  5
4D0
330
E3
100
AcDbEntity
  8
0
  6
Continuous
100
AcDbLine
 10
154.631358285062
 20
127.0008210416951
 30
0.0
 11
154.6193905300399
 21
126.9931543575094
 31
0.0
  0
LINE
  5
4D1
330
E3
100
AcDbEntity
  8
0
  6
Continuous
100
AcDbLine
 10
154.6193905300399
 20
126.9931543575094
 30
0.0
 11
154.6039012520873
 21
126.9848674243378
 31
0.0
  0
LINE
  5
4D2
330
E3
100
AcDbEntity
  8
0
  6
Continuous
100
AcDbLine
 10
154.6039012520873
 20
126.9848674243378
 30
0.0
 11
154.5850158567366
 21
126.9759839675513
 31
0.0
  0
LINE
  5
4D3
330
E3
100
AcDbEntity
  8
0
  6
Continuous
100
AcDbLine
 10
154.5850158567366
 20
126.9759839675513
 30
0.0
 11
154.5628868642305
 21
126.9665243231825
 31
0.0
  0
LINE
  5
4D4
330
E3
100
AcDbEntity
  8
0
  6
Continuous
100
AcDbLine
 10
154.5628868642305
 20
126.9665243231825
 30
0.0
 11
154.5376871308436
 21
126.956525773957
 31
0.0
  0
LINE
  5
4D5
330
E3
100
AcDbEntity
  8
0
  6
Continuous
100
AcDbLine
 10
154.5376871308436
 20
126.956525773957
 30
0.0
 11
154.5096166275605
 21
126.9460188239234
 31
0.0
  0
LINE
  5
4D6
330
E3
100
AcDbEntity
  8
0
  6
Continuous
100
AcDbLine
 10
154.5096166275605
 20
126.9460188239234
 30
0.0
 11
154.4788956613979
 21
126.9350475344852
 31
0.0
  0
LINE
  5
4D7
330
E3
100
AcDbEntity
  8
0
  6
Continuous
100
AcDbLine
 10
154.4788956613979
 20
126.9350475344852
 30
0.0
 11
154.4457648754051
 21
126.9236491883682
 31
0.0
  0
LINE
  5
4D8
330
E3
100
AcDbEntity
  8
0
  6
Continuous
100
AcDbLine
 10
154.4457648754051
 20
126.9236491883682
 30
0.0
 11
154.4104852486634
 21
126.9118746256532
 31
0.0
  0
LINE
  5
4D9
330
E3
100
AcDbEntity
  8
0
  6
Continuous
100
AcDbLine
 10
154.4104852486634
 20
126.9118746256532
 30
0.0
 11
154.3733313176094
 21
126.8997679077435
 31
0.0
  0
LINE
  5
4DA
330
E3
100
AcDbEntity
  8
0
  6
Continuous
100
AcDbLine
 10
154.3733313176094
 20
126.8997679077435
 30
0.0
 11
154.3345945653728
 21
126.8873798747201
 31
0.0
  0
LINE
  5
4DB
330
E3
100
AcDbEntity
  8
0
  6
Continuous
100
AcDbLine
 10
154.3345945653728
 20
126.8873798747201
 30
0.0
 11
154.2945766430999
 21
126.8747681453412
 31
0.0
  0
LINE
  5
4DC
330
E3
100
AcDbEntity
  8
0
  6
Continuous
100
AcDbLine
 10
154.2945766430999
 20
126.8747681453412
 30
0.0
 11
154.2535893699529
 21
126.8619835596874
 31
0.0
  0
LINE
  5
4DD
330
E3
100
AcDbEntity
  8
0
  6
Continuous
100
AcDbLine
 10
154.2535893699529
 20
126.8619835596874
 30
0.0
 11
154.2119513437716
 21
126.849087125856
 31
0.0
  0
LINE
  5
4DE
330
E3
100
AcDbEntity
  8
0
  6
Continuous
100
AcDbLine
 10
154.2119513437716
 20
126.849087125856
 30
0.0
 11
154.1699845517345
 21
126.8361330732662
 31
0.0
  0
LINE
  5
4DF
330
E3
100
AcDbEntity
  8
0
  6
Continuous
100
AcDbLine
 10
154.1699845517345
 20
126.8361330732662
 30
0.0
 11
154.1280177596973
 21
126.8231756313378
 31
0.0
  0
LINE
  5
4E0
330
E3
100
AcDbEntity
  8
0
  6
Continuous
100
AcDbLine
 10
154.1280177596973
 20
126.8231756313378
 30
0.0
 11
154.086379733516
 21
126.8102791975063
 31
0.0
  0
LINE
  5
4E1
330
E3
100
AcDbEntity
  8
0
  6
Continuous
100
AcDbLine
 10
154.086379733516
 20
126.8102791975063
 30
0.0
 11
154.045392460369
 21
126.7974946118526
 31
0.0
  0
LINE
  5
4E2
330
E3
100
AcDbEntity
  8
0
  6
Continuous
100
AcDbLine
 10
154.045392460369
 20
126.7974946118526
 30
0.0
 11
154.0053711487574
 21
126.7848828824736
 31
0.0
  0
LINE
  5
4E3
330
E3
100
AcDbEntity
  8
0
  6
Continuous
100
AcDbLine
 10
154.0053711487574
 20
126.7848828824736
 30
0.0
 11
153.9666343965209
 21
126.7724982387889
 31
0.0
  0
LINE
  5
4E4
330
E3
100
AcDbEntity
  8
0
  6
Continuous
100
AcDbLine
 10
153.9666343965209
 20
126.7724982387889
 30
0.0
 11
153.9294838548055
 21
126.7603915208793
 31
0.0
  0
LINE
  5
4E5
330
E3
100
AcDbEntity
  8
0
  6
Continuous
100
AcDbLine
 10
153.9294838548055
 20
126.7603915208793
 30
0.0
 11
153.8942042280639
 21
126.7486135688256
 31
0.0
  0
LINE
  5
4E6
330
E3
100
AcDbEntity
  8
0
  6
Continuous
100
AcDbLine
 10
153.8942042280639
 20
126.7486135688256
 30
0.0
 11
153.861073442071
 21
126.7372152227085
 31
0.0
  0
LINE
  5
4E7
330
E3
100
AcDbEntity
  8
0
  6
Continuous
100
AcDbLine
 10
153.861073442071
 20
126.7372152227085
 30
0.0
 11
153.8303524759084
 21
126.7262439332703
 31
0.0
  0
LINE
  5
4E8
330
E3
100
AcDbEntity
  8
0
  6
Continuous
100
AcDbLine
 10
153.8303524759084
 20
126.7262439332703
 30
0.0
 11
153.8022819726253
 21
126.7157369832368
 31
0.0
  0
LINE
  5
4E9
330
E3
100
AcDbEntity
  8
0
  6
Continuous
100
AcDbLine
 10
153.8022819726253
 20
126.7157369832368
 30
0.0
 11
153.7770822392384
 21
126.7057384340113
 31
0.0
  0
LINE
  5
4EA
330
E3
100
AcDbEntity
  8
0
  6
Continuous
100
AcDbLine
 10
153.7770822392384
 20
126.7057384340113
 30
0.0
 11
153.7549498573936
 21
126.6962821789811
 31
0.0
  0
LINE
  5
4EB
330
E3
100
AcDbEntity
  8
0
  6
Continuous
100
AcDbLine
 10
153.7549498573936
 20
126.6962821789811
 30
0.0
 11
153.736064462043
 21
126.687395332856
 31
0.0
  0
LINE
  5
4EC
330
E3
100
AcDbEntity
  8
0
  6
Continuous
100
AcDbLine
 10
153.736064462043
 20
126.687395332856
 30
0.0
 11
153.720578573429
 21
126.6791083996844
 31
0.0
  0
LINE
  5
4ED
330
E3
100
AcDbEntity
  8
0
  6
Continuous
100
AcDbLine
 10
153.720578573429
 20
126.6791083996844
 30
0.0
 11
153.7086108184069
 21
126.6714417154986
 31
0.0
  0
LINE
  5
4EE
330
E3
100
AcDbEntity
  8
0
  6
Continuous
100
AcDbLine
 10
153.7086108184069
 20
126.6714417154986
 30
0.0
 11
153.7002628771383
 21
126.664415616331
 31
0.0
  0
LINE
  5
4EF
330
E3
100
AcDbEntity
  8
0
  6
Continuous
100
AcDbLine
 10
153.7002628771383
 20
126.664415616331
 30
0.0
 11
153.695605503924
 21
126.6580376585285
 31
0.0
  0
LINE
  5
4F0
330
E3
100
AcDbEntity
  8
0
  6
Continuous
100
AcDbLine
 10
153.695605503924
 20
126.6580376585285
 30
0.0
 11
153.6946818537614
 21
126.6523190087497
 31
0.0
  0
LINE
  5
4F1
330
E3
100
AcDbEntity
  8
0
  6
Continuous
100
AcDbLine
 10
154.713693035708
 20
126.6319899017324
 30
0.0
 11
154.7127693855452
 21
126.6262712519536
 31
0.0
  0
LINE
  5
4F2
330
E3
100
AcDbEntity
  8
0
  6
Continuous
100
AcDbLine
 10
154.7127693855452
 20
126.6262712519536
 30
0.0
 11
154.7081125048947
 21
126.6198943329145
 31
0.0
  0
LINE
  5
4F3
330
E3
100
AcDbEntity
  8
0
  6
Continuous
100
AcDbLine
 10
154.7081125048947
 20
126.6198943329145
 30
0.0
 11
154.6997653084578
 21
126.612867163731
 31
0.0
  0
LINE
  5
4F4
330
E3
100
AcDbEntity
  8
0
  6
Continuous
100
AcDbLine
 10
154.6997653084578
 20
126.612867163731
 30
0.0
 11
154.6877975534357
 21
126.6052004795452
 31
0.0
  0
LINE
  5
4F5
330
E3
100
AcDbEntity
  8
0
  6
Continuous
100
AcDbLine
 10
154.6877975534357
 20
126.6052004795452
 30
0.0
 11
154.6723082754831
 21
126.5969135463736
 31
0.0
  0
LINE
  5
4F6
330
E3
100
AcDbEntity
  8
0
  6
Continuous
100
AcDbLine
 10
154.6723082754831
 20
126.5969135463736
 30
0.0
 11
154.6534228801324
 21
126.5880267002485
 31
0.0
  0
LINE
  5
4F7
330
E3
100
AcDbEntity
  8
0
  6
Continuous
100
AcDbLine
 10
154.6534228801324
 20
126.5880267002485
 30
0.0
 11
154.6312938876263
 21
126.5785704452183
 31
0.0
  0
LINE
  5
4F8
330
E3
100
AcDbEntity
  8
0
  6
Continuous
100
AcDbLine
 10
154.6312938876263
 20
126.5785704452183
 30
0.0
 11
154.6060941542394
 21
126.5685718959928
 31
0.0
  0
LINE
  5
4F9
330
E3
100
AcDbEntity
  8
0
  6
Continuous
100
AcDbLine
 10
154.6060941542394
 20
126.5685718959928
 30
0.0
 11
154.5780236509563
 21
126.5580649459593
 31
0.0
  0
LINE
  5
4FA
330
E3
100
AcDbEntity
  8
0
  6
Continuous
100
AcDbLine
 10
154.5780236509563
 20
126.5580649459593
 30
0.0
 11
154.5473026847937
 21
126.547093656521
 31
0.0
  0
LINE
  5
4FB
330
E3
100
AcDbEntity
  8
0
  6
Continuous
100
AcDbLine
 10
154.5473026847937
 20
126.547093656521
 30
0.0
 11
154.5141718988008
 21
126.535695310404
 31
0.0
  0
LINE
  5
4FC
330
E3
100
AcDbEntity
  8
0
  6
Continuous
100
AcDbLine
 10
154.5141718988008
 20
126.535695310404
 30
0.0
 11
154.4788922720592
 21
126.5239173583503
 31
0.0
  0
LINE
  5
4FD
330
E3
100
AcDbEntity
  8
0
  6
Continuous
100
AcDbLine
 10
154.4788922720592
 20
126.5239173583503
 30
0.0
 11
154.4417383410051
 21
126.5118106404407
 31
0.0
  0
LINE
  5
4FE
330
E3
100
AcDbEntity
  8
0
  6
Continuous
100
AcDbLine
 10
154.4417383410051
 20
126.5118106404407
 30
0.0
 11
154.4030015887686
 21
126.499425996756
 31
0.0
  0
LINE
  5
4FF
330
E3
100
AcDbEntity
  8
0
  6
Continuous
100
AcDbLine
 10
154.4030015887686
 20
126.499425996756
 30
0.0
 11
154.3629836664957
 21
126.486814267377
 31
0.0
  0
LINE
  5
500
330
E3
100
AcDbEntity
  8
0
  6
Continuous
100
AcDbLine
 10
154.3629836664957
 20
126.486814267377
 30
0.0
 11
154.3219963933487
 21
126.4740296817233
 31
0.0
  0
LINE
  5
501
330
E3
100
AcDbEntity
  8
0
  6
Continuous
100
AcDbLine
 10
154.3219963933487
 20
126.4740296817233
 30
0.0
 11
154.2803549778287
 21
126.4611332478918
 31
0.0
  0
LINE
  5
502
330
E3
100
AcDbEntity
  8
0
  6
Continuous
100
AcDbLine
 10
154.2803549778287
 20
126.4611332478918
 30
0.0
 11
154.2383915751303
 21
126.4481758059633
 31
0.0
  0
LINE
  5
503
330
E3
100
AcDbEntity
  8
0
  6
Continuous
100
AcDbLine
 10
154.2383915751303
 20
126.4481758059633
 30
0.0
 11
154.196424783093
 21
126.4352217533736
 31
0.0
  0
LINE
  5
504
330
E3
100
AcDbEntity
  8
0
  6
Continuous
100
AcDbLine
 10
154.196424783093
 20
126.4352217533736
 30
0.0
 11
154.1547867569117
 21
126.4223253195421
 31
0.0
  0
LINE
  5
505
330
E3
100
AcDbEntity
  8
0
  6
Continuous
100
AcDbLine
 10
154.1547867569117
 20
126.4223253195421
 30
0.0
 11
154.113796094426
 21
126.4095407338884
 31
0.0
  0
LINE
  5
506
330
E3
100
AcDbEntity
  8
0
  6
Continuous
100
AcDbLine
 10
154.113796094426
 20
126.4095407338884
 30
0.0
 11
154.0737781721532
 21
126.3969290045095
 31
0.0
  0
LINE
  5
507
330
E3
100
AcDbEntity
  8
0
  6
Continuous
100
AcDbLine
 10
154.0737781721532
 20
126.3969290045095
 30
0.0
 11
154.0350414199166
 21
126.384540971486
 31
0.0
  0
LINE
  5
508
330
E3
100
AcDbEntity
  8
0
  6
Continuous
100
AcDbLine
 10
154.0350414199166
 20
126.384540971486
 30
0.0
 11
153.9978908782012
 21
126.3724342535764
 31
0.0
  0
LINE
  5
509
330
E3
100
AcDbEntity
  8
0
  6
Continuous
100
AcDbLine
 10
153.9978908782012
 20
126.3724342535764
 30
0.0
 11
153.9626112514596
 21
126.3606596908614
 31
0.0
  0
LINE
  5
50A
330
E3
100
AcDbEntity
  8
0
  6
Continuous
100
AcDbLine
 10
153.9626112514596
 20
126.3606596908614
 30
0.0
 11
153.9294804654668
 21
126.3492613447444
 31
0.0
  0
LINE
  5
50B
330
E3
100
AcDbEntity
  8
0
  6
Continuous
100
AcDbLine
 10
153.9294804654668
 20
126.3492613447444
 30
0.0
 11
153.8987594993042
 21
126.3382900553061
 31
0.0
  0
LINE
  5
50C
330
E3
100
AcDbEntity
  8
0
  6
Continuous
100
AcDbLine
 10
153.8987594993042
 20
126.3382900553061
 30
0.0
 11
153.8706889960211
 21
126.3277831052726
 31
0.0
  0
LINE
  5
50D
330
E3
100
AcDbEntity
  8
0
  6
Continuous
100
AcDbLine
 10
153.8706889960211
 20
126.3277831052726
 30
0.0
 11
153.8454892626342
 21
126.3177845560471
 31
0.0
  0
LINE
  5
50E
330
E3
100
AcDbEntity
  8
0
  6
Continuous
100
AcDbLine
 10
153.8454892626342
 20
126.3177845560471
 30
0.0
 11
153.8233568807893
 21
126.3083249116782
 31
0.0
  0
LINE
  5
50F
330
E3
100
AcDbEntity
  8
0
  6
Continuous
100
AcDbLine
 10
153.8233568807893
 20
126.3083249116782
 30
0.0
 11
153.8044714854387
 21
126.2994414548918
 31
0.0
  0
LINE
  5
510
330
E3
100
AcDbEntity
  8
0
  6
Continuous
100
AcDbLine
 10
153.8044714854387
 20
126.2994414548918
 30
0.0
 11
153.7889855968248
 21
126.2911545217202
 31
0.0
  0
LINE
  5
511
330
E3
100
AcDbEntity
  8
0
  6
Continuous
100
AcDbLine
 10
153.7889855968248
 20
126.2911545217202
 30
0.0
 11
153.7770178418027
 21
126.2834878375345
 31
0.0
  0
LINE
  5
512
330
E3
100
AcDbEntity
  8
0
  6
Continuous
100
AcDbLine
 10
153.7770178418027
 20
126.2834878375345
 30
0.0
 11
153.7686699005341
 21
126.2764583490281
 31
0.0
  0
LINE
  5
513
330
E3
100
AcDbEntity
  8
0
  6
Continuous
100
AcDbLine
 10
153.7686699005341
 20
126.2764583490281
 30
0.0
 11
153.7640123617928
 21
126.27008308916
 31
0.0
  0
LINE
  5
514
330
E3
100
AcDbEntity
  8
0
  6
Continuous
100
AcDbLine
 10
153.7640123617928
 20
126.27008308916
 30
0.0
 11
153.7630887116301
 21
126.2643644393812
 31
0.0
  0
LINE
  5
515
330
E3
100
AcDbEntity
  8
0
  6
Continuous
100
AcDbLine
 10
154.7820998935767
 20
126.2440353323639
 30
0.0
 11
154.781176243414
 21
126.2383166825851
 31
0.0
  0
LINE
  5
516
330
E3
100
AcDbEntity
  8
0
  6
Continuous
100
AcDbLine
 10
154.781176243414
 20
126.2383166825851
 30
0.0
 11
154.7765193627635
 21
126.2319397635461
 31
0.0
  0
LINE
  5
517
330
E3
100
AcDbEntity
  8
0
  6
Continuous
100
AcDbLine
 10
154.7765193627635
 20
126.2319397635461
 30
0.0
 11
154.7681723318535
 21
126.2249132857668
 31
0.0
  0
LINE
  5
518
330
E3
100
AcDbEntity
  8
0
  6
Continuous
100
AcDbLine
 10
154.7681723318535
 20
126.2249132857668
 30
0.0
 11
154.7562045768315
 21
126.2172466015811
 31
0.0
  0
LINE
  5
519
330
E3
100
AcDbEntity
  8
0
  6
Continuous
100
AcDbLine
 10
154.7562045768315
 20
126.2172466015811
 30
0.0
 11
154.7407152988788
 21
126.2089596684094
 31
0.0
  0
LINE
  5
51A
330
E3
100
AcDbEntity
  8
0
  6
Continuous
100
AcDbLine
 10
154.7407152988788
 20
126.2089596684094
 30
0.0
 11
154.7218299035282
 21
126.2000728222843
 31
0.0
  0
LINE
  5
51B
330
E3
100
AcDbEntity
  8
0
  6
Continuous
100
AcDbLine
 10
154.7218299035282
 20
126.2000728222843
 30
0.0
 11
154.6997009110221
 21
126.1906165672541
 31
0.0
  0
LINE
  5
51C
330
E3
100
AcDbEntity
  8
0
  6
Continuous
100
AcDbLine
 10
154.6997009110221
 20
126.1906165672541
 30
0.0
 11
154.6745011776352
 21
126.1806146286899
 31
0.0
  0
LINE
  5
51D
330
E3
100
AcDbEntity
  8
0
  6
Continuous
100
AcDbLine
 10
154.6745011776352
 20
126.1806146286899
 30
0.0
 11
154.6464306743521
 21
126.1701110679951
 31
0.0
  0
LINE
  5
51E
330
E3
100
AcDbEntity
  8
0
  6
Continuous
100
AcDbLine
 10
154.6464306743521
 20
126.1701110679951
 30
0.0
 11
154.6157097081895
 21
126.1591397785569
 31
0.0
  0
LINE
  5
51F
330
E3
100
AcDbEntity
  8
0
  6
Continuous
100
AcDbLine
 10
154.6157097081895
 20
126.1591397785569
 30
0.0
 11
154.5825789221966
 21
126.1477414324398
 31
0.0
  0
LINE
  5
520
330
E3
100
AcDbEntity
  8
0
  6
Continuous
100
AcDbLine
 10
154.5825789221966
 20
126.1477414324398
 30
0.0
 11
154.547299295455
 21
126.1359634803861
 31
0.0
  0
LINE
  5
521
330
E3
100
AcDbEntity
  8
0
  6
Continuous
100
AcDbLine
 10
154.547299295455
 20
126.1359634803861
 30
0.0
 11
154.5101453644009
 21
126.1238567624765
 31
0.0
  0
LINE
  5
522
330
E3
100
AcDbEntity
  8
0
  6
Continuous
100
AcDbLine
 10
154.5101453644009
 20
126.1238567624765
 30
0.0
 11
154.4714086121643
 21
126.1114721187918
 31
0.0
  0
LINE
  5
523
330
E3
100
AcDbEntity
  8
0
  6
Continuous
100
AcDbLine
 10
154.4714086121643
 20
126.1114721187918
 30
0.0
 11
154.4313906898915
 21
126.0988603894128
 31
0.0
  0
LINE
  5
524
330
E3
100
AcDbEntity
  8
0
  6
Continuous
100
AcDbLine
 10
154.4313906898915
 20
126.0988603894128
 30
0.0
 11
154.3904034167445
 21
126.0860758037591
 31
0.0
  0
LINE
  5
525
330
E3
100
AcDbEntity
  8
0
  6
Continuous
100
AcDbLine
 10
154.3904034167445
 20
126.0860758037591
 30
0.0
 11
154.3487620012245
 21
126.0731793699277
 31
0.0
  0
LINE
  5
526
330
E3
100
AcDbEntity
  8
0
  6
Continuous
100
AcDbLine
 10
154.3487620012245
 20
126.0731793699277
 30
0.0
 11
154.306798598526
 21
126.0602219279992
 31
0.0
  0
LINE
  5
527
330
E3
100
AcDbEntity
  8
0
  6
Continuous
100
AcDbLine
 10
154.306798598526
 20
126.0602219279992
 30
0.0
 11
154.2648318064888
 21
126.0472678754095
 31
0.0
  0
LINE
  5
528
330
E3
100
AcDbEntity
  8
0
  6
Continuous
100
AcDbLine
 10
154.2648318064888
 20
126.0472678754095
 30
0.0
 11
154.2231937803075
 21
126.0343680522392
 31
0.0
  0
LINE
  5
529
330
E3
100
AcDbEntity
  8
0
  6
Continuous
100
AcDbLine
 10
154.2231937803075
 20
126.0343680522392
 30
0.0
 11
154.1822031178218
 21
126.0215868559243
 31
0.0
  0
LINE
  5
52A
330
E3
100
AcDbEntity
  8
0
  6
Continuous
100
AcDbLine
 10
154.1822031178218
 20
126.0215868559243
 30
0.0
 11
154.142185195549
 21
126.0089751265453
 31
0.0
  0
LINE
  5
52B
330
E3
100
AcDbEntity
  8
0
  6
Continuous
100
AcDbLine
 10
154.142185195549
 20
126.0089751265453
 30
0.0
 11
154.1034484433124
 21
125.9965870935219
 31
0.0
  0
LINE
  5
52C
330
E3
100
AcDbEntity
  8
0
  6
Continuous
100
AcDbLine
 10
154.1034484433124
 20
125.9965870935219
 30
0.0
 11
154.066297901597
 21
125.9844803756123
 31
0.0
  0
LINE
  5
52D
330
E3
100
AcDbEntity
  8
0
  6
Continuous
100
AcDbLine
 10
154.066297901597
 20
125.9844803756123
 30
0.0
 11
154.0310182748554
 21
125.9727058128973
 31
0.0
  0
LINE
  5
52E
330
E3
100
AcDbEntity
  8
0
  6
Continuous
100
AcDbLine
 10
154.0310182748554
 20
125.9727058128973
 30
0.0
 11
153.9978874888626
 21
125.9613074667803
 31
0.0
  0
LINE
  5
52F
330
E3
100
AcDbEntity
  8
0
  6
Continuous
100
AcDbLine
 10
153.9978874888626
 20
125.9613074667803
 30
0.0
 11
153.9671665227
 21
125.9503327880033
 31
0.0
  0
LINE
  5
530
330
E3
100
AcDbEntity
  8
0
  6
Continuous
100
AcDbLine
 10
153.9671665227
 20
125.9503327880033
 30
0.0
 11
153.9390960194168
 21
125.9398292273085
 31
0.0
  0
LINE
  5
531
330
E3
100
AcDbEntity
  8
0
  6
Continuous
100
AcDbLine
 10
153.9390960194168
 20
125.9398292273085
 30
0.0
 11
153.9138962860299
 21
125.929830678083
 31
0.0
  0
LINE
  5
532
330
E3
100
AcDbEntity
  8
0
  6
Continuous
100
AcDbLine
 10
153.9138962860299
 20
125.929830678083
 30
0.0
 11
153.8917639041851
 21
125.9203710337141
 31
0.0
  0
LINE
  5
533
330
E3
100
AcDbEntity
  8
0
  6
Continuous
100
AcDbLine
 10
153.8917639041851
 20
125.9203710337141
 30
0.0
 11
153.8728785088345
 21
125.9114875769277
 31
0.0
  0
LINE
  5
534
330
E3
100
AcDbEntity
  8
0
  6
Continuous
100
AcDbLine
 10
153.8728785088345
 20
125.9114875769277
 30
0.0
 11
153.8573892308818
 21
125.903200643756
 31
0.0
  0
LINE
  5
535
330
E3
100
AcDbEntity
  8
0
  6
Continuous
100
AcDbLine
 10
153.8573892308818
 20
125.903200643756
 30
0.0
 11
153.8454248651985
 21
125.8955339595703
 31
0.0
  0
LINE
  5
536
330
E3
100
AcDbEntity
  8
0
  6
Continuous
100
AcDbLine
 10
153.8454248651985
 20
125.8955339595703
 30
0.0
 11
153.8370769239299
 21
125.888504471064
 31
0.0
  0
LINE
  5
537
330
E3
100
AcDbEntity
  8
0
  6
Continuous
100
AcDbLine
 10
153.8370769239299
 20
125.888504471064
 30
0.0
 11
153.8324192196616
 21
125.8821285197916
 31
0.0
  0
LINE
  5
538
330
E3
100
AcDbEntity
  8
0
  6
Continuous
100
AcDbLine
 10
153.8324192196616
 20
125.8821285197916
 30
0.0
 11
153.8314955694989
 21
125.8764098700128
 31
0.0
  0
LINE
  5
539
330
E3
100
AcDbEntity
  8
0
  6
Continuous
100
AcDbLine
 10
154.8505067514455
 20
125.8560807629955
 30
0.0
 11
154.8495831012828
 21
125.8503621132166
 31
0.0
  0
LINE
  5
53A
330
E3
100
AcDbEntity
  8
0
  6
Continuous
100
AcDbLine
 10
154.8495831012828
 20
125.8503621132166
 30
0.0
 11
154.8449262206323
 21
125.8439851941777
 31
0.0
  0
LINE
  5
53B
330
E3
100
AcDbEntity
  8
0
  6
Continuous
100
AcDbLine
 10
154.8449262206323
 20
125.8439851941777
 30
0.0
 11
154.8365793552494
 21
125.836956018464
 31
0.0
  0
LINE
  5
53C
330
E3
100
AcDbEntity
  8
0
  6
Continuous
100
AcDbLine
 10
154.8365793552494
 20
125.836956018464
 30
0.0
 11
154.8246116002273
 21
125.8292927236169
 31
0.0
  0
LINE
  5
53D
330
E3
100
AcDbEntity
  8
0
  6
Continuous
100
AcDbLine
 10
154.8246116002273
 20
125.8292927236169
 30
0.0
 11
154.8091223222746
 21
125.8210057904453
 31
0.0
  0
LINE
  5
53E
330
E3
100
AcDbEntity
  8
0
  6
Continuous
100
AcDbLine
 10
154.8091223222746
 20
125.8210057904453
 30
0.0
 11
154.790236926924
 21
125.8121189443202
 31
0.0
  0
LINE
  5
53F
330
E3
100
AcDbEntity
  8
0
  6
Continuous
100
AcDbLine
 10
154.790236926924
 20
125.8121189443202
 30
0.0
 11
154.7681079344179
 21
125.80266268929
 31
0.0
  0
LINE
  5
540
330
E3
100
AcDbEntity
  8
0
  6
Continuous
100
AcDbLine
 10
154.7681079344179
 20
125.80266268929
 30
0.0
 11
154.742908201031
 21
125.7926607507258
 31
0.0
  0
LINE
  5
541
330
E3
100
AcDbEntity
  8
0
  6
Continuous
100
AcDbLine
 10
154.742908201031
 20
125.7926607507258
 30
0.0
 11
154.7148343084091
 21
125.782157190031
 31
0.0
  0
LINE
  5
542
330
E3
100
AcDbEntity
  8
0
  6
Continuous
100
AcDbLine
 10
154.7148343084091
 20
125.782157190031
 30
0.0
 11
154.6841133422465
 21
125.771182511254
 31
0.0
  0
LINE
  5
543
330
E3
100
AcDbEntity
  8
0
  6
Continuous
100
AcDbLine
 10
154.6841133422465
 20
125.771182511254
 30
0.0
 11
154.6509859455924
 21
125.7597875544757
 31
0.0
  0
LINE
  5
544
330
E3
100
AcDbEntity
  8
0
  6
Continuous
100
AcDbLine
 10
154.6509859455924
 20
125.7597875544757
 30
0.0
 11
154.6157063188508
 21
125.748009602422
 31
0.0
  0
LINE
  5
545
330
E3
100
AcDbEntity
  8
0
  6
Continuous
100
AcDbLine
 10
154.6157063188508
 20
125.748009602422
 30
0.0
 11
154.5785523877967
 21
125.7359028845124
 31
0.0
  0
LINE
  5
546
330
E3
100
AcDbEntity
  8
0
  6
Continuous
100
AcDbLine
 10
154.5785523877967
 20
125.7359028845124
 30
0.0
 11
154.5398156355601
 21
125.7235182408277
 31
0.0
  0
LINE
  5
547
330
E3
100
AcDbEntity
  8
0
  6
Continuous
100
AcDbLine
 10
154.5398156355601
 20
125.7235182408277
 30
0.0
 11
154.4997977132872
 21
125.71090312211
 31
0.0
  0
LINE
  5
548
330
E3
100
AcDbEntity
  8
0
  6
Continuous
100
AcDbLine
 10
154.4997977132872
 20
125.71090312211
 30
0.0
 11
154.4588104401403
 21
125.698121925795
 31
0.0
  0
LINE
  5
549
330
E3
100
AcDbEntity
  8
0
  6
Continuous
100
AcDbLine
 10
154.4588104401403
 20
125.698121925795
 30
0.0
 11
154.4171690246203
 21
125.6852221026248
 31
0.0
  0
LINE
  5
54A
330
E3
100
AcDbEntity
  8
0
  6
Continuous
100
AcDbLine
 10
154.4171690246203
 20
125.6852221026248
 30
0.0
 11
154.3752056219218
 21
125.672268050035
 31
0.0
  0
LINE
  5
54B
330
E3
100
AcDbEntity
  8
0
  6
Continuous
100
AcDbLine
 10
154.3752056219218
 20
125.672268050035
 30
0.0
 11
154.3332388298846
 21
125.6593139974453
 31
0.0
  0
LINE
  5
54C
330
E3
100
AcDbEntity
  8
0
  6
Continuous
100
AcDbLine
 10
154.3332388298846
 20
125.6593139974453
 30
0.0
 11
154.2916008037033
 21
125.6464141742751
 31
0.0
  0
LINE
  5
54D
330
E3
100
AcDbEntity
  8
0
  6
Continuous
100
AcDbLine
 10
154.2916008037033
 20
125.6464141742751
 30
0.0
 11
154.2506101412176
 21
125.6336329779601
 31
0.0
  0
LINE
  5
54E
330
E3
100
AcDbEntity
  8
0
  6
Continuous
100
AcDbLine
 10
154.2506101412176
 20
125.6336329779601
 30
0.0
 11
154.2105922189447
 21
125.6210178592424
 31
0.0
  0
LINE
  5
54F
330
E3
100
AcDbEntity
  8
0
  6
Continuous
100
AcDbLine
 10
154.2105922189447
 20
125.6210178592424
 30
0.0
 11
154.1718554667082
 21
125.6086332155577
 31
0.0
  0
LINE
  5
550
330
E3
100
AcDbEntity
  8
0
  6
Continuous
100
AcDbLine
 10
154.1718554667082
 20
125.6086332155577
 30
0.0
 11
154.1347015356541
 21
125.5965264976481
 31
0.0
  0
LINE
  5
551
330
E3
100
AcDbEntity
  8
0
  6
Continuous
100
AcDbLine
 10
154.1347015356541
 20
125.5965264976481
 30
0.0
 11
154.0994252982512
 21
125.5847485455944
 31
0.0
  0
LINE
  5
552
330
E3
100
AcDbEntity
  8
0
  6
Continuous
100
AcDbLine
 10
154.0994252982512
 20
125.5847485455944
 30
0.0
 11
154.0662945122583
 21
125.5733535888161
 31
0.0
  0
LINE
  5
553
330
E3
100
AcDbEntity
  8
0
  6
Continuous
100
AcDbLine
 10
154.0662945122583
 20
125.5733535888161
 30
0.0
 11
154.0355735460957
 21
125.5623789100391
 31
0.0
  0
LINE
  5
554
330
E3
100
AcDbEntity
  8
0
  6
Continuous
100
AcDbLine
 10
154.0355735460957
 20
125.5623789100391
 30
0.0
 11
154.0075030428126
 21
125.5518753493443
 31
0.0
  0
LINE
  5
555
330
E3
100
AcDbEntity
  8
0
  6
Continuous
100
AcDbLine
 10
154.0075030428126
 20
125.5518753493443
 30
0.0
 11
153.9823033094257
 21
125.5418734107801
 31
0.0
  0
LINE
  5
556
330
E3
100
AcDbEntity
  8
0
  6
Continuous
100
AcDbLine
 10
153.9823033094257
 20
125.5418734107801
 30
0.0
 11
153.9601709275809
 21
125.5324171557499
 31
0.0
  0
LINE
  5
557
330
E3
100
AcDbEntity
  8
0
  6
Continuous
100
AcDbLine
 10
153.9601709275809
 20
125.5324171557499
 30
0.0
 11
153.9412855322302
 21
125.5235303096248
 31
0.0
  0
LINE
  5
558
330
E3
100
AcDbEntity
  8
0
  6
Continuous
100
AcDbLine
 10
153.9412855322302
 20
125.5235303096248
 30
0.0
 11
153.9257962542776
 21
125.5152433764532
 31
0.0
  0
LINE
  5
559
330
E3
100
AcDbEntity
  8
0
  6
Continuous
100
AcDbLine
 10
153.9257962542776
 20
125.5152433764532
 30
0.0
 11
153.9138318885942
 21
125.5075800816062
 31
0.0
  0
LINE
  5
55A
330
E3
100
AcDbEntity
  8
0
  6
Continuous
100
AcDbLine
 10
153.9138318885942
 20
125.5075800816062
 30
0.0
 11
153.9054839473257
 21
125.5005505930998
 31
0.0
  0
LINE
  5
55B
330
E3
100
AcDbEntity
  8
0
  6
Continuous
100
AcDbLine
 10
153.9054839473257
 20
125.5005505930998
 30
0.0
 11
153.9008260775304
 21
125.4941739504231
 31
0.0
  0
LINE
  5
55C
330
E3
100
AcDbEntity
  8
0
  6
Continuous
100
AcDbLine
 10
153.9008260775304
 20
125.4941739504231
 30
0.0
 11
153.8999024273677
 21
125.4884553006443
 31
0.0
  0
LINE
  5
55D
330
E3
100
AcDbEntity
  8
0
  6
Continuous
100
AcDbLine
 10
154.9189136093143
 20
125.468126193627
 30
0.0
 11
154.9179899591516
 21
125.4624075438482
 31
0.0
  0
LINE
  5
55E
330
E3
100
AcDbEntity
  8
0
  6
Continuous
100
AcDbLine
 10
154.9179899591516
 20
125.4624075438482
 30
0.0
 11
154.913333078501
 21
125.4560306248092
 31
0.0
  0
LINE
  5
55F
330
E3
100
AcDbEntity
  8
0
  6
Continuous
100
AcDbLine
 10
154.913333078501
 20
125.4560306248092
 30
0.0
 11
154.9049863786451
 21
125.4490021404998
 31
0.0
  0
LINE
  5
560
330
E3
100
AcDbEntity
  8
0
  6
Continuous
100
AcDbLine
 10
154.9049863786451
 20
125.4490021404998
 30
0.0
 11
154.893018623623
 21
125.441335456314
 31
0.0
  0
LINE
  5
561
330
E3
100
AcDbEntity
  8
0
  6
Continuous
100
AcDbLine
 10
154.893018623623
 20
125.441335456314
 30
0.0
 11
154.8775293456704
 21
125.4330485231424
 31
0.0
  0
LINE
  5
562
330
E3
100
AcDbEntity
  8
0
  6
Continuous
100
AcDbLine
 10
154.8775293456704
 20
125.4330485231424
 30
0.0
 11
154.8586439503198
 21
125.424165066356
 31
0.0
  0
LINE
  5
563
330
E3
100
AcDbEntity
  8
0
  6
Continuous
100
AcDbLine
 10
154.8586439503198
 20
125.424165066356
 30
0.0
 11
154.8365149578136
 21
125.4147054219871
 31
0.0
  0
LINE
  5
564
330
E3
100
AcDbEntity
  8
0
  6
Continuous
100
AcDbLine
 10
154.8365149578136
 20
125.4147054219871
 30
0.0
 11
154.8113152244267
 21
125.4047068727617
 31
0.0
  0
LINE
  5
565
330
E3
100
AcDbEntity
  8
0
  6
Continuous
100
AcDbLine
 10
154.8113152244267
 20
125.4047068727617
 30
0.0
 11
154.7832413318049
 21
125.3942033120668
 31
0.0
  0
LINE
  5
566
330
E3
100
AcDbEntity
  8
0
  6
Continuous
100
AcDbLine
 10
154.7832413318049
 20
125.3942033120668
 30
0.0
 11
154.7525203656423
 21
125.3832286332898
 31
0.0
  0
LINE
  5
567
330
E3
100
AcDbEntity
  8
0
  6
Continuous
100
AcDbLine
 10
154.7525203656423
 20
125.3832286332898
 30
0.0
 11
154.7193929689882
 21
125.3718302871728
 31
0.0
  0
LINE
  5
568
330
E3
100
AcDbEntity
  8
0
  6
Continuous
100
AcDbLine
 10
154.7193929689882
 20
125.3718302871728
 30
0.0
 11
154.6841133422465
 21
125.3600557244578
 31
0.0
  0
LINE
  5
569
330
E3
100
AcDbEntity
  8
0
  6
Continuous
100
AcDbLine
 10
154.6841133422465
 20
125.3600557244578
 30
0.0
 11
154.6469594111925
 21
125.3479490065482
 31
0.0
  0
LINE
  5
56A
330
E3
100
AcDbEntity
  8
0
  6
Continuous
100
AcDbLine
 10
154.6469594111925
 20
125.3479490065482
 30
0.0
 11
154.6082226589559
 21
125.3355609735248
 31
0.0
  0
LINE
  5
56B
330
E3
100
AcDbEntity
  8
0
  6
Continuous
100
AcDbLine
 10
154.6082226589559
 20
125.3355609735248
 30
0.0
 11
154.568204736683
 21
125.3229492441458
 31
0.0
  0
LINE
  5
56C
330
E3
100
AcDbEntity
  8
0
  6
Continuous
100
AcDbLine
 10
154.568204736683
 20
125.3229492441458
 30
0.0
 11
154.527217463536
 21
125.3101680478308
 31
0.0
  0
LINE
  5
56D
330
E3
100
AcDbEntity
  8
0
  6
Continuous
100
AcDbLine
 10
154.527217463536
 20
125.3101680478308
 30
0.0
 11
154.485576048016
 21
125.2972682246606
 31
0.0
  0
LINE
  5
56E
330
E3
100
AcDbEntity
  8
0
  6
Continuous
100
AcDbLine
 10
154.485576048016
 20
125.2972682246606
 30
0.0
 11
154.4436126453176
 21
125.2843141720709
 31
0.0
  0
LINE
  5
56F
330
E3
100
AcDbEntity
  8
0
  6
Continuous
100
AcDbLine
 10
154.4436126453176
 20
125.2843141720709
 30
0.0
 11
154.4016458532804
 21
125.2713567301424
 31
0.0
  0
LINE
  5
570
330
E3
100
AcDbEntity
  8
0
  6
Continuous
100
AcDbLine
 10
154.4016458532804
 20
125.2713567301424
 30
0.0
 11
154.3600078270991
 21
125.258460296311
 31
0.0
  0
LINE
  5
571
330
E3
100
AcDbEntity
  8
0
  6
Continuous
100
AcDbLine
 10
154.3600078270991
 20
125.258460296311
 30
0.0
 11
154.3190171646134
 21
125.2456757106572
 31
0.0
  0
LINE
  5
572
330
E3
100
AcDbEntity
  8
0
  6
Continuous
100
AcDbLine
 10
154.3190171646134
 20
125.2456757106572
 30
0.0
 11
154.2789992423405
 21
125.2330639812783
 31
0.0
  0
LINE
  5
573
330
E3
100
AcDbEntity
  8
0
  6
Continuous
100
AcDbLine
 10
154.2789992423405
 20
125.2330639812783
 30
0.0
 11
154.240262490104
 21
125.2206793375936
 31
0.0
  0
LINE
  5
574
330
E3
100
AcDbEntity
  8
0
  6
Continuous
100
AcDbLine
 10
154.240262490104
 20
125.2206793375936
 30
0.0
 11
154.2031085590499
 21
125.208572619684
 31
0.0
  0
LINE
  5
575
330
E3
100
AcDbEntity
  8
0
  6
Continuous
100
AcDbLine
 10
154.2031085590499
 20
125.208572619684
 30
0.0
 11
154.1678323216469
 21
125.1967946676302
 31
0.0
  0
LINE
  5
576
330
E3
100
AcDbEntity
  8
0
  6
Continuous
100
AcDbLine
 10
154.1678323216469
 20
125.1967946676302
 30
0.0
 11
154.1347015356541
 21
125.1853963215132
 31
0.0
  0
LINE
  5
577
330
E3
100
AcDbEntity
  8
0
  6
Continuous
100
AcDbLine
 10
154.1347015356541
 20
125.1853963215132
 30
0.0
 11
154.1039805694915
 21
125.174425032075
 31
0.0
  0
LINE
  5
578
330
E3
100
AcDbEntity
  8
0
  6
Continuous
100
AcDbLine
 10
154.1039805694915
 20
125.174425032075
 30
0.0
 11
154.0759100662084
 21
125.1639180820414
 31
0.0
  0
LINE
  5
579
330
E3
100
AcDbEntity
  8
0
  6
Continuous
100
AcDbLine
 10
154.0759100662084
 20
125.1639180820414
 30
0.0
 11
154.0507103328215
 21
125.153919532816
 31
0.0
  0
LINE
  5
57A
330
E3
100
AcDbEntity
  8
0
  6
Continuous
100
AcDbLine
 10
154.0507103328215
 20
125.153919532816
 30
0.0
 11
154.0285779509766
 21
125.1444632777858
 31
0.0
  0
LINE
  5
57B
330
E3
100
AcDbEntity
  8
0
  6
Continuous
100
AcDbLine
 10
154.0285779509766
 20
125.1444632777858
 30
0.0
 11
154.0096925556261
 21
125.1355764316607
 31
0.0
  0
LINE
  5
57C
330
E3
100
AcDbEntity
  8
0
  6
Continuous
100
AcDbLine
 10
154.0096925556261
 20
125.1355764316607
 30
0.0
 11
153.9942032776734
 21
125.127289498489
 31
0.0
  0
LINE
  5
57D
330
E3
100
AcDbEntity
  8
0
  6
Continuous
100
AcDbLine
 10
153.9942032776734
 20
125.127289498489
 30
0.0
 11
153.98223891199
 21
125.1196228143033
 31
0.0
  0
LINE
  5
57E
330
E3
100
AcDbEntity
  8
0
  6
Continuous
100
AcDbLine
 10
153.98223891199
 20
125.1196228143033
 30
0.0
 11
153.9738909707214
 21
125.1125967151357
 31
0.0
  0
LINE
  5
57F
330
E3
100
AcDbEntity
  8
0
  6
Continuous
100
AcDbLine
 10
153.9738909707214
 20
125.1125967151357
 30
0.0
 11
153.9692329353992
 21
125.1062193810547
 31
0.0
  0
LINE
  5
580
330
E3
100
AcDbEntity
  8
0
  6
Continuous
100
AcDbLine
 10
153.9692329353992
 20
125.1062193810547
 30
0.0
 11
153.9683092852365
 21
125.1005007312759
 31
0.0
  0
LINE
  5
581
330
E3
100
AcDbEntity
  8
0
  6
Continuous
100
AcDbLine
 10
154.9873204671831
 20
125.0801716242586
 30
0.0
 11
154.9863968170204
 21
125.0744529744798
 31
0.0
  0
LINE
  5
582
330
E3
100
AcDbEntity
  8
0
  6
Continuous
100
AcDbLine
 10
154.9863968170204
 20
125.0744529744798
 30
0.0
 11
154.9817399363698
 21
125.0680760554407
 31
0.0
  0
LINE
  5
583
330
E3
100
AcDbEntity
  8
0
  6
Continuous
100
AcDbLine
 10
154.9817399363698
 20
125.0680760554407
 30
0.0
 11
154.9733934020409
 21
125.0610482625356
 31
0.0
  0
LINE
  5
584
330
E3
100
AcDbEntity
  8
0
  6
Continuous
100
AcDbLine
 10
154.9733934020409
 20
125.0610482625356
 30
0.0
 11
154.9614256470188
 21
125.0533815783499
 31
0.0
  0
LINE
  5
585
330
E3
100
AcDbEntity
  8
0
  6
Continuous
100
AcDbLine
 10
154.9614256470188
 20
125.0533815783499
 30
0.0
 11
154.9459363690661
 21
125.0450946451783
 31
0.0
  0
LINE
  5
586
330
E3
100
AcDbEntity
  8
0
  6
Continuous
100
AcDbLine
 10
154.9459363690661
 20
125.0450946451783
 30
0.0
 11
154.9270509737155
 21
125.0362111883919
 31
0.0
  0
LINE
  5
587
330
E3
100
AcDbEntity
  8
0
  6
Continuous
100
AcDbLine
 10
154.9270509737155
 20
125.0362111883919
 30
0.0
 11
154.9049219812094
 21
125.026751544023
 31
0.0
  0
LINE
  5
588
330
E3
100
AcDbEntity
  8
0
  6
Continuous
100
AcDbLine
 10
154.9049219812094
 20
125.026751544023
 30
0.0
 11
154.8797222478225
 21
125.0167529947975
 31
0.0
  0
LINE
  5
589
330
E3
100
AcDbEntity
  8
0
  6
Continuous
100
AcDbLine
 10
154.8797222478225
 20
125.0167529947975
 30
0.0
 11
154.8516483552007
 21
125.006246044764
 31
0.0
  0
LINE
  5
58A
330
E3
100
AcDbEntity
  8
0
  6
Continuous
100
AcDbLine
 10
154.8516483552007
 20
125.006246044764
 30
0.0
 11
154.8209273890381
 21
124.9952747553257
 31
0.0
  0
LINE
  5
58B
330
E3
100
AcDbEntity
  8
0
  6
Continuous
100
AcDbLine
 10
154.8209273890381
 20
124.9952747553257
 30
0.0
 11
154.787799992384
 21
124.9838764092087
 31
0.0
  0
LINE
  5
58C
330
E3
100
AcDbEntity
  8
0
  6
Continuous
100
AcDbLine
 10
154.787799992384
 20
124.9838764092087
 30
0.0
 11
154.7525203656423
 21
124.9721018464937
 31
0.0
  0
LINE
  5
58D
330
E3
100
AcDbEntity
  8
0
  6
Continuous
100
AcDbLine
 10
154.7525203656423
 20
124.9721018464937
 30
0.0
 11
154.7153664345882
 21
124.9599951285841
 31
0.0
  0
LINE
  5
58E
330
E3
100
AcDbEntity
  8
0
  6
Continuous
100
AcDbLine
 10
154.7153664345882
 20
124.9599951285841
 30
0.0
 11
154.6766296823517
 21
124.9476070955606
 31
0.0
  0
LINE
  5
58F
330
E3
100
AcDbEntity
  8
0
  6
Continuous
100
AcDbLine
 10
154.6766296823517
 20
124.9476070955606
 30
0.0
 11
154.6366117600788
 21
124.9349953661817
 31
0.0
  0
LINE
  5
590
330
E3
100
AcDbEntity
  8
0
  6
Continuous
100
AcDbLine
 10
154.6366117600788
 20
124.9349953661817
 30
0.0
 11
154.5956244869318
 21
124.9222107805279
 31
0.0
  0
LINE
  5
591
330
E3
100
AcDbEntity
  8
0
  6
Continuous
100
AcDbLine
 10
154.5956244869318
 20
124.9222107805279
 30
0.0
 11
154.5539830714118
 21
124.9093143466965
 31
0.0
  0
LINE
  5
592
330
E3
100
AcDbEntity
  8
0
  6
Continuous
100
AcDbLine
 10
154.5539830714118
 20
124.9093143466965
 30
0.0
 11
154.5120196687133
 21
124.8963602941067
 31
0.0
  0
LINE
  5
593
330
E3
100
AcDbEntity
  8
0
  6
Continuous
100
AcDbLine
 10
154.5120196687133
 20
124.8963602941067
 30
0.0
 11
154.4700528766761
 21
124.8834028521783
 31
0.0
  0
LINE
  5
594
330
E3
100
AcDbEntity
  8
0
  6
Continuous
100
AcDbLine
 10
154.4700528766761
 20
124.8834028521783
 30
0.0
 11
154.4284148504948
 21
124.8705064183468
 31
0.0
  0
LINE
  5
595
330
E3
100
AcDbEntity
  8
0
  6
Continuous
100
AcDbLine
 10
154.4284148504948
 20
124.8705064183468
 30
0.0
 11
154.3874241880092
 21
124.8577218326931
 31
0.0
  0
LINE
  5
596
330
E3
100
AcDbEntity
  8
0
  6
Continuous
100
AcDbLine
 10
154.3874241880092
 20
124.8577218326931
 30
0.0
 11
154.3474062657363
 21
124.8451101033141
 31
0.0
  0
LINE
  5
597
330
E3
100
AcDbEntity
  8
0
  6
Continuous
100
AcDbLine
 10
154.3474062657363
 20
124.8451101033141
 30
0.0
 11
154.3086695134998
 21
124.8327254596294
 31
0.0
  0
LINE
  5
598
330
E3
100
AcDbEntity
  8
0
  6
Continuous
100
AcDbLine
 10
154.3086695134998
 20
124.8327254596294
 30
0.0
 11
154.2715155824457
 21
124.8206187417198
 31
0.0
  0
LINE
  5
599
330
E3
100
AcDbEntity
  8
0
  6
Continuous
100
AcDbLine
 10
154.2715155824457
 20
124.8206187417198
 30
0.0
 11
154.2362393450427
 21
124.8088407896661
 31
0.0
  0
LINE
  5
59A
330
E3
100
AcDbEntity
  8
0
  6
Continuous
100
AcDbLine
 10
154.2362393450427
 20
124.8088407896661
 30
0.0
 11
154.2031085590499
 21
124.7974424435491
 31
0.0
  0
LINE
  5
59B
330
E3
100
AcDbEntity
  8
0
  6
Continuous
100
AcDbLine
 10
154.2031085590499
 20
124.7974424435491
 30
0.0
 11
154.1723875928873
 21
124.7864711541108
 31
0.0
  0
LINE
  5
59C
330
E3
100
AcDbEntity
  8
0
  6
Continuous
100
AcDbLine
 10
154.1723875928873
 20
124.7864711541108
 30
0.0
 11
154.1443170896042
 21
124.7759642040773
 31
0.0
  0
LINE
  5
59D
330
E3
100
AcDbEntity
  8
0
  6
Continuous
100
AcDbLine
 10
154.1443170896042
 20
124.7759642040773
 30
0.0
 11
154.1191173562173
 21
124.7659656548518
 31
0.0
  0
LINE
  5
59E
330
E3
100
AcDbEntity
  8
0
  6
Continuous
100
AcDbLine
 10
154.1191173562173
 20
124.7659656548518
 30
0.0
 11
154.0969849743724
 21
124.7565093998216
 31
0.0
  0
LINE
  5
59F
330
E3
100
AcDbEntity
  8
0
  6
Continuous
100
AcDbLine
 10
154.0969849743724
 20
124.7565093998216
 30
0.0
 11
154.0780995790218
 21
124.7476225536965
 31
0.0
  0
LINE
  5
5A0
330
E3
100
AcDbEntity
  8
0
  6
Continuous
100
AcDbLine
 10
154.0780995790218
 20
124.7476225536965
 30
0.0
 11
154.0626103010692
 21
124.7393356205249
 31
0.0
  0
LINE
  5
5A1
330
E3
100
AcDbEntity
  8
0
  6
Continuous
100
AcDbLine
 10
154.0626103010692
 20
124.7393356205249
 30
0.0
 11
154.050642546047
 21
124.7316689363391
 31
0.0
  0
LINE
  5
5A2
330
E3
100
AcDbEntity
  8
0
  6
Continuous
100
AcDbLine
 10
154.050642546047
 20
124.7316689363391
 30
0.0
 11
154.0422979941172
 21
124.7246428371715
 31
0.0
  0
LINE
  5
5A3
330
E3
100
AcDbEntity
  8
0
  6
Continuous
100
AcDbLine
 10
154.0422979941172
 20
124.7246428371715
 30
0.0
 11
154.037639793268
 21
124.7182648116863
 31
0.0
  0
LINE
  5
5A4
330
E3
100
AcDbEntity
  8
0
  6
Continuous
100
AcDbLine
 10
154.037639793268
 20
124.7182648116863
 30
0.0
 11
154.0367161431053
 21
124.7125461619074
 31
0.0
  0
LINE
  5
5A5
330
E3
100
AcDbEntity
  8
0
  6
Continuous
100
AcDbLine
 10
155.0557273250519
 20
124.6922170548901
 30
0.0
 11
155.0548036748892
 21
124.6864984051113
 31
0.0
  0
LINE
  5
5A6
330
E3
100
AcDbEntity
  8
0
  6
Continuous
100
AcDbLine
 10
155.0548036748892
 20
124.6864984051113
 30
0.0
 11
155.0501467942386
 21
124.6801214860723
 31
0.0
  0
LINE
  5
5A7
330
E3
100
AcDbEntity
  8
0
  6
Continuous
100
AcDbLine
 10
155.0501467942386
 20
124.6801214860723
 30
0.0
 11
155.0418004254366
 21
124.6730943845715
 31
0.0
  0
LINE
  5
5A8
330
E3
100
AcDbEntity
  8
0
  6
Continuous
100
AcDbLine
 10
155.0418004254366
 20
124.6730943845715
 30
0.0
 11
155.0298326704145
 21
124.6654277003857
 31
0.0
  0
LINE
  5
5A9
330
E3
100
AcDbEntity
  8
0
  6
Continuous
100
AcDbLine
 10
155.0298326704145
 20
124.6654277003857
 30
0.0
 11
155.0143433924619
 21
124.6571407672141
 31
0.0
  0
LINE
  5
5AA
330
E3
100
AcDbEntity
  8
0
  6
Continuous
100
AcDbLine
 10
155.0143433924619
 20
124.6571407672141
 30
0.0
 11
154.9954579971113
 21
124.648253921089
 31
0.0
  0
LINE
  5
5AB
330
E3
100
AcDbEntity
  8
0
  6
Continuous
100
AcDbLine
 10
154.9954579971113
 20
124.648253921089
 30
0.0
 11
154.9733290046052
 21
124.6387976660588
 31
0.0
  0
LINE
  5
5AC
330
E3
100
AcDbEntity
  8
0
  6
Continuous
100
AcDbLine
 10
154.9733290046052
 20
124.6387976660588
 30
0.0
 11
154.9481258818796
 21
124.6287991168333
 31
0.0
  0
LINE
  5
5AD
330
E3
100
AcDbEntity
  8
0
  6
Continuous
100
AcDbLine
 10
154.9481258818796
 20
124.6287991168333
 30
0.0
 11
154.9200553785964
 21
124.6182921667998
 31
0.0
  0
LINE
  5
5AE
330
E3
100
AcDbEntity
  8
0
  6
Continuous
100
AcDbLine
 10
154.9200553785964
 20
124.6182921667998
 30
0.0
 11
154.8893344124339
 21
124.6073208773615
 31
0.0
  0
LINE
  5
5AF
330
E3
100
AcDbEntity
  8
0
  6
Continuous
100
AcDbLine
 10
154.8893344124339
 20
124.6073208773615
 30
0.0
 11
154.8562070157797
 21
124.5959225312445
 31
0.0
  0
LINE
  5
5B0
330
E3
100
AcDbEntity
  8
0
  6
Continuous
100
AcDbLine
 10
154.8562070157797
 20
124.5959225312445
 30
0.0
 11
154.8209273890381
 21
124.5841445791908
 31
0.0
  0
LINE
  5
5B1
330
E3
100
AcDbEntity
  8
0
  6
Continuous
100
AcDbLine
 10
154.8209273890381
 20
124.5841445791908
 30
0.0
 11
154.783773457984
 21
124.5720378612812
 31
0.0
  0
LINE
  5
5B2
330
E3
100
AcDbEntity
  8
0
  6
Continuous
100
AcDbLine
 10
154.783773457984
 20
124.5720378612812
 30
0.0
 11
154.7450367057475
 21
124.5596532175965
 31
0.0
  0
LINE
  5
5B3
330
E3
100
AcDbEntity
  8
0
  6
Continuous
100
AcDbLine
 10
154.7450367057475
 20
124.5596532175965
 30
0.0
 11
154.7050187834745
 21
124.5470414882175
 31
0.0
  0
LINE
  5
5B4
330
E3
100
AcDbEntity
  8
0
  6
Continuous
100
AcDbLine
 10
154.7050187834745
 20
124.5470414882175
 30
0.0
 11
154.6640315103276
 21
124.5342569025638
 31
0.0
  0
LINE
  5
5B5
330
E3
100
AcDbEntity
  8
0
  6
Continuous
100
AcDbLine
 10
154.6640315103276
 20
124.5342569025638
 30
0.0
 11
154.6223900948076
 21
124.5213604687323
 31
0.0
  0
LINE
  5
5B6
330
E3
100
AcDbEntity
  8
0
  6
Continuous
100
AcDbLine
 10
154.6223900948076
 20
124.5213604687323
 30
0.0
 11
154.5804266921091
 21
124.5084030268039
 31
0.0
  0
LINE
  5
5B7
330
E3
100
AcDbEntity
  8
0
  6
Continuous
100
AcDbLine
 10
154.5804266921091
 20
124.5084030268039
 30
0.0
 11
154.5384599000719
 21
124.4954489742141
 31
0.0
  0
LINE
  5
5B8
330
E3
100
AcDbEntity
  8
0
  6
Continuous
100
AcDbLine
 10
154.5384599000719
 20
124.4954489742141
 30
0.0
 11
154.4968218738906
 21
124.4825525403826
 31
0.0
  0
LINE
  5
5B9
330
E3
100
AcDbEntity
  8
0
  6
Continuous
100
AcDbLine
 10
154.4968218738906
 20
124.4825525403826
 30
0.0
 11
154.4558312114049
 21
124.4697679547289
 31
0.0
  0
LINE
  5
5BA
330
E3
100
AcDbEntity
  8
0
  6
Continuous
100
AcDbLine
 10
154.4558312114049
 20
124.4697679547289
 30
0.0
 11
154.415813289132
 21
124.45715622535
 31
0.0
  0
LINE
  5
5BB
330
E3
100
AcDbEntity
  8
0
  6
Continuous
100
AcDbLine
 10
154.415813289132
 20
124.45715622535
 30
0.0
 11
154.3770765368955
 21
124.4447681923265
 31
0.0
  0
LINE
  5
5BC
330
E3
100
AcDbEntity
  8
0
  6
Continuous
100
AcDbLine
 10
154.3770765368955
 20
124.4447681923265
 30
0.0
 11
154.3399226058415
 21
124.4326614744169
 31
0.0
  0
LINE
  5
5BD
330
E3
100
AcDbEntity
  8
0
  6
Continuous
100
AcDbLine
 10
154.3399226058415
 20
124.4326614744169
 30
0.0
 11
154.3046429790998
 21
124.4208869117019
 31
0.0
  0
LINE
  5
5BE
330
E3
100
AcDbEntity
  8
0
  6
Continuous
100
AcDbLine
 10
154.3046429790998
 20
124.4208869117019
 30
0.0
 11
154.2715155824457
 21
124.4094885655849
 31
0.0
  0
LINE
  5
5BF
330
E3
100
AcDbEntity
  8
0
  6
Continuous
100
AcDbLine
 10
154.2715155824457
 20
124.4094885655849
 30
0.0
 11
154.2407946162831
 21
124.3985172761467
 31
0.0
  0
LINE
  5
5C0
330
E3
100
AcDbEntity
  8
0
  6
Continuous
100
AcDbLine
 10
154.2407946162831
 20
124.3985172761467
 30
0.0
 11
154.2127241129999
 21
124.3880103261131
 31
0.0
  0
LINE
  5
5C1
330
E3
100
AcDbEntity
  8
0
  6
Continuous
100
AcDbLine
 10
154.2127241129999
 20
124.3880103261131
 30
0.0
 11
154.1875209902743
 21
124.3780117768876
 31
0.0
  0
LINE
  5
5C2
330
E3
100
AcDbEntity
  8
0
  6
Continuous
100
AcDbLine
 10
154.1875209902743
 20
124.3780117768876
 30
0.0
 11
154.1653919977682
 21
124.3685521325188
 31
0.0
  0
LINE
  5
5C3
330
E3
100
AcDbEntity
  8
0
  6
Continuous
100
AcDbLine
 10
154.1653919977682
 20
124.3685521325188
 30
0.0
 11
154.1465066024176
 21
124.3596686757323
 31
0.0
  0
LINE
  5
5C4
330
E3
100
AcDbEntity
  8
0
  6
Continuous
100
AcDbLine
 10
154.1465066024176
 20
124.3596686757323
 30
0.0
 11
154.1310173244649
 21
124.3513817425607
 31
0.0
  0
LINE
  5
5C5
330
E3
100
AcDbEntity
  8
0
  6
Continuous
100
AcDbLine
 10
154.1310173244649
 20
124.3513817425607
 30
0.0
 11
154.1190495694429
 21
124.343715058375
 31
0.0
  0
LINE
  5
5C6
330
E3
100
AcDbEntity
  8
0
  6
Continuous
100
AcDbLine
 10
154.1190495694429
 20
124.343715058375
 30
0.0
 11
154.110705017513
 21
124.3366855698686
 31
0.0
  0
LINE
  5
5C7
330
E3
100
AcDbEntity
  8
0
  6
Continuous
100
AcDbLine
 10
154.110705017513
 20
124.3366855698686
 30
0.0
 11
154.1060466511368
 21
124.3303102423178
 31
0.0
  0
LINE
  5
5C8
330
E3
100
AcDbEntity
  8
0
  6
Continuous
100
AcDbLine
 10
154.1060466511368
 20
124.3303102423178
 30
0.0
 11
154.1051230009741
 21
124.324591592539
 31
0.0
  0
LINE
  5
5C9
330
E3
100
AcDbEntity
  8
0
  6
Continuous
100
AcDbLine
 10
155.1241341829207
 20
124.3042624855217
 30
0.0
 11
155.123210532758
 21
124.2985438357429
 31
0.0
  0
LINE
  5
5CA
330
E3
100
AcDbEntity
  8
0
  6
Continuous
100
AcDbLine
 10
155.123210532758
 20
124.2985438357429
 30
0.0
 11
155.1185536521074
 21
124.2921669167039
 31
0.0
  0
LINE
  5
5CB
330
E3
100
AcDbEntity
  8
0
  6
Continuous
100
AcDbLine
 10
155.1185536521074
 20
124.2921669167039
 30
0.0
 11
155.1102074488324
 21
124.2851405066073
 31
0.0
  0
LINE
  5
5CC
330
E3
100
AcDbEntity
  8
0
  6
Continuous
100
AcDbLine
 10
155.1102074488324
 20
124.2851405066073
 30
0.0
 11
155.0982396938104
 21
124.2774738224216
 31
0.0
  0
LINE
  5
5CD
330
E3
100
AcDbEntity
  8
0
  6
Continuous
100
AcDbLine
 10
155.0982396938104
 20
124.2774738224216
 30
0.0
 11
155.0827504158577
 21
124.26918688925
 31
0.0
  0
LINE
  5
5CE
330
E3
100
AcDbEntity
  8
0
  6
Continuous
100
AcDbLine
 10
155.0827504158577
 20
124.26918688925
 30
0.0
 11
155.0638650205071
 21
124.2603000431248
 31
0.0
  0
LINE
  5
5CF
330
E3
100
AcDbEntity
  8
0
  6
Continuous
100
AcDbLine
 10
155.0638650205071
 20
124.2603000431248
 30
0.0
 11
155.041736028001
 21
124.2508437880946
 31
0.0
  0
LINE
  5
5D0
330
E3
100
AcDbEntity
  8
0
  6
Continuous
100
AcDbLine
 10
155.041736028001
 20
124.2508437880946
 30
0.0
 11
155.0165329052753
 21
124.2408418495305
 31
0.0
  0
LINE
  5
5D1
330
E3
100
AcDbEntity
  8
0
  6
Continuous
100
AcDbLine
 10
155.0165329052753
 20
124.2408418495305
 30
0.0
 11
154.9884624019922
 21
124.2303382888356
 31
0.0
  0
LINE
  5
5D2
330
E3
100
AcDbEntity
  8
0
  6
Continuous
100
AcDbLine
 10
154.9884624019922
 20
124.2303382888356
 30
0.0
 11
154.9577414358296
 21
124.2193636100587
 31
0.0
  0
LINE
  5
5D3
330
E3
100
AcDbEntity
  8
0
  6
Continuous
100
AcDbLine
 10
154.9577414358296
 20
124.2193636100587
 30
0.0
 11
154.9246140391755
 21
124.2079686532804
 31
0.0
  0
LINE
  5
5D4
330
E3
100
AcDbEntity
  8
0
  6
Continuous
100
AcDbLine
 10
154.9246140391755
 20
124.2079686532804
 30
0.0
 11
154.8893344124339
 21
124.1961907012266
 31
0.0
  0
LINE
  5
5D5
330
E3
100
AcDbEntity
  8
0
  6
Continuous
100
AcDbLine
 10
154.8893344124339
 20
124.1961907012266
 30
0.0
 11
154.8521804813798
 21
124.184083983317
 31
0.0
  0
LINE
  5
5D6
330
E3
100
AcDbEntity
  8
0
  6
Continuous
100
AcDbLine
 10
154.8521804813798
 20
124.184083983317
 30
0.0
 11
154.8134437291432
 21
124.1716993396323
 31
0.0
  0
LINE
  5
5D7
330
E3
100
AcDbEntity
  8
0
  6
Continuous
100
AcDbLine
 10
154.8134437291432
 20
124.1716993396323
 30
0.0
 11
154.7734258068703
 21
124.1590876102534
 31
0.0
  0
LINE
  5
5D8
330
E3
100
AcDbEntity
  8
0
  6
Continuous
100
AcDbLine
 10
154.7734258068703
 20
124.1590876102534
 30
0.0
 11
154.7324385337234
 21
124.1463030245997
 31
0.0
  0
LINE
  5
5D9
330
E3
100
AcDbEntity
  8
0
  6
Continuous
100
AcDbLine
 10
154.7324385337234
 20
124.1463030245997
 30
0.0
 11
154.6907971182033
 21
124.1334065907682
 31
0.0
  0
LINE
  5
5DA
330
E3
100
AcDbEntity
  8
0
  6
Continuous
100
AcDbLine
 10
154.6907971182033
 20
124.1334065907682
 30
0.0
 11
154.6488337155049
 21
124.1204491488397
 31
0.0
  0
LINE
  5
5DB
330
E3
100
AcDbEntity
  8
0
  6
Continuous
100
AcDbLine
 10
154.6488337155049
 20
124.1204491488397
 30
0.0
 11
154.6068669234677
 21
124.10749509625
 31
0.0
  0
LINE
  5
5DC
330
E3
100
AcDbEntity
  8
0
  6
Continuous
100
AcDbLine
 10
154.6068669234677
 20
124.10749509625
 30
0.0
 11
154.5652255079477
 21
124.0945952730798
 31
0.0
  0
LINE
  5
5DD
330
E3
100
AcDbEntity
  8
0
  6
Continuous
100
AcDbLine
 10
154.5652255079477
 20
124.0945952730798
 30
0.0
 11
154.5242382348007
 21
124.0818140767648
 31
0.0
  0
LINE
  5
5DE
330
E3
100
AcDbEntity
  8
0
  6
Continuous
100
AcDbLine
 10
154.5242382348007
 20
124.0818140767648
 30
0.0
 11
154.4842203125278
 21
124.0692023473858
 31
0.0
  0
LINE
  5
5DF
330
E3
100
AcDbEntity
  8
0
  6
Continuous
100
AcDbLine
 10
154.4842203125278
 20
124.0692023473858
 30
0.0
 11
154.4454835602913
 21
124.0568143143624
 31
0.0
  0
LINE
  5
5E0
330
E3
100
AcDbEntity
  8
0
  6
Continuous
100
AcDbLine
 10
154.4454835602913
 20
124.0568143143624
 30
0.0
 11
154.4083296292372
 21
124.0447075964528
 31
0.0
  0
LINE
  5
5E1
330
E3
100
AcDbEntity
  8
0
  6
Continuous
100
AcDbLine
 10
154.4083296292372
 20
124.0447075964528
 30
0.0
 11
154.3730500024956
 21
124.0329330337378
 31
0.0
  0
LINE
  5
5E2
330
E3
100
AcDbEntity
  8
0
  6
Continuous
100
AcDbLine
 10
154.3730500024956
 20
124.0329330337378
 30
0.0
 11
154.3399226058415
 21
124.0215346876208
 31
0.0
  0
LINE
  5
5E3
330
E3
100
AcDbEntity
  8
0
  6
Continuous
100
AcDbLine
 10
154.3399226058415
 20
124.0215346876208
 30
0.0
 11
154.3092016396789
 21
124.0105600088438
 31
0.0
  0
LINE
  5
5E4
330
E3
100
AcDbEntity
  8
0
  6
Continuous
100
AcDbLine
 10
154.3092016396789
 20
124.0105600088438
 30
0.0
 11
154.2811311363957
 21
124.000056448149
 31
0.0
  0
LINE
  5
5E5
330
E3
100
AcDbEntity
  8
0
  6
Continuous
100
AcDbLine
 10
154.2811311363957
 20
124.000056448149
 30
0.0
 11
154.2559280136701
 21
123.9900578989235
 31
0.0
  0
LINE
  5
5E6
330
E3
100
AcDbEntity
  8
0
  6
Continuous
100
AcDbLine
 10
154.2559280136701
 20
123.9900578989235
 30
0.0
 11
154.233799021164
 21
123.9805982545546
 31
0.0
  0
LINE
  5
5E7
330
E3
100
AcDbEntity
  8
0
  6
Continuous
100
AcDbLine
 10
154.233799021164
 20
123.9805982545546
 30
0.0
 11
154.2149136258134
 21
123.9717114084295
 31
0.0
  0
LINE
  5
5E8
330
E3
100
AcDbEntity
  8
0
  6
Continuous
100
AcDbLine
 10
154.2149136258134
 20
123.9717114084295
 30
0.0
 11
154.1994243478607
 21
123.9634278645966
 31
0.0
  0
LINE
  5
5E9
330
E3
100
AcDbEntity
  8
0
  6
Continuous
100
AcDbLine
 10
154.1994243478607
 20
123.9634278645966
 30
0.0
 11
154.1874565928386
 21
123.9557611804108
 31
0.0
  0
LINE
  5
5EA
330
E3
100
AcDbEntity
  8
0
  6
Continuous
100
AcDbLine
 10
154.1874565928386
 20
123.9557611804108
 30
0.0
 11
154.1791120409088
 21
123.9487316919045
 31
0.0
  0
LINE
  5
5EB
330
E3
100
AcDbEntity
  8
0
  6
Continuous
100
AcDbLine
 10
154.1791120409088
 20
123.9487316919045
 30
0.0
 11
154.1744535090056
 21
123.9423556729494
 31
0.0
  0
LINE
  5
5EC
330
E3
100
AcDbEntity
  8
0
  6
Continuous
100
AcDbLine
 10
154.1744535090056
 20
123.9423556729494
 30
0.0
 11
154.1735298588429
 21
123.9366370231705
 31
0.0
  0
LINE
  5
5ED
330
E3
100
AcDbEntity
  8
0
  6
Continuous
100
AcDbLine
 10
155.1925410407895
 20
123.9163079161533
 30
0.0
 11
155.1916173906268
 21
123.9105892663744
 31
0.0
  0
LINE
  5
5EE
330
E3
100
AcDbEntity
  8
0
  6
Continuous
100
AcDbLine
 10
155.1916173906268
 20
123.9105892663744
 30
0.0
 11
155.1869605099762
 21
123.9042123473354
 31
0.0
  0
LINE
  5
5EF
330
E3
100
AcDbEntity
  8
0
  6
Continuous
100
AcDbLine
 10
155.1869605099762
 20
123.9042123473354
 30
0.0
 11
155.1786144722282
 21
123.8971832393045
 31
0.0
  0
LINE
  5
5F0
330
E3
100
AcDbEntity
  8
0
  6
Continuous
100
AcDbLine
 10
155.1786144722282
 20
123.8971832393045
 30
0.0
 11
155.1666467172061
 21
123.8895199444574
 31
0.0
  0
LINE
  5
5F1
330
E3
100
AcDbEntity
  8
0
  6
Continuous
100
AcDbLine
 10
155.1666467172061
 20
123.8895199444574
 30
0.0
 11
155.1511574392534
 21
123.8812330112858
 31
0.0
  0
LINE
  5
5F2
330
E3
100
AcDbEntity
  8
0
  6
Continuous
100
AcDbLine
 10
155.1511574392534
 20
123.8812330112858
 30
0.0
 11
155.1322720439028
 21
123.8723461651607
 31
0.0
  0
LINE
  5
5F3
330
E3
100
AcDbEntity
  8
0
  6
Continuous
100
AcDbLine
 10
155.1322720439028
 20
123.8723461651607
 30
0.0
 11
155.1101430513967
 21
123.8628865207918
 31
0.0
  0
LINE
  5
5F4
330
E3
100
AcDbEntity
  8
0
  6
Continuous
100
AcDbLine
 10
155.1101430513967
 20
123.8628865207918
 30
0.0
 11
155.0849399286711
 21
123.8528879715663
 31
0.0
  0
LINE
  5
5F5
330
E3
100
AcDbEntity
  8
0
  6
Continuous
100
AcDbLine
 10
155.0849399286711
 20
123.8528879715663
 30
0.0
 11
155.056869425388
 21
123.8423844108715
 31
0.0
  0
LINE
  5
5F6
330
E3
100
AcDbEntity
  8
0
  6
Continuous
100
AcDbLine
 10
155.056869425388
 20
123.8423844108715
 30
0.0
 11
155.0261484592254
 21
123.8314097320945
 31
0.0
  0
LINE
  5
5F7
330
E3
100
AcDbEntity
  8
0
  6
Continuous
100
AcDbLine
 10
155.0261484592254
 20
123.8314097320945
 30
0.0
 11
154.9930210625713
 21
123.8200147753162
 31
0.0
  0
LINE
  5
5F8
330
E3
100
AcDbEntity
  8
0
  6
Continuous
100
AcDbLine
 10
154.9930210625713
 20
123.8200147753162
 30
0.0
 11
154.9577414358296
 21
123.8082368232625
 31
0.0
  0
LINE
  5
5F9
330
E3
100
AcDbEntity
  8
0
  6
Continuous
100
AcDbLine
 10
154.9577414358296
 20
123.8082368232625
 30
0.0
 11
154.9205875047755
 21
123.7961301053529
 31
0.0
  0
LINE
  5
5FA
330
E3
100
AcDbEntity
  8
0
  6
Continuous
100
AcDbLine
 10
154.9205875047755
 20
123.7961301053529
 30
0.0
 11
154.881850752539
 21
123.7837454616682
 31
0.0
  0
LINE
  5
5FB
330
E3
100
AcDbEntity
  8
0
  6
Continuous
100
AcDbLine
 10
154.881850752539
 20
123.7837454616682
 30
0.0
 11
154.8418328302661
 21
123.7711303429505
 31
0.0
  0
LINE
  5
5FC
330
E3
100
AcDbEntity
  8
0
  6
Continuous
100
AcDbLine
 10
154.8418328302661
 20
123.7711303429505
 30
0.0
 11
154.8008421677804
 21
123.7583491466355
 31
0.0
  0
LINE
  5
5FD
330
E3
100
AcDbEntity
  8
0
  6
Continuous
100
AcDbLine
 10
154.8008421677804
 20
123.7583491466355
 30
0.0
 11
154.7592041415991
 21
123.7454493234653
 31
0.0
  0
LINE
  5
5FE
330
E3
100
AcDbEntity
  8
0
  6
Continuous
100
AcDbLine
 10
154.7592041415991
 20
123.7454493234653
 30
0.0
 11
154.7172373495619
 21
123.7324952708756
 31
0.0
  0
LINE
  5
5FF
330
E3
100
AcDbEntity
  8
0
  6
Continuous
100
AcDbLine
 10
154.7172373495619
 20
123.7324952708756
 30
0.0
 11
154.6752739468635
 21
123.7195412182858
 31
0.0
  0
LINE
  5
600
330
E3
100
AcDbEntity
  8
0
  6
Continuous
100
AcDbLine
 10
154.6752739468635
 20
123.7195412182858
 30
0.0
 11
154.6336325313434
 21
123.7066413951156
 31
0.0
  0
LINE
  5
601
330
E3
100
AcDbEntity
  8
0
  6
Continuous
100
AcDbLine
 10
154.6336325313434
 20
123.7066413951156
 30
0.0
 11
154.5926452581965
 21
123.6938601988006
 31
0.0
  0
LINE
  5
602
330
E3
100
AcDbEntity
  8
0
  6
Continuous
100
AcDbLine
 10
154.5926452581965
 20
123.6938601988006
 30
0.0
 11
154.5526273359236
 21
123.6812450800829
 31
0.0
  0
LINE
  5
603
330
E3
100
AcDbEntity
  8
0
  6
Continuous
100
AcDbLine
 10
154.5526273359236
 20
123.6812450800829
 30
0.0
 11
154.5138905836871
 21
123.6688604363982
 31
0.0
  0
LINE
  5
604
330
E3
100
AcDbEntity
  8
0
  6
Continuous
100
AcDbLine
 10
154.5138905836871
 20
123.6688604363982
 30
0.0
 11
154.476736652633
 21
123.6567537184886
 31
0.0
  0
LINE
  5
605
330
E3
100
AcDbEntity
  8
0
  6
Continuous
100
AcDbLine
 10
154.476736652633
 20
123.6567537184886
 30
0.0
 11
154.4414570258913
 21
123.6449757664349
 31
0.0
  0
LINE
  5
606
330
E3
100
AcDbEntity
  8
0
  6
Continuous
100
AcDbLine
 10
154.4414570258913
 20
123.6449757664349
 30
0.0
 11
154.4083296292372
 21
123.6335808096566
 31
0.0
  0
LINE
  5
607
330
E3
100
AcDbEntity
  8
0
  6
Continuous
100
AcDbLine
 10
154.4083296292372
 20
123.6335808096566
 30
0.0
 11
154.3776086630746
 21
123.6226061308796
 31
0.0
  0
LINE
  5
608
330
E3
100
AcDbEntity
  8
0
  6
Continuous
100
AcDbLine
 10
154.3776086630746
 20
123.6226061308796
 30
0.0
 11
154.3495381597915
 21
123.6121025701848
 31
0.0
  0
LINE
  5
609
330
E3
100
AcDbEntity
  8
0
  6
Continuous
100
AcDbLine
 10
154.3495381597915
 20
123.6121025701848
 30
0.0
 11
154.3243350370659
 21
123.6021006316206
 31
0.0
  0
LINE
  5
60A
330
E3
100
AcDbEntity
  8
0
  6
Continuous
100
AcDbLine
 10
154.3243350370659
 20
123.6021006316206
 30
0.0
 11
154.3022060445597
 21
123.5926443765904
 31
0.0
  0
LINE
  5
60B
330
E3
100
AcDbEntity
  8
0
  6
Continuous
100
AcDbLine
 10
154.3022060445597
 20
123.5926443765904
 30
0.0
 11
154.2833206492091
 21
123.5837575304653
 31
0.0
  0
LINE
  5
60C
330
E3
100
AcDbEntity
  8
0
  6
Continuous
100
AcDbLine
 10
154.2833206492091
 20
123.5837575304653
 30
0.0
 11
154.2678313712565
 21
123.5754705972937
 31
0.0
  0
LINE
  5
60D
330
E3
100
AcDbEntity
  8
0
  6
Continuous
100
AcDbLine
 10
154.2678313712565
 20
123.5754705972937
 30
0.0
 11
154.2558636162344
 21
123.5678073024467
 31
0.0
  0
LINE
  5
60E
330
E3
100
AcDbEntity
  8
0
  6
Continuous
100
AcDbLine
 10
154.2558636162344
 20
123.5678073024467
 30
0.0
 11
154.2475156749658
 21
123.5607778139403
 31
0.0
  0
LINE
  5
60F
330
E3
100
AcDbEntity
  8
0
  6
Continuous
100
AcDbLine
 10
154.2475156749658
 20
123.5607778139403
 30
0.0
 11
154.2428603668744
 21
123.5544011035809
 31
0.0
  0
LINE
  5
610
330
E3
100
AcDbEntity
  8
0
  6
Continuous
100
AcDbLine
 10
154.2428603668744
 20
123.5544011035809
 30
0.0
 11
154.2419367167116
 21
123.5486824538021
 31
0.0
  0
LINE
  5
611
330
E3
100
AcDbEntity
  8
0
  6
Continuous
100
AcDbLine
 10
155.2609478986583
 20
123.5283533467848
 30
0.0
 11
155.2600242484955
 21
123.522634697006
 31
0.0
  0
LINE
  5
612
330
E3
100
AcDbEntity
  8
0
  6
Continuous
100
AcDbLine
 10
155.2600242484955
 20
123.522634697006
 30
0.0
 11
155.255367367845
 21
123.516257777967
 31
0.0
  0
LINE
  5
613
330
E3
100
AcDbEntity
  8
0
  6
Continuous
100
AcDbLine
 10
155.255367367845
 20
123.516257777967
 30
0.0
 11
155.247021495624
 21
123.5092293613403
 31
0.0
  0
LINE
  5
614
330
E3
100
AcDbEntity
  8
0
  6
Continuous
100
AcDbLine
 10
155.247021495624
 20
123.5092293613403
 30
0.0
 11
155.2350537406019
 21
123.5015626771546
 31
0.0
  0
LINE
  5
615
330
E3
100
AcDbEntity
  8
0
  6
Continuous
100
AcDbLine
 10
155.2350537406019
 20
123.5015626771546
 30
0.0
 11
155.2195644626492
 21
123.4932757439829
 31
0.0
  0
LINE
  5
616
330
E3
100
AcDbEntity
  8
0
  6
Continuous
100
AcDbLine
 10
155.2195644626492
 20
123.4932757439829
 30
0.0
 11
155.2006790672986
 21
123.4843922871965
 31
0.0
  0
LINE
  5
617
330
E3
100
AcDbEntity
  8
0
  6
Continuous
100
AcDbLine
 10
155.2006790672986
 20
123.4843922871965
 30
0.0
 11
155.1785466854538
 21
123.4749326428276
 31
0.0
  0
LINE
  5
618
330
E3
100
AcDbEntity
  8
0
  6
Continuous
100
AcDbLine
 10
155.1785466854538
 20
123.4749326428276
 30
0.0
 11
155.1533469520669
 21
123.4649340936021
 31
0.0
  0
LINE
  5
619
330
E3
100
AcDbEntity
  8
0
  6
Continuous
100
AcDbLine
 10
155.1533469520669
 20
123.4649340936021
 30
0.0
 11
155.1252764487838
 21
123.4544305329073
 31
0.0
  0
LINE
  5
61A
330
E3
100
AcDbEntity
  8
0
  6
Continuous
100
AcDbLine
 10
155.1252764487838
 20
123.4544305329073
 30
0.0
 11
155.0945554826212
 21
123.4434558541304
 31
0.0
  0
LINE
  5
61B
330
E3
100
AcDbEntity
  8
0
  6
Continuous
100
AcDbLine
 10
155.0945554826212
 20
123.4434558541304
 30
0.0
 11
155.0614246966283
 21
123.4320575080133
 31
0.0
  0
LINE
  5
61C
330
E3
100
AcDbEntity
  8
0
  6
Continuous
100
AcDbLine
 10
155.0614246966283
 20
123.4320575080133
 30
0.0
 11
155.0261484592254
 21
123.4202829452983
 31
0.0
  0
LINE
  5
61D
330
E3
100
AcDbEntity
  8
0
  6
Continuous
100
AcDbLine
 10
155.0261484592254
 20
123.4202829452983
 30
0.0
 11
154.9889945281713
 21
123.4081762273887
 31
0.0
  0
LINE
  5
61E
330
E3
100
AcDbEntity
  8
0
  6
Continuous
100
AcDbLine
 10
154.9889945281713
 20
123.4081762273887
 30
0.0
 11
154.9502577759348
 21
123.3957881943653
 31
0.0
  0
LINE
  5
61F
330
E3
100
AcDbEntity
  8
0
  6
Continuous
100
AcDbLine
 10
154.9502577759348
 20
123.3957881943653
 30
0.0
 11
154.9102398536619
 21
123.3831764649863
 31
0.0
  0
LINE
  5
620
330
E3
100
AcDbEntity
  8
0
  6
Continuous
100
AcDbLine
 10
154.9102398536619
 20
123.3831764649863
 30
0.0
 11
154.8692491911762
 21
123.3703952686714
 31
0.0
  0
LINE
  5
621
330
E3
100
AcDbEntity
  8
0
  6
Continuous
100
AcDbLine
 10
154.8692491911762
 20
123.3703952686714
 30
0.0
 11
154.8276111649949
 21
123.3574954455011
 31
0.0
  0
LINE
  5
622
330
E3
100
AcDbEntity
  8
0
  6
Continuous
100
AcDbLine
 10
154.8276111649949
 20
123.3574954455011
 30
0.0
 11
154.7856443729577
 21
123.3445413929114
 31
0.0
  0
LINE
  5
623
330
E3
100
AcDbEntity
  8
0
  6
Continuous
100
AcDbLine
 10
154.7856443729577
 20
123.3445413929114
 30
0.0
 11
154.7436809702592
 21
123.3315839509829
 31
0.0
  0
LINE
  5
624
330
E3
100
AcDbEntity
  8
0
  6
Continuous
100
AcDbLine
 10
154.7436809702592
 20
123.3315839509829
 30
0.0
 11
154.7020395547392
 21
123.3186875171515
 31
0.0
  0
LINE
  5
625
330
E3
100
AcDbEntity
  8
0
  6
Continuous
100
AcDbLine
 10
154.7020395547392
 20
123.3186875171515
 30
0.0
 11
154.6610522815923
 21
123.3059029314978
 31
0.0
  0
LINE
  5
626
330
E3
100
AcDbEntity
  8
0
  6
Continuous
100
AcDbLine
 10
154.6610522815923
 20
123.3059029314978
 30
0.0
 11
154.6210343593194
 21
123.2932912021188
 31
0.0
  0
LINE
  5
627
330
E3
100
AcDbEntity
  8
0
  6
Continuous
100
AcDbLine
 10
154.6210343593194
 20
123.2932912021188
 30
0.0
 11
154.5822976070828
 21
123.2809065584341
 31
0.0
  0
LINE
  5
628
330
E3
100
AcDbEntity
  8
0
  6
Continuous
100
AcDbLine
 10
154.5822976070828
 20
123.2809065584341
 30
0.0
 11
154.5451436760287
 21
123.2687998405245
 31
0.0
  0
LINE
  5
629
330
E3
100
AcDbEntity
  8
0
  6
Continuous
100
AcDbLine
 10
154.5451436760287
 20
123.2687998405245
 30
0.0
 11
154.5098640492871
 21
123.2570218884707
 31
0.0
  0
LINE
  5
62A
330
E3
100
AcDbEntity
  8
0
  6
Continuous
100
AcDbLine
 10
154.5098640492871
 20
123.2570218884707
 30
0.0
 11
154.476736652633
 21
123.2456235423537
 31
0.0
  0
LINE
  5
62B
330
E3
100
AcDbEntity
  8
0
  6
Continuous
100
AcDbLine
 10
154.476736652633
 20
123.2456235423537
 30
0.0
 11
154.4460156864704
 21
123.2346522529155
 31
0.0
  0
LINE
  5
62C
330
E3
100
AcDbEntity
  8
0
  6
Continuous
100
AcDbLine
 10
154.4460156864704
 20
123.2346522529155
 30
0.0
 11
154.4179417938485
 21
123.2241453028819
 31
0.0
  0
LINE
  5
62D
330
E3
100
AcDbEntity
  8
0
  6
Continuous
100
AcDbLine
 10
154.4179417938485
 20
123.2241453028819
 30
0.0
 11
154.3927420604617
 21
123.2141467536565
 31
0.0
  0
LINE
  5
62E
330
E3
100
AcDbEntity
  8
0
  6
Continuous
100
AcDbLine
 10
154.3927420604617
 20
123.2141467536565
 30
0.0
 11
154.3706130679555
 21
123.2046904986263
 31
0.0
  0
LINE
  5
62F
330
E3
100
AcDbEntity
  8
0
  6
Continuous
100
AcDbLine
 10
154.3706130679555
 20
123.2046904986263
 30
0.0
 11
154.3517276726049
 21
123.1958036525011
 31
0.0
  0
LINE
  5
630
330
E3
100
AcDbEntity
  8
0
  6
Continuous
100
AcDbLine
 10
154.3517276726049
 20
123.1958036525011
 30
0.0
 11
154.3362383946523
 21
123.1875167193295
 31
0.0
  0
LINE
  5
631
330
E3
100
AcDbEntity
  8
0
  6
Continuous
100
AcDbLine
 10
154.3362383946523
 20
123.1875167193295
 30
0.0
 11
154.3242706396302
 21
123.1798500351438
 31
0.0
  0
LINE
  5
632
330
E3
100
AcDbEntity
  8
0
  6
Continuous
100
AcDbLine
 10
154.3242706396302
 20
123.1798500351438
 30
0.0
 11
154.3159226983616
 21
123.1728239359762
 31
0.0
  0
ENDBLK
  5
E5
330
E3
100
AcDbEntity
  8
0
100
AcDbBlockEnd
  0
BLOCK
  5
638
330
637
100
AcDbEntity
  8
0
100
AcDbBlockBegin
  2
R-TRS7-08 APRON DETAIL - HEAD_STORY_MARKER
 70
     0
 10
0.0
 20
0.0
 30
0.0
  3
R-TRS7-08 APRON DETAIL - HEAD_STORY_MARKER
  1

  0
ENDBLK
  5
639
330
637
100
AcDbEntity
  8
0
100
AcDbBlockEnd
  0
ENDSEC
  0
SECTION
  2
ENTITIES
  0
HATCH
  5
3F
330
1F
100
AcDbEntity
  8
Doc_ Finishes
  6
Continuous
100
AcDbHatch
 10
0.0
 20
0.0
 30
0.0
210
0.0
220
0.0
230
1.0
  2
SOLID
 70
     1
 71
     0
 91
        1
 92
        3
 72
     0
 73
     1
 93
       54
 10
27.4117749414874
 20
16.87044408857867
 10
26.89356552397386
 20
16.5825499677378
 10
26.5480925789648
 20
16.29465584689693
 10
26.12584786839819
 20
16.02595466744544
 10
25.76118198199976
 20
15.60370995687884
 10
25.39651609560134
 20
15.33500877742737
 10
25.07023609198168
 20
14.89357112547136
 10
24.49444785029994
 20
14.45213347351537
 10
23.93785255000758
 20
14.02988876294876
 10
23.43883607388344
 20
13.81876640766546
 10
22.74789018386533
 20
13.39652169709885
 10
22.09533017662603
 20
12.99346992792163
 10
21.63469958328064
 20
12.55203227596564
 10
20.90536781048376
 20
12.12978756539902
 10
20.59828074825351
 20
11.7459287376112
 10
20.04168544796116
 20
11.28529814426581
 10
19.36993249933246
 20
10.8630534336992
 10
18.73656543348255
 20
10.42161578174319
 10
18.04561954346447
 20
10.15291460229172
 10
17.1051654153843
 20
9.692284008946325
 10
16.39502658397681
 20
9.020531060317637
 10
15.83843128368446
 20
8.598286349751023
 10
15.12829245227699
 20
8.137655756405634
 10
14.84039833143612
 20
7.98411222529051
 10
14.37976773809073
 20
7.81137575278599
 10
14.07268067586046
 20
7.523481631945121
 10
14.0151018516923
 20
7.216394569714853
 10
14.14945244141803
 20
6.890114566095209
 10
14.4373465622589
 20
6.563834562475543
 10
14.8787842142149
 20
6.659799269422514
 10
15.51215128006482
 20
7.06285103859973
 10
16.01116775618899
 20
7.389131042219374
 10
16.33744775980864
 20
7.696218104449641
 10
16.51018423231316
 20
7.907340459732938
 10
17.01303929671522
 20
8.421711288968723
 10
17.33548071205699
 20
8.652026585641417
 10
17.75004824606785
 20
8.99749953065046
 10
18.14158425041142
 20
9.204783297655894
 10
19.24709767444037
 20
9.75754000967037
 10
20.23745345013295
 20
10.47151742935572
 10
21.4120614631637
 20
11.1624633193738
 10
21.84966052684182
 20
11.64612544238645
 10
22.49454335752537
 20
12.06069297639732
 10
23.78430901889248
 20
12.9819541630881
 10
24.3600972605742
 20
13.25833251909534
 10
25.6498629219413
 20
14.24868829478776
 10
25.85714668894673
 20
14.64022429913134
 10
26.68628175696843
 20
15.23904407048036
 10
27.28510152831745
 20
15.72270619349301
 10
27.81482671066464
 20
16.1142421978366
 10
28.27545730401003
 20
16.52880973184745
 10
28.22939424467549
 20
16.7821565581874
 10
28.09120506667188
 20
16.89731420652375
 10
27.56147988432467
 20
16.89731420652375
 97
        0
 75
     0
 76
     1
 98
        0
  0
LINE
  5
41
330
1F
100
AcDbEntity
  8
Doc_ Finishes
  6
Continuous
100
AcDbLine
 10
27.41177566876475
 20
16.87044600708104
 30
0.0
 11
26.89356756490952
 21
16.58254868214004
 31
0.0
  0
LINE
  5
42
330
1F
100
AcDbEntity
  8
Doc_ Finishes
  6
Continuous
100
AcDbLine
 10
26.89356756490952
 20
16.58254868214004
 30
0.0
 11
26.54809254523997
 21
16.29465578284815
 31
0.0
  0
LINE
  5
43
330
1F
100
AcDbEntity
  8
Doc_ Finishes
  6
Continuous
100
AcDbLine
 10
26.54809254523997
 20
16.29465578284815
 30
0.0
 11
26.12584579071597
 21
16.02595249803305
 31
0.0
  0
LINE
  5
44
330
1F
100
AcDbEntity
  8
Doc_ Finishes
  6
Continuous
100
AcDbLine
 10
26.12584579071597
 20
16.02595249803305
 30
0.0
 11
25.76118115656963
 21
15.60371016915814
 31
0.0
  0
LINE
  5
45
330
1F
100
AcDbEntity
  8
Doc_ Finishes
  6
Continuous
100
AcDbLine
 10
25.76118115656963
 20
15.60371016915814
 30
0.0
 11
25.39651652242329
 21
15.33500688434304
 31
0.0
  0
LINE
  5
46
330
1F
100
AcDbEntity
  8
Doc_ Finishes
  6
Continuous
100
AcDbLine
 10
25.39651652242329
 20
15.33500688434304
 30
0.0
 11
25.07023554287962
 21
14.89357051534225
 31
0.0
  0
LINE
  5
47
330
1F
100
AcDbEntity
  8
Doc_ Finishes
  6
Continuous
100
AcDbLine
 10
25.07023554287962
 20
14.89357051534225
 30
0.0
 11
24.49444974429583
 21
14.45213414634146
 31
0.0
  0
LINE
  5
48
330
1F
100
AcDbEntity
  8
Doc_ Finishes
  6
Continuous
100
AcDbLine
 10
24.49444974429583
 20
14.45213414634146
 30
0.0
 11
23.93785356018882
 21
14.02988739181747
 31
0.0
  0
LINE
  5
49
330
1F
100
AcDbEntity
  8
Doc_ Finishes
  6
Continuous
100
AcDbLine
 10
23.93785356018882
 20
14.02988739181747
 30
0.0
 11
23.43883507081038
 21
13.81876622738001
 31
0.0
  0
LINE
  5
4A
330
1F
100
AcDbEntity
  8
Doc_ Finishes
  6
Continuous
100
AcDbLine
 10
23.43883507081038
 20
13.81876622738001
 30
0.0
 11
22.74788945712038
 21
13.39652389850511
 31
0.0
  0
LINE
  5
4B
330
1F
100
AcDbEntity
  8
Doc_ Finishes
  6
Continuous
100
AcDbLine
 10
22.74788945712038
 20
13.39652389850511
 30
0.0
 11
22.09533192368214
 21
12.993471184107
 31
0.0
  0
LINE
  5
4C
330
1F
100
AcDbEntity
  8
Doc_ Finishes
  6
Continuous
100
AcDbLine
 10
22.09533192368214
 20
12.993471184107
 30
0.0
 11
21.63470151455547
 21
12.55203038945712
 31
0.0
  0
LINE
  5
4D
330
1F
100
AcDbEntity
  8
Doc_ Finishes
  6
Continuous
100
AcDbLine
 10
21.63470151455547
 20
12.55203038945712
 30
0.0
 11
20.90536782061369
 21
12.12978806058222
 31
0.0
  0
LINE
  5
4E
330
1F
100
AcDbEntity
  8
Doc_ Finishes
  6
Continuous
100
AcDbLine
 10
20.90536782061369
 20
12.12978806058222
 30
0.0
 11
20.59828088119591
 21
11.74592938630999
 31
0.0
  0
LINE
  5
4F
330
1F
100
AcDbEntity
  8
Doc_ Finishes
  6
Continuous
100
AcDbLine
 10
20.59828088119591
 20
11.74592938630999
 30
0.0
 11
20.0416846970889
 21
11.28529897718332
 31
0.0
  0
LINE
  5
50
330
1F
100
AcDbEntity
  8
Doc_ Finishes
  6
Continuous
100
AcDbLine
 10
20.0416846970889
 20
11.28529897718332
 30
0.0
 11
19.36993312352478
 21
10.86305222265932
 31
0.0
  0
LINE
  5
51
330
1F
100
AcDbEntity
  8
Doc_ Finishes
  6
Continuous
100
AcDbLine
 10
19.36993312352478
 20
10.86305222265932
 30
0.0
 11
18.73656520456333
 21
10.42161585365854
 31
0.0
  0
LINE
  5
52
330
1F
100
AcDbEntity
  8
Doc_ Finishes
  6
Continuous
100
AcDbLine
 10
18.73656520456333
 20
10.42161585365854
 30
0.0
 11
18.04561959087333
 21
10.15291256884343
 31
0.0
  0
LINE
  5
53
330
1F
100
AcDbEntity
  8
Doc_ Finishes
  6
Continuous
100
AcDbLine
 10
18.04561959087333
 20
10.15291256884343
 30
0.0
 11
17.1051647324941
 21
9.692282159716758
 31
0.0
  0
LINE
  5
54
330
1F
100
AcDbEntity
  8
Doc_ Finishes
  6
Continuous
100
AcDbLine
 10
17.1051647324941
 20
9.692282159716758
 30
0.0
 11
16.3950250786782
 21
9.020530586152635
 31
0.0
  0
LINE
  5
55
330
1F
100
AcDbEntity
  8
Doc_ Finishes
  6
Continuous
100
AcDbLine
 10
16.3950250786782
 20
9.020530586152635
 30
0.0
 11
15.8384333202203
 21
8.598288257277733
 31
0.0
  0
LINE
  5
56
330
1F
100
AcDbEntity
  8
Doc_ Finishes
  6
Continuous
100
AcDbLine
 10
15.8384333202203
 20
8.598288257277733
 30
0.0
 11
15.1282936664044
 21
8.137657848151063
 31
0.0
  0
LINE
  5
57
330
1F
100
AcDbEntity
  8
Doc_ Finishes
  6
Continuous
100
AcDbLine
 10
15.1282936664044
 20
8.137657848151063
 30
0.0
 11
14.84039634146341
 21
7.984114378442171
 31
0.0
  0
LINE
  5
58
330
1F
100
AcDbEntity
  8
Doc_ Finishes
  6
Continuous
100
AcDbLine
 10
14.84039634146341
 20
7.984114378442171
 30
0.0
 11
14.37976593233674
 21
7.811376868607396
 31
0.0
  0
LINE
  5
59
330
1F
100
AcDbEntity
  8
Doc_ Finishes
  6
Continuous
100
AcDbLine
 10
14.37976593233674
 20
7.811376868607396
 30
0.0
 11
14.07267899291896
 21
7.523479543666405
 31
0.0
  0
LINE
  5
5A
330
1F
100
AcDbEntity
  8
Doc_ Finishes
  6
Continuous
100
AcDbLine
 10
14.07267899291896
 20
7.523479543666405
 30
0.0
 11
14.0151012981904
 21
7.216392604248622
 31
0.0
  0
LINE
  5
5B
330
1F
100
AcDbEntity
  8
Doc_ Finishes
  6
Continuous
100
AcDbLine
 10
14.0151012981904
 20
7.216392604248622
 30
0.0
 11
14.14945072777341
 21
6.890116050354051
 31
0.0
  0
LINE
  5
5C
330
1F
100
AcDbEntity
  8
Doc_ Finishes
  6
Continuous
100
AcDbLine
 10
14.14945072777341
 20
6.890116050354051
 30
0.0
 11
14.4373480527144
 21
6.563835070810386
 31
0.0
  0
LINE
  5
5D
330
1F
100
AcDbEntity
  8
Doc_ Finishes
  6
Continuous
100
AcDbLine
 10
14.4373480527144
 20
6.563835070810386
 30
0.0
 11
14.87878442171519
 21
6.659800845790715
 31
0.0
  0
LINE
  5
5E
330
1F
100
AcDbEntity
  8
Doc_ Finishes
  6
Continuous
100
AcDbLine
 10
14.87878442171519
 20
6.659800845790715
 30
0.0
 11
15.51215234067663
 21
7.062849134539732
 31
0.0
  0
LINE
  5
5F
330
1F
100
AcDbEntity
  8
Doc_ Finishes
  6
Continuous
100
AcDbLine
 10
15.51215234067663
 20
7.062849134539732
 30
0.0
 11
16.01116640440598
 21
7.389130114083398
 31
0.0
  0
LINE
  5
60
330
1F
100
AcDbEntity
  8
Doc_ Finishes
  6
Continuous
100
AcDbLine
 10
16.01116640440598
 20
7.389130114083398
 30
0.0
 11
16.33744738394964
 21
7.69621705350118
 31
0.0
  0
LINE
  5
61
330
1F
100
AcDbEntity
  8
Doc_ Finishes
  6
Continuous
100
AcDbLine
 10
16.33744738394964
 20
7.69621705350118
 30
0.0
 11
16.51018489378442
 21
7.907342643587726
 31
0.0
  0
LINE
  5
62
330
1F
100
AcDbEntity
  8
Doc_ Finishes
  6
Continuous
100
AcDbLine
 10
16.51018489378442
 20
7.907342643587726
 30
0.0
 11
17.0130404209284
 21
8.421709284028323
 31
0.0
  0
LINE
  5
63
330
1F
100
AcDbEntity
  8
Doc_ Finishes
  6
Continuous
100
AcDbLine
 10
17.0130404209284
 20
8.421709284028323
 30
0.0
 11
17.33547993705743
 21
8.65202448859166
 31
0.0
  0
LINE
  5
64
330
1F
100
AcDbEntity
  8
Doc_ Finishes
  6
Continuous
100
AcDbLine
 10
17.33547993705743
 20
8.65202448859166
 30
0.0
 11
17.75004819040126
 21
8.997499508261212
 31
0.0
  0
LINE
  5
65
330
1F
100
AcDbEntity
  8
Doc_ Finishes
  6
Continuous
100
AcDbLine
 10
17.75004819040126
 20
8.997499508261212
 30
0.0
 11
18.14158536585366
 21
9.204783634933122
 31
0.0
  0
LINE
  5
66
330
1F
100
AcDbEntity
  8
Doc_ Finishes
  6
Continuous
100
AcDbLine
 10
18.14158536585366
 20
9.204783634933122
 30
0.0
 11
19.24709923288749
 21
9.75753835562549
 31
0.0
  0
LINE
  5
67
330
1F
100
AcDbEntity
  8
Doc_ Finishes
  6
Continuous
100
AcDbLine
 10
19.24709923288749
 20
9.75753835562549
 30
0.0
 11
20.23745328481511
 21
10.47151947285602
 31
0.0
  0
LINE
  5
68
330
1F
100
AcDbEntity
  8
Doc_ Finishes
  6
Continuous
100
AcDbLine
 10
20.23745328481511
 20
10.47151947285602
 30
0.0
 11
21.41206038552321
 21
11.16246508654602
 31
0.0
  0
LINE
  5
69
330
1F
100
AcDbEntity
  8
Doc_ Finishes
  6
Continuous
100
AcDbLine
 10
21.41206038552321
 20
11.16246508654602
 30
0.0
 11
21.84965971675846
 21
11.64612657356412
 31
0.0
  0
LINE
  5
6A
330
1F
100
AcDbEntity
  8
Doc_ Finishes
  6
Continuous
100
AcDbLine
 10
21.84965971675846
 20
11.64612657356412
 30
0.0
 11
22.49454317466562
 21
12.06069482690795
 31
0.0
  0
LINE
  5
6B
330
1F
100
AcDbEntity
  8
Doc_ Finishes
  6
Continuous
100
AcDbLine
 10
22.49454317466562
 20
12.06069482690795
 30
0.0
 11
23.78431009047993
 21
12.98195564516129
 31
0.0
  0
LINE
  5
6C
330
1F
100
AcDbEntity
  8
Doc_ Finishes
  6
Continuous
100
AcDbLine
 10
23.78431009047993
 20
12.98195564516129
 30
0.0
 11
24.36009588906373
 21
13.25833300550747
 31
0.0
  0
LINE
  5
6D
330
1F
100
AcDbEntity
  8
Doc_ Finishes
  6
Continuous
100
AcDbLine
 10
24.36009588906373
 20
13.25833300550747
 30
0.0
 11
25.64986280487805
 21
14.24868705743509
 31
0.0
  0
LINE
  5
6E
330
1F
100
AcDbEntity
  8
Doc_ Finishes
  6
Continuous
100
AcDbLine
 10
25.64986280487805
 20
14.24868705743509
 30
0.0
 11
25.85714693154996
 21
14.64022423288749
 31
0.0
  0
LINE
  5
6F
330
1F
100
AcDbEntity
  8
Doc_ Finishes
  6
Continuous
100
AcDbLine
 10
25.85714693154996
 20
14.64022423288749
 30
0.0
 11
26.68628343823761
 21
15.2390455350118
 31
0.0
  0
LINE
  5
70
330
1F
100
AcDbEntity
  8
Doc_ Finishes
  6
Continuous
100
AcDbLine
 10
26.68628343823761
 20
15.2390455350118
 30
0.0
 11
27.28510031471282
 21
15.7227070220299
 31
0.0
  0
LINE
  5
71
330
1F
100
AcDbEntity
  8
Doc_ Finishes
  6
Continuous
100
AcDbLine
 10
27.28510031471282
 20
15.7227070220299
 30
0.0
 11
27.81482838316287
 21
16.1142441974823
 31
0.0
  0
LINE
  5
72
330
1F
100
AcDbEntity
  8
Doc_ Finishes
  6
Continuous
100
AcDbLine
 10
27.81482838316287
 20
16.1142441974823
 30
0.0
 11
28.27545879228953
 21
16.52880802517702
 31
0.0
  0
LINE
  5
73
330
1F
100
AcDbEntity
  8
Doc_ Finishes
  6
Continuous
100
AcDbLine
 10
28.27545879228953
 20
16.52880802517702
 30
0.0
 11
28.22939221085759
 21
16.78215873328088
 31
0.0
  0
LINE
  5
74
330
1F
100
AcDbEntity
  8
Doc_ Finishes
  6
Continuous
100
AcDbLine
 10
28.22939221085759
 20
16.78215873328088
 30
0.0
 11
28.09120574350905
 21
16.897314122738
 31
0.0
  0
LINE
  5
75
330
1F
100
AcDbEntity
  8
Doc_ Finishes
  6
Continuous
100
AcDbLine
 10
28.09120574350905
 20
16.897314122738
 30
0.0
 11
27.56147767505901
 21
16.897314122738
 31
0.0
  0
LINE
  5
76
330
1F
100
AcDbEntity
  8
Doc_ Finishes
  6
Continuous
100
AcDbLine
 10
27.56147767505901
 20
16.897314122738
 30
0.0
 11
27.41177566876475
 21
16.87044600708104
 31
0.0
  0
HATCH
  5
77
330
1F
100
AcDbEntity
  8
Doc_ Finishes
  6
Continuous
100
AcDbHatch
 10
0.0
 20
0.0
 30
0.0
210
0.0
220
0.0
230
1.0
  2
SOLID
 70
     1
 71
     0
 91
        1
 92
        3
 72
     0
 73
     1
 93
       39
 10
27.65360600299377
 20
13.12014334109181
 10
27.21600693931564
 20
12.77467039608275
 10
26.54809257896482
 20
12.24494521373555
 10
25.92624127794851
 20
11.85340920939199
 10
25.32742150659951
 20
11.32368402704478
 10
24.72860173525052
 20
11.04730567103754
 10
24.08371890456698
 20
10.56364354802488
 10
23.62308831122158
 20
10.33332825135219
 10
23.231552306878
 20
10.03391836567767
 10
22.81698477286715
 20
9.619350831666825
 10
22.40241723885631
 20
9.38903553499415
 10
21.91875511584363
 20
9.043562589985086
 10
21.66540828950367
 20
8.859310352646935
 10
21.25084075549282
 20
8.582931996639696
 10
20.09926427212933
 20
7.753796928618002
 10
19.75379132712029
 20
7.477418572610764
 10
19.2931607337749
 20
7.316197864939873
 10
19.22406614477309
 20
6.993756449598113
 10
19.3622553227767
 20
6.717378093590874
 10
19.63863367878394
 20
6.602220445254527
 10
20.00713815346026
 20
6.8325357419272
 10
20.26048497980021
 20
7.131945627601722
 10
20.55989486547472
 20
7.362260924274415
 10
21.31993534449462
 20
7.707733869283458
 10
21.84966052684182
 20
8.122301403294307
 10
22.88607936186895
 20
8.882341882314256
 10
23.20852077721072
 20
9.342972475659646
 10
24.01462431556515
 20
9.734508480003234
 10
24.5673810275796
 20
10.05694989534501
 10
25.46561068460312
 20
10.60970660735953
 10
25.88017821861399
 20
11.07033720070492
 10
26.31777728229212
 20
11.34671555671216
 10
26.70931328663569
 20
11.30065249737762
 10
27.21600693931562
 20
11.55399932371759
 10
28.0681735370046
 20
12.17585062473387
 10
28.41364648201364
 20
12.49829204007566
 10
28.39061495234636
 20
12.77467039608289
 10
28.22939424467547
 20
13.00498569275559
 10
28.04514200733732
 20
13.05104875209013
 97
        0
 75
     0
 76
     1
 98
        0
  0
LINE
  5
78
330
1F
100
AcDbEntity
  8
Doc_ Finishes
  6
Continuous
100
AcDbLine
 10
27.6536064122738
 20
13.12014211250983
 30
0.0
 11
27.21600708103855
 21
12.77467151848938
 31
0.0
  0
LINE
  5
79
330
1F
100
AcDbEntity
  8
Doc_ Finishes
  6
Continuous
100
AcDbLine
 10
27.21600708103855
 20
12.77467151848938
 30
0.0
 11
26.54809254523997
 21
12.24494345003934
 31
0.0
  0
LINE
  5
7A
330
1F
100
AcDbEntity
  8
Doc_ Finishes
  6
Continuous
100
AcDbLine
 10
26.54809254523997
 20
12.24494345003934
 30
0.0
 11
25.92624016522423
 21
11.85341070023603
 31
0.0
  0
LINE
  5
7B
330
1F
100
AcDbEntity
  8
Doc_ Finishes
  6
Continuous
100
AcDbLine
 10
25.92624016522423
 20
11.85341070023603
 30
0.0
 11
25.32742328874902
 21
11.32368263178599
 31
0.0
  0
LINE
  5
7C
330
1F
100
AcDbEntity
  8
Doc_ Finishes
  6
Continuous
100
AcDbLine
 10
25.32742328874902
 20
11.32368263178599
 30
0.0
 11
24.72860198662471
 21
11.04730527143981
 31
0.0
  0
LINE
  5
7D
330
1F
100
AcDbEntity
  8
Doc_ Finishes
  6
Continuous
100
AcDbLine
 10
24.72860198662471
 20
11.04730527143981
 30
0.0
 11
24.08371852871754
 21
10.56364378442171
 31
0.0
  0
LINE
  5
7E
330
1F
100
AcDbEntity
  8
Doc_ Finishes
  6
Continuous
100
AcDbLine
 10
24.08371852871754
 20
10.56364378442171
 30
0.0
 11
23.62308811959087
 21
10.33332857985838
 31
0.0
  0
LINE
  5
7F
330
1F
100
AcDbEntity
  8
Doc_ Finishes
  6
Continuous
100
AcDbLine
 10
23.62308811959087
 20
10.33332857985838
 30
0.0
 11
23.23155094413847
 21
10.03392014162077
 31
0.0
  0
LINE
  5
80
330
1F
100
AcDbEntity
  8
Doc_ Finishes
  6
Continuous
100
AcDbLine
 10
23.23155094413847
 20
10.03392014162077
 30
0.0
 11
22.81698269079465
 21
9.619351888276947
 31
0.0
  0
LINE
  5
81
330
1F
100
AcDbEntity
  8
Doc_ Finishes
  6
Continuous
100
AcDbLine
 10
22.81698269079465
 20
9.619351888276947
 30
0.0
 11
22.40241886309992
 21
9.389036683713611
 31
0.0
  0
LINE
  5
82
330
1F
100
AcDbEntity
  8
Doc_ Finishes
  6
Continuous
100
AcDbLine
 10
22.40241886309992
 20
9.389036683713611
 30
0.0
 11
21.91875295043273
 21
9.04356166404406
 31
0.0
  0
LINE
  5
83
330
1F
100
AcDbEntity
  8
Doc_ Finishes
  6
Continuous
100
AcDbLine
 10
21.91875295043273
 20
9.04356166404406
 30
0.0
 11
21.66540666797797
 21
8.859308615263572
 31
0.0
  0
LINE
  5
84
330
1F
100
AcDbEntity
  8
Doc_ Finishes
  6
Continuous
100
AcDbLine
 10
21.66540666797797
 20
8.859308615263572
 30
0.0
 11
21.25084284028324
 21
8.582931254917387
 31
0.0
  0
LINE
  5
85
330
1F
100
AcDbEntity
  8
Doc_ Finishes
  6
Continuous
100
AcDbLine
 10
21.25084284028324
 20
8.582931254917387
 30
0.0
 11
20.09926239181747
 21
7.75379474822974
 31
0.0
  0
LINE
  5
86
330
1F
100
AcDbEntity
  8
Doc_ Finishes
  6
Continuous
100
AcDbLine
 10
20.09926239181747
 20
7.75379474822974
 30
0.0
 11
19.75379179779701
 21
7.477417387883556
 31
0.0
  0
LINE
  5
87
330
1F
100
AcDbEntity
  8
Doc_ Finishes
  6
Continuous
100
AcDbLine
 10
19.75379179779701
 20
7.477417387883556
 30
0.0
 11
19.29316138867033
 21
7.316199842643588
 31
0.0
  0
LINE
  5
88
330
1F
100
AcDbEntity
  8
Doc_ Finishes
  6
Continuous
100
AcDbLine
 10
19.29316138867033
 20
7.316199842643588
 30
0.0
 11
19.22406815499606
 21
6.993755900865461
 31
0.0
  0
LINE
  5
89
330
1F
100
AcDbEntity
  8
Doc_ Finishes
  6
Continuous
100
AcDbLine
 10
19.22406815499606
 20
6.993755900865461
 30
0.0
 11
19.36225462234461
 21
6.717378540519276
 31
0.0
  0
LINE
  5
8A
330
1F
100
AcDbEntity
  8
Doc_ Finishes
  6
Continuous
100
AcDbLine
 10
19.36225462234461
 20
6.717378540519276
 30
0.0
 11
19.63863198269079
 21
6.602218725413059
 31
0.0
  0
LINE
  5
8B
330
1F
100
AcDbEntity
  8
Doc_ Finishes
  6
Continuous
100
AcDbLine
 10
19.63863198269079
 20
6.602218725413059
 30
0.0
 11
20.00713808025177
 21
6.832533929976396
 31
0.0
  0
LINE
  5
8C
330
1F
100
AcDbEntity
  8
Doc_ Finishes
  6
Continuous
100
AcDbLine
 10
20.00713808025177
 20
6.832533929976396
 30
0.0
 11
20.26048436270653
 21
7.1319467938631
 31
0.0
  0
LINE
  5
8D
330
1F
100
AcDbEntity
  8
Doc_ Finishes
  6
Continuous
100
AcDbLine
 10
20.26048436270653
 20
7.1319467938631
 30
0.0
 11
20.55989280094414
 21
7.362261998426435
 31
0.0
  0
LINE
  5
8E
330
1F
100
AcDbEntity
  8
Doc_ Finishes
  6
Continuous
100
AcDbLine
 10
20.55989280094414
 20
7.362261998426435
 30
0.0
 11
21.31993607395751
 21
7.707732592446892
 31
0.0
  0
LINE
  5
8F
330
1F
100
AcDbEntity
  8
Doc_ Finishes
  6
Continuous
100
AcDbLine
 10
21.31993607395751
 20
7.707732592446892
 30
0.0
 11
21.84965971675846
 21
8.122300845790717
 31
0.0
  0
LINE
  5
90
330
1F
100
AcDbEntity
  8
Doc_ Finishes
  6
Continuous
100
AcDbLine
 10
21.84965971675846
 20
8.122300845790717
 30
0.0
 11
22.88608035011802
 21
8.882339693154996
 31
0.0
  0
LINE
  5
91
330
1F
100
AcDbEntity
  8
Doc_ Finishes
  6
Continuous
100
AcDbLine
 10
22.88608035011802
 20
8.882339693154996
 30
0.0
 11
23.20851986624705
 21
9.342974527930762
 31
0.0
  0
LINE
  5
92
330
1F
100
AcDbEntity
  8
Doc_ Finishes
  6
Continuous
100
AcDbLine
 10
23.20851986624705
 20
9.342974527930762
 30
0.0
 11
24.01462529504327
 21
9.734507277734066
 31
0.0
  0
LINE
  5
93
330
1F
100
AcDbEntity
  8
Doc_ Finishes
  6
Continuous
100
AcDbLine
 10
24.01462529504327
 20
9.734507277734066
 30
0.0
 11
24.56738001573564
 21
10.05695121951219
 31
0.0
  0
LINE
  5
94
330
1F
100
AcDbEntity
  8
Doc_ Finishes
  6
Continuous
100
AcDbLine
 10
24.56738001573564
 20
10.05695121951219
 30
0.0
 11
25.46560975609756
 21
10.60970594020456
 31
0.0
  0
LINE
  5
95
330
1F
100
AcDbEntity
  8
Doc_ Finishes
  6
Continuous
100
AcDbLine
 10
25.46560975609756
 20
10.60970594020456
 30
0.0
 11
25.88017800944139
 21
11.07033634933124
 31
0.0
  0
LINE
  5
96
330
1F
100
AcDbEntity
  8
Doc_ Finishes
  6
Continuous
100
AcDbLine
 10
25.88017800944139
 20
11.07033634933124
 30
0.0
 11
26.31777734067663
 21
11.34671370967742
 31
0.0
  0
LINE
  5
97
330
1F
100
AcDbEntity
  8
Doc_ Finishes
  6
Continuous
100
AcDbLine
 10
26.31777734067663
 20
11.34671370967742
 30
0.0
 11
26.70931451612903
 21
11.30065155389457
 31
0.0
  0
LINE
  5
98
330
1F
100
AcDbEntity
  8
Doc_ Finishes
  6
Continuous
100
AcDbLine
 10
26.70931451612903
 20
11.30065155389457
 30
0.0
 11
27.21600708103855
 21
11.55399783634933
 31
0.0
  0
LINE
  5
99
330
1F
100
AcDbEntity
  8
Doc_ Finishes
  6
Continuous
100
AcDbLine
 10
27.21600708103855
 20
11.55399783634933
 30
0.0
 11
28.06817466561763
 21
12.17585021636507
 31
0.0
  0
LINE
  5
9A
330
1F
100
AcDbEntity
  8
Doc_ Finishes
  6
Continuous
100
AcDbLine
 10
28.06817466561763
 20
12.17585021636507
 30
0.0
 11
28.41364525963808
 21
12.49829415814319
 31
0.0
  0
LINE
  5
9B
330
1F
100
AcDbEntity
  8
Doc_ Finishes
  6
Continuous
100
AcDbLine
 10
28.41364525963808
 20
12.49829415814319
 30
0.0
 11
28.39061418174666
 21
12.77467151848938
 31
0.0
  0
LINE
  5
9C
330
1F
100
AcDbEntity
  8
Doc_ Finishes
  6
Continuous
100
AcDbLine
 10
28.39061418174666
 20
12.77467151848938
 30
0.0
 11
28.22939221085759
 21
13.00498672305271
 31
0.0
  0
LINE
  5
9D
330
1F
100
AcDbEntity
  8
Doc_ Finishes
  6
Continuous
100
AcDbLine
 10
28.22939221085759
 20
13.00498672305271
 30
0.0
 11
28.04514358772619
 21
13.05104887883556
 31
0.0
  0
LINE
  5
9E
330
1F
100
AcDbEntity
  8
Doc_ Finishes
  6
Continuous
100
AcDbLine
 10
28.04514358772619
 20
13.05104887883556
 30
0.0
 11
27.6536064122738
 21
13.12014211250983
 31
0.0
  0
HATCH
  5
9F
330
1F
100
AcDbEntity
  8
Doc_ Finishes
  6
Continuous
100
AcDbHatch
 10
0.0
 20
0.0
 30
0.0
210
0.0
220
0.0
230
1.0
  2
SOLID
 70
     1
 71
     0
 91
        1
 92
        3
 72
     0
 73
     1
 93
       47
 10
28.06817353700456
 20
15.74573772316067
 10
28.30309513961077
 20
15.62136746295728
 10
28.4412843176144
 20
15.4002647781515
 10
28.93876535842742
 20
15.17916209334572
 10
29.82317609765057
 20
14.40530269652538
 10
30.92868952167951
 20
13.74199464210799
 10
31.59199757609689
 20
13.3827027792986
 10
32.20002995931279
 20
13.07868658769064
 10
33.55428390374828
 20
12.08372450606458
 10
34.07940278016201
 20
11.69679480765445
 10
34.88090001258301
 20
11.08876242443854
 10
35.59948373820179
 20
10.50836787682334
 10
36.5668079842271
 20
9.817421986805197
 10
37.06428902504012
 20
9.458130123995785
 10
37.81051058625966
 20
8.933011247582023
 10
38.61200781868061
 20
8.407892371168286
 10
38.77783483228498
 20
8.186789686362482
 10
39.38586721550092
 20
7.744584316750918
 10
40.18736444792187
 20
6.915449248729224
 10
40.7953968311378
 20
6.44560604351692
 10
41.56925622795804
 20
6.169227687509681
 10
42.23256428237543
 20
6.086314180707507
 10
42.48130480278193
 20
6.30741686551329
 10
42.14965077557326
 20
6.611433057121246
 10
41.48634272115586
 20
6.998362755531397
 10
40.76775899553709
 20
7.357654618340788
 10
40.18736444792187
 20
8.048600508358874
 10
38.99893751709079
 20
8.822459905179112
 10
38.47381864067705
 20
9.319940945992132
 10
38.22507812027052
 20
9.734508480003
 10
37.17484036744301
 20
10.31490302761817
 10
36.73263499783144
 20
10.78474623283046
 10
36.2351539570184
 20
11.17167593124059
 10
35.48893239579888
 20
11.61388130085215
 10
34.85326217698223
 20
12.16663801286669
 10
34.35578113616919
 20
12.58120554687754
 10
33.69247308175183
 20
12.99577308088841
 10
33.22262987653953
 20
13.32742710809708
 10
32.7251488357265
 20
13.5761676285036
 10
31.93747052110588
 20
14.06443605744977
 10
31.43077686842594
 20
14.38687747279155
 10
30.92408321574601
 20
14.70931888813342
 10
30.62467333007151
 20
15.100854892477
 10
29.95675896972068
 20
15.67664313415887
 10
29.47309684670803
 20
15.9530214901661
 10
28.82821401602447
 20
16.36758902417695
 10
28.50577260068269
 20
16.22939984617334
 97
        0
 75
     0
 76
     1
 98
        0
  0
LINE
  5
A0
330
1F
100
AcDbEntity
  8
Doc_ Finishes
  6
Continuous
100
AcDbLine
 10
28.30309697088906
 20
15.62136850904799
 30
0.0
 11
28.06817466561763
 21
15.74573809992132
 31
0.0
  0
LINE
  5
A1
330
1F
100
AcDbEntity
  8
Doc_ Finishes
  6
Continuous
100
AcDbLine
 10
28.44128343823761
 20
15.40026308025177
 30
0.0
 11
28.30309697088906
 21
15.62136850904799
 31
0.0
  0
LINE
  5
A2
330
1F
100
AcDbEntity
  8
Doc_ Finishes
  6
Continuous
100
AcDbLine
 10
28.93876622738001
 20
15.17916207710464
 30
0.0
 11
28.44128343823761
 21
15.40026308025177
 31
0.0
  0
LINE
  5
A3
330
1F
100
AcDbEntity
  8
Doc_ Finishes
  6
Continuous
100
AcDbLine
 10
29.82317466561762
 20
14.40530192761605
 30
0.0
 11
28.93876622738001
 21
15.17916207710464
 31
0.0
  0
LINE
  5
A4
330
1F
100
AcDbEntity
  8
Doc_ Finishes
  6
Continuous
100
AcDbLine
 10
30.92868853265146
 20
13.74199449252557
 30
0.0
 11
29.82317466561762
 21
14.40530192761605
 31
0.0
  0
LINE
  5
A5
330
1F
100
AcDbEntity
  8
Doc_ Finishes
  6
Continuous
100
AcDbLine
 10
31.59199596774193
 20
13.3827025963808
 30
0.0
 11
30.92868853265146
 21
13.74199449252557
 31
0.0
  0
LINE
  5
A6
330
1F
100
AcDbEntity
  8
Doc_ Finishes
  6
Continuous
100
AcDbLine
 10
32.20003147128246
 20
13.07868705743509
 30
0.0
 11
31.59199596774193
 21
13.3827025963808
 31
0.0
  0
LINE
  5
A7
330
1F
100
AcDbEntity
  8
Doc_ Finishes
  6
Continuous
100
AcDbLine
 10
33.55428452006294
 20
12.08372590479937
 30
0.0
 11
32.20003147128246
 21
13.07868705743509
 31
0.0
  0
LINE
  5
A8
330
1F
100
AcDbEntity
  8
Doc_ Finishes
  6
Continuous
100
AcDbLine
 10
34.07940106215578
 20
11.69679583005508
 30
0.0
 11
33.55428452006294
 21
12.08372590479937
 31
0.0
  0
LINE
  5
A9
330
1F
100
AcDbEntity
  8
Doc_ Finishes
  6
Continuous
100
AcDbLine
 10
34.8808993902439
 20
11.08876032651456
 30
0.0
 11
34.07940106215578
 21
11.69679583005508
 31
0.0
  0
LINE
  5
AA
330
1F
100
AcDbEntity
  8
Doc_ Finishes
  6
Continuous
100
AcDbLine
 10
35.59948318253343
 20
10.50836742722266
 30
0.0
 11
34.8808993902439
 21
11.08876032651456
 31
0.0
  0
LINE
  5
AB
330
1F
100
AcDbEntity
  8
Doc_ Finishes
  6
Continuous
100
AcDbLine
 10
36.56680615656963
 20
9.817421813532652
 30
0.0
 11
35.59948318253343
 21
10.50836742722266
 31
0.0
  0
LINE
  5
AC
330
1F
100
AcDbEntity
  8
Doc_ Finishes
  6
Continuous
100
AcDbLine
 10
37.06428894571204
 20
9.458129917387884
 30
0.0
 11
36.56680615656963
 21
9.817421813532652
 31
0.0
  0
LINE
  5
AD
330
1F
100
AcDbEntity
  8
Doc_ Finishes
  6
Continuous
100
AcDbLine
 10
37.8105109166011
 20
8.933013375295044
 30
0.0
 11
37.06428894571204
 21
9.458129917387884
 31
0.0
  0
LINE
  5
AE
330
1F
100
AcDbEntity
  8
Doc_ Finishes
  6
Continuous
100
AcDbLine
 10
38.61200924468922
 20
8.407892407553108
 30
0.0
 11
37.8105109166011
 21
8.933013375295044
 31
0.0
  0
LINE
  5
AF
330
1F
100
AcDbEntity
  8
Doc_ Finishes
  6
Continuous
100
AcDbLine
 10
38.77783389063729
 20
8.18679140440598
 30
0.0
 11
38.61200924468922
 21
8.407892407553108
 31
0.0
  0
LINE
  5
B0
330
1F
100
AcDbEntity
  8
Doc_ Finishes
  6
Continuous
100
AcDbLine
 10
39.3858693941778
 20
7.744584972462627
 30
0.0
 11
38.77783389063729
 21
8.18679140440598
 31
0.0
  0
LINE
  5
B1
330
1F
100
AcDbEntity
  8
Doc_ Finishes
  6
Continuous
100
AcDbLine
 10
40.18736329661684
 20
6.915448465774981
 30
0.0
 11
39.3858693941778
 21
7.744584972462627
 31
0.0
  0
LINE
  5
B2
330
1F
100
AcDbEntity
  8
Doc_ Finishes
  6
Continuous
100
AcDbLine
 10
40.79539880015735
 20
6.4456038552321
 30
0.0
 11
40.18736329661684
 21
6.915448465774981
 31
0.0
  0
LINE
  5
B3
330
1F
100
AcDbEntity
  8
Doc_ Finishes
  6
Continuous
100
AcDbLine
 10
41.56925452399685
 20
6.169226494885916
 30
0.0
 11
40.79539880015735
 21
6.4456038552321
 31
0.0
  0
LINE
  5
B4
330
1F
100
AcDbEntity
  8
Doc_ Finishes
  6
Continuous
100
AcDbLine
 10
42.23256638473643
 20
6.086316384736428
 30
0.0
 11
41.56925452399685
 21
6.169226494885916
 31
0.0
  0
LINE
  5
B5
330
1F
100
AcDbEntity
  8
Doc_ Finishes
  6
Continuous
100
AcDbLine
 10
42.48130556648308
 20
6.307417387883556
 30
0.0
 11
42.23256638473643
 21
6.086316384736428
 31
0.0
  0
LINE
  5
B6
330
1F
100
AcDbEntity
  8
Doc_ Finishes
  6
Continuous
100
AcDbLine
 10
42.14965184893784
 20
6.611432926829268
 30
0.0
 11
42.48130556648308
 21
6.307417387883556
 31
0.0
  0
LINE
  5
B7
330
1F
100
AcDbEntity
  8
Doc_ Finishes
  6
Continuous
100
AcDbLine
 10
41.48634441384736
 20
6.998363001573564
 30
0.0
 11
42.14965184893784
 21
6.611432926829268
 31
0.0
  0
LINE
  5
B8
330
1F
100
AcDbEntity
  8
Doc_ Finishes
  6
Continuous
100
AcDbLine
 10
40.76776062155783
 20
7.357654897718332
 30
0.0
 11
41.48634441384736
 21
6.998363001573564
 31
0.0
  0
LINE
  5
B9
330
1F
100
AcDbEntity
  8
Doc_ Finishes
  6
Continuous
100
AcDbLine
 10
40.18736329661684
 20
8.048600511408338
 30
0.0
 11
40.76776062155783
 21
7.357654897718332
 31
0.0
  0
LINE
  5
BA
330
1F
100
AcDbEntity
  8
Doc_ Finishes
  6
Continuous
100
AcDbLine
 10
38.99893931943352
 20
8.822460660896931
 30
0.0
 11
40.18736329661684
 21
8.048600511408338
 31
0.0
  0
LINE
  5
BB
330
1F
100
AcDbEntity
  8
Doc_ Finishes
  6
Continuous
100
AcDbLine
 10
38.47381835169158
 20
9.319939024390242
 30
0.0
 11
38.99893931943352
 21
8.822460660896931
 31
0.0
  0
LINE
  5
BC
330
1F
100
AcDbEntity
  8
Doc_ Finishes
  6
Continuous
100
AcDbLine
 10
38.22507916994492
 20
9.734507277734066
 30
0.0
 11
38.47381835169158
 21
9.319939024390242
 31
0.0
  0
LINE
  5
BD
330
1F
100
AcDbEntity
  8
Doc_ Finishes
  6
Continuous
100
AcDbLine
 10
37.17484166011014
 20
10.31490460267506
 30
0.0
 11
38.22507916994492
 21
9.734507277734066
 31
0.0
  0
LINE
  5
BE
330
1F
100
AcDbEntity
  8
Doc_ Finishes
  6
Continuous
100
AcDbLine
 10
36.7326352281668
 20
10.78474478756884
 30
0.0
 11
37.17484166011014
 21
10.31490460267506
 31
0.0
  0
LINE
  5
BF
330
1F
100
AcDbEntity
  8
Doc_ Finishes
  6
Continuous
100
AcDbLine
 10
36.23515243902439
 20
11.17167486231314
 30
0.0
 11
36.7326352281668
 21
10.78474478756884
 31
0.0
  0
LINE
  5
C0
330
1F
100
AcDbEntity
  8
Doc_ Finishes
  6
Continuous
100
AcDbLine
 10
35.48893046813532
 20
11.61388129425649
 30
0.0
 11
36.23515243902439
 21
11.17167486231314
 31
0.0
  0
LINE
  5
C1
330
1F
100
AcDbEntity
  8
Doc_ Finishes
  6
Continuous
100
AcDbLine
 10
34.85326121164437
 20
12.16663601494886
 30
0.0
 11
35.48893046813532
 21
11.61388129425649
 31
0.0
  0
LINE
  5
C2
330
1F
100
AcDbEntity
  8
Doc_ Finishes
  6
Continuous
100
AcDbLine
 10
34.35578284815106
 20
12.58120426829268
 30
0.0
 11
34.85326121164437
 21
12.16663601494886
 31
0.0
  0
LINE
  5
C3
330
1F
100
AcDbEntity
  8
Doc_ Finishes
  6
Continuous
100
AcDbLine
 10
33.69247098741149
 20
12.99577252163651
 30
0.0
 11
34.35578284815106
 21
12.58120426829268
 31
0.0
  0
LINE
  5
C4
330
1F
100
AcDbEntity
  8
Doc_ Finishes
  6
Continuous
100
AcDbLine
 10
33.2226308025177
 20
13.32742623918175
 30
0.0
 11
33.69247098741149
 21
12.99577252163651
 31
0.0
  0
LINE
  5
C5
330
1F
100
AcDbEntity
  8
Doc_ Finishes
  6
Continuous
100
AcDbLine
 10
32.7251480133753
 20
13.5761654209284
 30
0.0
 11
33.2226308025177
 21
13.32742623918175
 31
0.0
  0
LINE
  5
C6
330
1F
100
AcDbEntity
  8
Doc_ Finishes
  6
Continuous
100
AcDbLine
 10
31.93747098741148
 20
14.0644340086546
 30
0.0
 11
32.7251480133753
 21
13.5761654209284
 31
0.0
  0
LINE
  5
C7
330
1F
100
AcDbEntity
  8
Doc_ Finishes
  6
Continuous
100
AcDbLine
 10
31.43077842250197
 20
14.38687795043273
 30
0.0
 11
31.93747098741148
 21
14.0644340086546
 31
0.0
  0
LINE
  5
C8
330
1F
100
AcDbEntity
  8
Doc_ Finishes
  6
Continuous
100
AcDbLine
 10
30.92408143194335
 20
14.70931746656176
 30
0.0
 11
31.43077842250197
 21
14.38687795043273
 31
0.0
  0
LINE
  5
C9
330
1F
100
AcDbEntity
  8
Doc_ Finishes
  6
Continuous
100
AcDbLine
 10
30.62467299370574
 20
15.10085464201416
 30
0.0
 11
30.92408143194335
 21
14.70931746656176
 31
0.0
  0
LINE
  5
CA
330
1F
100
AcDbEntity
  8
Doc_ Finishes
  6
Continuous
100
AcDbLine
 10
29.95675845790716
 20
15.67664486624705
 30
0.0
 11
30.62467299370574
 21
15.10085464201416
 31
0.0
  0
LINE
  5
CB
330
1F
100
AcDbEntity
  8
Doc_ Finishes
  6
Continuous
100
AcDbLine
 10
29.47309697088906
 20
15.95302222659323
 30
0.0
 11
29.95675845790716
 21
15.67664486624705
 31
0.0
  0
LINE
  5
CC
330
1F
100
AcDbEntity
  8
Doc_ Finishes
  6
Continuous
100
AcDbLine
 10
28.8282135129819
 20
16.36759047993706
 30
0.0
 11
29.47309697088906
 21
15.95302222659323
 31
0.0
  0
LINE
  5
CD
330
1F
100
AcDbEntity
  8
Doc_ Finishes
  6
Continuous
100
AcDbLine
 10
28.50577399685287
 20
16.22939958693942
 30
0.0
 11
28.8282135129819
 21
16.36759047993706
 31
0.0
  0
LINE
  5
CE
330
1F
100
AcDbEntity
  8
Doc_ Finishes
  6
Continuous
100
AcDbLine
 10
28.06817466561763
 20
15.74573809992132
 30
0.0
 11
28.50577399685287
 21
16.22939958693942
 31
0.0
  0
LINE
  5
CF
330
1F
100
AcDbEntity
  8
Doc_ Finishes
  6
Continuous
 62
   254
370
    18
100
AcDbLine
 10
97.43333792289535
 20
5.093360051140834
 30
0.0
 11
97.43333792289535
 21
20.69901750590086
 31
0.0
  0
LINE
  5
D0
330
1F
100
AcDbEntity
  8
Doc_ Finishes
  6
Continuous
 62
   254
370
    18
100
AcDbLine
 10
7.000000491738787
 20
20.69901750590086
 30
0.0
 11
290.2406840086546
 21
20.69901750590086
 31
0.0
  0
LINE
  5
D1
330
1F
100
AcDbEntity
  8
Doc_ Finishes
  6
Continuous
 62
   254
370
    18
100
AcDbLine
 10
290.2406840086546
 20
20.69901750590086
 30
0.0
 11
290.2406840086546
 21
5.000000983477577
 31
0.0
  0
LINE
  5
D2
330
1F
100
AcDbEntity
  8
Doc_ Finishes
  6
Continuous
 62
   254
370
    18
100
AcDbLine
 10
290.2406840086546
 20
5.000000983477577
 30
0.0
 11
7.000000491738787
 21
5.000000983477577
 31
0.0
  0
LINE
  5
D3
330
1F
100
AcDbEntity
  8
Doc_ Finishes
  6
Continuous
 62
   254
370
    18
100
AcDbLine
 10
7.000000491738787
 20
20.69901750590086
 30
0.0
 11
7.000000491738787
 21
5.000000983477577
 31
0.0
  0
LINE
  5
D4
330
1F
100
AcDbEntity
  8
Doc_ Finishes
  6
Continuous
 62
   254
370
    18
100
AcDbLine
 10
190.2919443351691
 20
5.093360051140834
 30
0.0
 11
190.2919443351691
 21
20.69901750590086
 31
0.0
  0
LINE
  5
D5
330
1F
100
AcDbEntity
  8
Doc_ Finishes
  6
Continuous
 62
   254
370
    18
100
AcDbLine
 10
190.2919443351691
 20
12.8961909913454
 30
0.0
 11
290.2406840086546
 21
12.8961909913454
 31
0.0
  0
MTEXT
  5
D7
330
1F
100
AcDbEntity
  8
0
  6
Continuous
100
AcDbMText
 10
210.3494767103412
 20
15.00227993155626
 30
0.0
 40
2.25
 41
0.0
 71
     7
 72
     1
  1
{R-TRS7-08}
  7
GENERATED_STYLE_1
 73
     1
 44
1.0
  0
MTEXT
  5
D8
330
1F
100
AcDbEntity
  8
0
  6
Continuous
100
AcDbMText
 10
210.3494767103412
 20
11.03300550383743
 30
0.0
 40
3.0
 41
0.0
 71
     1
 72
     1
  1
{APRON DETAIL - HEAD}
  7
GENERATED_STYLE_1
 73
     1
 44
1.0
  0
MTEXT
  5
DA
330
1F
100
AcDbEntity
  8
Doc_ Floor
  6
Continuous
100
AcDbMText
 10
29.78353726544612
 20
13.33283672870609
 30
0.0
 40
5.603347280334726
 41
0.0
 71
     1
 72
     1
  1
{The Roofing Store}
  7
GENERATED_STYLE_2
 73
     1
 44
1.0
  0
MTEXT
  5
DC
102
{ACAD_XDICTIONARY
360
665
102
}
330
1F
100
AcDbEntity
  8
0
  6
Continuous
100
AcDbMText
 10
102.7389238446655
 20
6.378784417288156
 30
0.0
 40
1.5
 41
0.0
 71
     7
 72
     1
  1
{P: HEAD OFFICE              09 277 2717\P    ALBANY             09 972 0060\P    KATIKAIT            07 549 5190\P    WELLINGTON              04 974 5792\P    CHRISTCHURCH          03 348 6528}
  7
GENERATED_STYLE_1
 73
     1
 44
1.062946161486498
  0
MTEXT
  5
DD
330
1F
100
AcDbEntity
  8
0
  6
Continuous
100
AcDbMText
 10
149.4184566143587
 20
9.199084231526156
 30
0.0
 40
1.5
 41
0.0
 71
     7
 72
     1
  1
{WEB: www.theroofingstore.co.nz}
  7
GENERATED_STYLE_1
 73
     1
 44
1.0
  0
MTEXT
  5
DE
330
1F
100
AcDbEntity
  8
0
  6
Continuous
100
AcDbMText
 10
149.4184566143587
 20
6.620946023411263
 30
0.0
 40
1.5
 41
0.0
 71
     7
 72
     1
  1
{Copyright \U+00A9 The Roofing Store 2013}
  7
GENERATED_STYLE_1
 73
     1
 44
1.0
  0
MTEXT
  5
DF
330
1F
100
AcDbEntity
  8
0
  6
Continuous
100
AcDbMText
 10
273.9546684065315
 20
15.01594826540159
 30
0.0
 40
2.25
 41
0.0
 71
     7
 72
     1
  1
{1:5}
  7
GENERATED_STYLE_1
 73
     1
 44
1.0
  0
MTEXT
  5
E0
330
1F
100
AcDbEntity
  8
0
  6
Continuous
100
AcDbMText
 10
264.8396605309016
 20
15.51746459162148
 30
0.0
 40
1.5
 41
0.0
 71
     7
 72
     1
  1
{SCALE:}
  7
GENERATED_STYLE_1
 73
     1
 44
1.0
  0
MTEXT
  5
E1
330
1F
100
AcDbEntity
  8
0
  6
Continuous
100
AcDbMText
 10
191.5066235617487
 20
15.48695559872207
 30
0.0
 40
1.5
 41
0.0
 71
     7
 72
     1
  1
{DETAIL NUMBER:}
  7
GENERATED_STYLE_1
 73
     1
 44
1.0
  0
MTEXT
  5
E2
330
1F
100
AcDbEntity
  8
0
  6
Continuous
100
AcDbMText
 10
191.5066235617487
 20
9.005462392315325
 30
0.0
 40
1.5
 41
0.0
 71
     7
 72
     1
  1
{TITLE:}
  7
GENERATED_STYLE_1
 73
     1
 44
1.0
  0
INSERT
  5
633
102
{ACAD_XDICTIONARY
360
634
102
}
330
1F
100
AcDbEntity
  8
0
  6
Continuous
100
AcDbBlockReference
  2
Drawing_1_2
 10
28.8753134188689
 20
84.42632391951834
 30
0.0
  0
ENDSEC
  0
SECTION
  2
OBJECTS
  0
DICTIONARY
  5
C
330
0
100
AcDbDictionary
281
     1
  3
ACAD_GROUP
350
D
  3
ACAD_LAYOUT
350
1A
  3
ACAD_MATERIAL
350
3B
  3
ACAD_MLEADERSTYLE
350
660
  3
ACAD_MLINESTYLE
350
17
  3
ACAD_PLOTSETTINGS
350
19
  3
ACAD_PLOTSTYLENAME
350
E
  3
ACAD_SCALELIST
350
63A
  3
ACAD_VISUALSTYLE
350
2A
  3
AcDbVariableDictionary
350
65E
  3
WATERMARKS
350
65C
  0
DICTIONARY
  5
665
330
DC
100
AcDbDictionary
280
     1
281
     1
  3
ACAD_MTEXT_RT
360
666
  0
DICTIONARY
  5
634
330
633
100
AcDbDictionary
280
     1
281
     1
  3
ACAD_FILTER
360
635
  0
DICTIONARY
  5
D
102
{ACAD_REACTORS
330
C
102
}
330
C
100
AcDbDictionary
281
     1
  0
DICTIONARY
  5
1A
102
{ACAD_REACTORS
330
C
102
}
330
C
100
AcDbDictionary
281
     1
  3
Layout1
350
1E
  3
Model
350
22
  0
DICTIONARY
  5
3B
102
{ACAD_REACTORS
330
C
102
}
330
C
100
AcDbDictionary
281
     1
  3
ByBlock
350
3D
  3
ByLayer
350
3C
  3
Global
350
3E
  0
DICTIONARY
  5
660
102
{ACAD_REACTORS
330
C
102
}
330
C
100
AcDbDictionary
281
     1
  0
DICTIONARY
  5
17
102
{ACAD_REACTORS
330
C
102
}
330
C
100
AcDbDictionary
281
     1
  3
Standard
350
18
  0
DICTIONARY
  5
19
102
{ACAD_REACTORS
330
C
102
}
330
C
100
AcDbDictionary
281
     1
  0
ACDBDICTIONARYWDFLT
  5
E
102
{ACAD_REACTORS
330
C
102
}
330
C
100
AcDbDictionary
281
     1
  3
Normal
350
F
100
AcDbDictionaryWithDefault
340
F
  0
DICTIONARY
  5
63A
102
{ACAD_REACTORS
330
C
102
}
330
C
100
AcDbDictionary
281
     1
  3
A0
350
63B
  3
A1
350
63C
  3
A2
350
63D
  3
A3
350
63E
  3
A4
350
63F
  3
A5
350
640
  3
A6
350
641
  3
A7
350
642
  3
A8
350
643
  3
A9
350
644
  3
B0
350
645
  3
B1
350
646
  3
B2
350
647
  3
B3
350
648
  3
B4
350
649
  3
B5
350
64A
  3
B6
350
64B
  3
B7
350
64C
  3
B8
350
64D
  3
B9
350
64E
  3
C0
350
64F
  3
C1
350
650
  3
C2
350
651
  3
C3
350
652
  3
C4
350
653
  3
C5
350
654
  3
C6
350
655
  3
C7
350
656
  3
C8
350
657
  3
C9
350
658
  3
D0
350
659
  3
D1
350
65A
  3
D2
350
65B
  0
DICTIONARY
  5
2A
102
{ACAD_REACTORS
330
C
102
}
330
C
100
AcDbDictionary
281
     1
  3
2dWireframe
350
2F
  3
3D Hidden
350
31
  3
3dWireframe
350
30
  3
Basic
350
32
  3
Brighten
350
36
  3
ColorChange
350
3A
  3
Conceptual
350
34
  3
Dim
350
35
  3
Facepattern
350
39
  3
Flat
350
2B
  3
FlatWithEdges
350
2C
  3
Gouraud
350
2D
  3
GouraudWithEdges
350
2E
  3
Linepattern
350
38
  3
Realistic
350
33
  3
Thicken
350
37
  0
DICTIONARY
  5
65E
102
{ACAD_REACTORS
330
C
102
}
330
C
100
AcDbDictionary
281
     1
  3
CANNOSCALE
350
662
  3
DIMASSOC
350
663
  3
HIDETEXT
350
664
  3
XCLIPFRAME
350
661
  0
DICTIONARY
  5
65C
102
{ACAD_REACTORS
330
C
102
}
330
C
100
AcDbDictionary
281
     1
  3
AC_WATERMARK
350
65D
  0
XRECORD
  5
666
102
{ACAD_REACTORS
330
665
102
}
330
665
100
AcDbXrecord
280
     1
 40
956118.0
  1
{P: HEAD OFFICE ^I^I09 277 2717\P    ALBANY ^I^I09 972 0060\P    KATIKAIT^I^I07 549 5190\P    WELLINGTON^I^I04 974 5792\P    CHRISTCHURCH^I^I03 348 6528}
  0
DICTIONARY
  5
635
102
{ACAD_REACTORS
330
634
102
}
330
634
100
AcDbDictionary
280
     1
281
     1
  3
SPATIAL
360
636
  0
LAYOUT
  5
1E
102
{ACAD_REACTORS
330
1A
102
}
330
1A
100
AcDbPlotSettings
  1

  2
none_device
  4

  6

 40
0.0
 41
0.0
 42
0.0
 43
0.0
 44
0.0
 45
0.0
 46
0.0
 47
0.0
 48
0.0
 49
0.0
140
0.0
141
0.0
142
1.0
143
1.0
 70
   688
 72
     0
 73
     0
 74
     5
  7

 75
    16
147
1.0
148
0.0
149
0.0
100
AcDbLayout
  1
Layout1
 70
     1
 71
     1
 10
0.0
 20
0.0
 11
12.0
 21
9.0
 12
0.0
 22
0.0
 32
0.0
 14
1.000000000000000E+20
 24
1.000000000000000E+20
 34
1.000000000000000E+20
 15
-1.000000000000000E+20
 25
-1.000000000000000E+20
 35
-1.000000000000000E+20
146
0.0
 13
0.0
 23
0.0
 33
0.0
 16
1.0
 26
0.0
 36
0.0
 17
0.0
 27
1.0
 37
0.0
 76
     0
330
1B
  0
LAYOUT
  5
22
102
{ACAD_REACTORS
330
1A
102
}
330
1A
100
AcDbPlotSettings
  1

  2
none_device
  4

  6

 40
0.0
 41
0.0
 42
0.0
 43
0.0
 44
0.0
 45
0.0
 46
0.0
 47
0.0
 48
0.0
 49
0.0
140
0.0
141
0.0
142
1.0
143
1.0
 70
  1712
 72
     0
 73
     0
 74
     0
  7

 75
     0
147
1.0
148
0.0
149
0.0
100
AcDbLayout
  1
Model
 70
     1
 71
     0
 10
0.0
 20
0.0
 11
12.0
 21
9.0
 12
0.0
 22
0.0
 32
0.0
 14
1.000000000000000E+20
 24
1.000000000000000E+20
 34
1.000000000000000E+20
 15
-1.000000000000000E+20
 25
-1.000000000000000E+20
 35
-1.000000000000000E+20
146
0.0
 13
0.0
 23
0.0
 33
0.0
 16
1.0
 26
0.0
 36
0.0
 17
0.0
 27
1.0
 37
0.0
 76
     0
330
1F
331
29
  0
MATERIAL
  5
3D
102
{ACAD_REACTORS
330
3B
102
}
102
{ACAD_XDICTIONARY
360
689
102
}
330
3B
100
AcDbMaterial
  1
ByBlock
  0
MATERIAL
  5
3C
102
{ACAD_REACTORS
330
3B
102
}
102
{ACAD_XDICTIONARY
360
687
102
}
330
3B
100
AcDbMaterial
  1
ByLayer
  0
MATERIAL
  5
3E
102
{ACAD_REACTORS
330
3B
102
}
102
{ACAD_XDICTIONARY
360
68B
102
}
330
3B
100
AcDbMaterial
  1
Global
  0
MLINESTYLE
  5
18
102
{ACAD_REACTORS
330
17
102
}
330
17
100
AcDbMlineStyle
  2
Standard
 70
     0
  3

 62
   256
 51
90.0
 52
90.0
 71
     2
 49
0.5
 62
   256
  6
BYLAYER
 49
-0.5
 62
   256
  6
BYLAYER
  0
ACDBPLACEHOLDER
  5
F
102
{ACAD_REACTORS
330
E
102
}
330
E
  0
SCALE
  5
63B
102
{ACAD_REACTORS
330
63A
102
}
330
63A
100
AcDbScale
 70
     0
300
1:1
140
1.0
141
1.0
290
     1
  0
SCALE
  5
63C
102
{ACAD_REACTORS
330
63A
102
}
330
63A
100
AcDbScale
 70
     0
300
1:2
140
1.0
141
2.0
290
     0
  0
SCALE
  5
63D
102
{ACAD_REACTORS
330
63A
102
}
330
63A
100
AcDbScale
 70
     0
300
1:4
140
1.0
141
4.0
290
     0
  0
SCALE
  5
63E
102
{ACAD_REACTORS
330
63A
102
}
330
63A
100
AcDbScale
 70
     0
300
1:5
140
1.0
141
5.0
290
     0
  0
SCALE
  5
63F
102
{ACAD_REACTORS
330
63A
102
}
330
63A
100
AcDbScale
 70
     0
300
1:8
140
1.0
141
8.0
290
     0
  0
SCALE
  5
640
102
{ACAD_REACTORS
330
63A
102
}
330
63A
100
AcDbScale
 70
     0
300
1:10
140
1.0
141
10.0
290
     0
  0
SCALE
  5
641
102
{ACAD_REACTORS
330
63A
102
}
330
63A
100
AcDbScale
 70
     0
300
1:16
140
1.0
141
16.0
290
     0
  0
SCALE
  5
642
102
{ACAD_REACTORS
330
63A
102
}
330
63A
100
AcDbScale
 70
     0
300
1:20
140
1.0
141
20.0
290
     0
  0
SCALE
  5
643
102
{ACAD_REACTORS
330
63A
102
}
330
63A
100
AcDbScale
 70
     0
300
1:30
140
1.0
141
30.0
290
     0
  0
SCALE
  5
644
102
{ACAD_REACTORS
330
63A
102
}
330
63A
100
AcDbScale
 70
     0
300
1:40
140
1.0
141
40.0
290
     0
  0
SCALE
  5
645
102
{ACAD_REACTORS
330
63A
102
}
330
63A
100
AcDbScale
 70
     0
300
1:50
140
1.0
141
50.0
290
     0
  0
SCALE
  5
646
102
{ACAD_REACTORS
330
63A
102
}
330
63A
100
AcDbScale
 70
     0
300
1:100
140
1.0
141
100.0
290
     0
  0
SCALE
  5
647
102
{ACAD_REACTORS
330
63A
102
}
330
63A
100
AcDbScale
 70
     0
300
2:1
140
2.0
141
1.0
290
     0
  0
SCALE
  5
648
102
{ACAD_REACTORS
330
63A
102
}
330
63A
100
AcDbScale
 70
     0
300
4:1
140
4.0
141
1.0
290
     0
  0
SCALE
  5
649
102
{ACAD_REACTORS
330
63A
102
}
330
63A
100
AcDbScale
 70
     0
300
8:1
140
8.0
141
1.0
290
     0
  0
SCALE
  5
64A
102
{ACAD_REACTORS
330
63A
102
}
330
63A
100
AcDbScale
 70
     0
300
10:1
140
10.0
141
1.0
290
     0
  0
SCALE
  5
64B
102
{ACAD_REACTORS
330
63A
102
}
330
63A
100
AcDbScale
 70
     0
300
100:1
140
100.0
141
1.0
290
     0
  0
SCALE
  5
64C
102
{ACAD_REACTORS
330
63A
102
}
330
63A
100
AcDbScale
 70
     0
300
1/128" = 1'-0"
140
0.0078125
141
12.0
290
     0
  0
SCALE
  5
64D
102
{ACAD_REACTORS
330
63A
102
}
330
63A
100
AcDbScale
 70
     0
300
1/64" = 1'-0"
140
0.015625
141
12.0
290
     0
  0
SCALE
  5
64E
102
{ACAD_REACTORS
330
63A
102
}
330
63A
100
AcDbScale
 70
     0
300
1/32" = 1'-0"
140
0.03125
141
12.0
290
     0
  0
SCALE
  5
64F
102
{ACAD_REACTORS
330
63A
102
}
330
63A
100
AcDbScale
 70
     0
300
1/16" = 1'-0"
140
0.0625
141
12.0
290
     0
  0
SCALE
  5
650
102
{ACAD_REACTORS
330
63A
102
}
330
63A
100
AcDbScale
 70
     0
300
3/32" = 1'-0"
140
0.09375
141
12.0
290
     0
  0
SCALE
  5
651
102
{ACAD_REACTORS
330
63A
102
}
330
63A
100
AcDbScale
 70
     0
300
1/8" = 1'-0"
140
0.125
141
12.0
290
     0
  0
SCALE
  5
652
102
{ACAD_REACTORS
330
63A
102
}
330
63A
100
AcDbScale
 70
     0
300
3/16" = 1'-0"
140
0.1875
141
12.0
290
     0
  0
SCALE
  5
653
102
{ACAD_REACTORS
330
63A
102
}
330
63A
100
AcDbScale
 70
     0
300
1/4" = 1'-0"
140
0.25
141
12.0
290
     0
  0
SCALE
  5
654
102
{ACAD_REACTORS
330
63A
102
}
330
63A
100
AcDbScale
 70
     0
300
3/8" = 1'-0"
140
0.375
141
12.0
290
     0
  0
SCALE
  5
655
102
{ACAD_REACTORS
330
63A
102
}
330
63A
100
AcDbScale
 70
     0
300
1/2" = 1'-0"
140
0.5
141
12.0
290
     0
  0
SCALE
  5
656
102
{ACAD_REACTORS
330
63A
102
}
330
63A
100
AcDbScale
 70
     0
300
3/4" = 1'-0"
140
0.75
141
12.0
290
     0
  0
SCALE
  5
657
102
{ACAD_REACTORS
330
63A
102
}
330
63A
100
AcDbScale
 70
     0
300
1" = 1'-0"
140
1.0
141
12.0
290
     0
  0
SCALE
  5
658
102
{ACAD_REACTORS
330
63A
102
}
330
63A
100
AcDbScale
 70
     0
300
1-1/2" = 1'-0"
140
1.5
141
12.0
290
     0
  0
SCALE
  5
659
102
{ACAD_REACTORS
330
63A
102
}
330
63A
100
AcDbScale
 70
     0
300
3" = 1'-0"
140
3.0
141
12.0
290
     0
  0
SCALE
  5
65A
102
{ACAD_REACTORS
330
63A
102
}
330
63A
100
AcDbScale
 70
     0
300
6" = 1'-0"
140
6.0
141
12.0
290
     0
  0
SCALE
  5
65B
102
{ACAD_REACTORS
330
63A
102
}
330
63A
100
AcDbScale
 70
     0
300
1'-0" = 1'-0"
140
12.0
141
12.0
290
     0
  0
VISUALSTYLE
  5
2F
102
{ACAD_REACTORS
330
2A
102
}
102
{ACAD_XDICTIONARY
360
66F
102
}
330
2A
100
AcDbVisualStyle
  2
2dWireframe
 70
     4
 71
     0
 72
     2
 73
     0
 90
        0
 40
-0.6
 41
-30.0
 62
     5
 63
     7
 74
     1
 91
        4
 64
     7
 65
   257
 75
     1
175
     1
 42
1.0
 92
        0
 66
   257
 43
1.0
 76
     1
 77
     6
 78
     2
 67
     7
 79
     5
170
     0
171
     0
290
     0
174
     0
 93
        1
 44
0.0
173
     0
291
     0
 45
0.0
1001
ACAD
1000
AcDbSavedByObjectVersion
1070
     0
  0
VISUALSTYLE
  5
31
102
{ACAD_REACTORS
330
2A
102
}
102
{ACAD_XDICTIONARY
360
673
102
}
330
2A
100
AcDbVisualStyle
  2
3D Hidden
 70
     6
 71
     1
 72
     2
 73
     2
 90
        0
 40
-0.6
 41
-30.0
 62
     5
 63
     7
 74
     2
 91
        2
 64
     7
 65
   257
 75
     2
175
     1
 42
40.0
 92
        0
 66
   257
 43
1.0
 76
     1
 77
     6
 78
     2
 67
     7
 79
     3
170
     0
171
     0
290
     0
174
     0
 93
        1
 44
0.0
173
     0
291
     0
 45
0.0
1001
ACAD
1000
AcDbSavedByObjectVersion
1070
     0
  0
VISUALSTYLE
  5
30
102
{ACAD_REACTORS
330
2A
102
}
102
{ACAD_XDICTIONARY
360
671
102
}
330
2A
100
AcDbVisualStyle
  2
3dWireframe
 70
     5
 71
     0
 72
     2
 73
     0
 90
        0
 40
-0.6
 41
-30.0
 62
     5
 63
     7
 74
     1
 91
        4
 64
     7
 65
   257
 75
     1
175
     1
 42
1.0
 92
        0
 66
   257
 43
1.0
 76
     1
 77
     6
 78
     2
 67
     7
 79
     5
170
     0
171
     0
290
     0
174
     0
 93
        1
 44
0.0
173
     0
291
     0
 45
0.0
1001
ACAD
1000
AcDbSavedByObjectVersion
1070
     0
  0
VISUALSTYLE
  5
32
102
{ACAD_REACTORS
330
2A
102
}
102
{ACAD_XDICTIONARY
360
675
102
}
330
2A
100
AcDbVisualStyle
  2
Basic
 70
     7
 71
     1
 72
     0
 73
     1
 90
        0
 40
-0.6
 41
-30.0
 62
     5
 63
     7
 74
     0
 91
        4
 64
     7
 65
   257
 75
     1
175
     1
 42
1.0
 92
        8
 66
     7
 43
1.0
 76
     1
 77
     6
 78
     2
 67
     7
 79
     5
170
     0
171
     0
290
     0
174
     0
 93
        1
 44
0.0
173
     0
291
     1
 45
0.0
1001
ACAD
1000
AcDbSavedByObjectVersion
1070
     0
  0
VISUALSTYLE
  5
36
102
{ACAD_REACTORS
330
2A
102
}
102
{ACAD_XDICTIONARY
360
67D
102
}
330
2A
100
AcDbVisualStyle
  2
Brighten
 70
    12
 71
     2
 72
     2
 73
     0
 90
        0
 40
-0.6
 41
-30.0
 62
     5
 63
     7
 74
     1
 91
        4
 64
     7
 65
   257
 75
     1
175
     1
 42
1.0
 92
        8
 66
     7
 43
1.0
 76
     1
 77
     6
 78
     2
 67
     7
 79
     5
170
     0
171
     0
290
     0
174
     0
 93
        1
 44
50.0
173
     0
291
     1
 45
0.0
1001
ACAD
1000
AcDbSavedByObjectVersion
1070
     0
  0
VISUALSTYLE
  5
3A
102
{ACAD_REACTORS
330
2A
102
}
102
{ACAD_XDICTIONARY
360
685
102
}
330
2A
100
AcDbVisualStyle
  2
ColorChange
 70
    16
 71
     2
 72
     2
 73
     3
 90
        0
 40
-0.6
 41
-30.0
 62
     5
 63
     8
 74
     1
 91
        4
 64
     7
 65
   257
 75
     1
175
     1
 42
1.0
 92
        8
 66
     8
 43
1.0
 76
     1
 77
     6
 78
     2
 67
     7
 79
     5
170
     0
171
     0
290
     0
174
     0
 93
        1
 44
0.0
173
     0
291
     1
 45
0.0
1001
ACAD
1000
AcDbSavedByObjectVersion
1070
     0
  0
VISUALSTYLE
  5
34
102
{ACAD_REACTORS
330
2A
102
}
102
{ACAD_XDICTIONARY
360
679
102
}
330
2A
100
AcDbVisualStyle
  2
Conceptual
 70
     9
 71
     3
 72
     2
 73
     0
 90
        0
 40
-0.6
 41
-30.0
 62
     5
 63
     7
 74
     2
 91
        2
 64
     7
 65
   257
 75
     1
175
     1
 42
40.0
 92
        8
 66
     7
 43
1.0
 76
     1
 77
     6
 78
     2
 67
     7
 79
     3
170
     0
171
     0
290
     0
174
     0
 93
        1
 44
0.0
173
     0
291
     0
 45
0.0
1001
ACAD
1000
AcDbSavedByObjectVersion
1070
     0
  0
VISUALSTYLE
  5
35
102
{ACAD_REACTORS
330
2A
102
}
102
{ACAD_XDICTIONARY
360
67B
102
}
330
2A
100
AcDbVisualStyle
  2
Dim
 70
    11
 71
     2
 72
     2
 73
     0
 90
        0
 40
-0.6
 41
-30.0
 62
     5
 63
     7
 74
     1
 91
        4
 64
     7
 65
   257
 75
     1
175
     1
 42
1.0
 92
        8
 66
     7
 43
1.0
 76
     1
 77
     6
 78
     2
 67
     7
 79
     5
170
     0
171
     0
290
     0
174
     0
 93
        1
 44
-50.0
173
     0
291
     1
 45
0.0
1001
ACAD
1000
AcDbSavedByObjectVersion
1070
     0
  0
VISUALSTYLE
  5
39
102
{ACAD_REACTORS
330
2A
102
}
102
{ACAD_XDICTIONARY
360
683
102
}
330
2A
100
AcDbVisualStyle
  2
Facepattern
 70
    15
 71
     2
 72
     2
 73
     0
 90
        0
 40
-0.6
 41
-30.0
 62
     5
 63
     7
 74
     1
 91
        4
 64
     7
 65
   257
 75
     1
175
     1
 42
1.0
 92
        8
 66
     7
 43
1.0
 76
     1
 77
     6
 78
     2
 67
     7
 79
     5
170
     0
171
     0
290
     0
174
     0
 93
        1
 44
0.0
173
     0
291
     1
 45
0.0
1001
ACAD
1000
AcDbSavedByObjectVersion
1070
     0
  0
VISUALSTYLE
  5
2B
102
{ACAD_REACTORS
330
2A
102
}
102
{ACAD_XDICTIONARY
360
667
102
}
330
2A
100
AcDbVisualStyle
  2
Flat
 70
     0
 71
     2
 72
     1
 73
     1
 90
        2
 40
-0.6
 41
30.0
 62
     5
 63
     7
 74
     0
 91
        4
 64
     7
 65
   257
 75
     1
175
     1
 42
1.0
 92
        8
 66
     7
 43
1.0
 76
     1
 77
     6
 78
     2
 67
     7
 79
     5
170
     0
171
     0
290
     0
174
     0
 93
       13
 44
0.0
173
     0
291
     1
 45
0.0
1001
ACAD
1000
AcDbSavedByObjectVersion
1070
     0
  0
VISUALSTYLE
  5
2C
102
{ACAD_REACTORS
330
2A
102
}
102
{ACAD_XDICTIONARY
360
669
102
}
330
2A
100
AcDbVisualStyle
  2
FlatWithEdges
 70
     1
 71
     2
 72
     1
 73
     1
 90
        2
 40
-0.6
 41
30.0
 62
     5
 63
     7
 74
     1
 91
        4
 64
     7
 65
   257
 75
     1
175
     1
 42
1.0
 92
        0
 66
   257
 43
1.0
 76
     1
 77
     6
 78
     2
 67
     7
 79
     5
170
     0
171
     0
290
     0
174
     0
 93
       13
 44
0.0
173
     0
291
     1
 45
0.0
1001
ACAD
1000
AcDbSavedByObjectVersion
1070
     0
  0
VISUALSTYLE
  5
2D
102
{ACAD_REACTORS
330
2A
102
}
102
{ACAD_XDICTIONARY
360
66B
102
}
330
2A
100
AcDbVisualStyle
  2
Gouraud
 70
     2
 71
     2
 72
     2
 73
     1
 90
        2
 40
-0.6
 41
30.0
 62
     5
 63
     7
 74
     0
 91
        4
 64
     7
 65
   257
 75
     1
175
     1
 42
1.0
 92
        0
 66
     7
 43
1.0
 76
     1
 77
     6
 78
     2
 67
     7
 79
     5
170
     0
171
     0
290
     0
174
     0
 93
       13
 44
0.0
173
     0
291
     1
 45
0.0
1001
ACAD
1000
AcDbSavedByObjectVersion
1070
     0
  0
VISUALSTYLE
  5
2E
102
{ACAD_REACTORS
330
2A
102
}
102
{ACAD_XDICTIONARY
360
66D
102
}
330
2A
100
AcDbVisualStyle
  2
GouraudWithEdges
 70
     3
 71
     2
 72
     2
 73
     1
 90
        2
 40
-0.6
 41
30.0
 62
     5
 63
     7
 74
     1
 91
        4
 64
     7
 65
   257
 75
     1
175
     1
 42
1.0
 92
        0
 66
   257
 43
1.0
 76
     1
 77
     6
 78
     2
 67
     7
 79
     5
170
     0
171
     0
290
     0
174
     0
 93
       13
 44
0.0
173
     0
291
     1
 45
0.0
1001
ACAD
1000
AcDbSavedByObjectVersion
1070
     0
  0
VISUALSTYLE
  5
38
102
{ACAD_REACTORS
330
2A
102
}
102
{ACAD_XDICTIONARY
360
681
102
}
330
2A
100
AcDbVisualStyle
  2
Linepattern
 70
    14
 71
     2
 72
     2
 73
     0
 90
        0
 40
-0.6
 41
-30.0
 62
     5
 63
     7
 74
     1
 91
        4
 64
     7
 65
   257
 75
     7
175
     7
 42
1.0
 92
        8
 66
     7
 43
1.0
 76
     1
 77
     6
 78
     2
 67
     7
 79
     5
170
     0
171
     0
290
     0
174
     0
 93
        1
 44
0.0
173
     0
291
     1
 45
0.0
1001
ACAD
1000
AcDbSavedByObjectVersion
1070
     0
  0
VISUALSTYLE
  5
33
102
{ACAD_REACTORS
330
2A
102
}
102
{ACAD_XDICTIONARY
360
677
102
}
330
2A
100
AcDbVisualStyle
  2
Realistic
 70
     8
 71
     2
 72
     2
 73
     0
 90
        0
 40
-0.6
 41
-30.0
 62
     5
 63
     7
 74
     1
 91
        0
 64
     7
 65
   257
 75
     1
175
     1
 42
1.0
 92
        8
 66
     8
 43
1.0
 76
     1
 77
     6
 78
     2
 67
     7
 79
     5
170
     0
171
     0
290
     0
174
     0
 93
       13
 44
0.0
173
     0
291
     0
 45
0.0
1001
ACAD
1000
AcDbSavedByObjectVersion
1070
     0
  0
VISUALSTYLE
  5
37
102
{ACAD_REACTORS
330
2A
102
}
102
{ACAD_XDICTIONARY
360
67F
102
}
330
2A
100
AcDbVisualStyle
  2
Thicken
 70
    13
 71
     2
 72
     2
 73
     0
 90
        0
 40
-0.6
 41
-30.0
 62
     5
 63
     7
 74
     1
 91
        4
 64
     7
 65
   257
 75
     1
175
     1
 42
1.0
 92
       12
 66
     7
 43
1.0
 76
     1
 77
     6
 78
     2
 67
     7
 79
     5
170
     0
171
     0
290
     0
174
     0
 93
        1
 44
0.0
173
     0
291
     1
 45
0.0
1001
ACAD
1000
AcDbSavedByObjectVersion
1070
     0
  0
DICTIONARYVAR
  5
662
102
{ACAD_REACTORS
330
65E
102
}
330
65E
100
DictionaryVariables
280
     0
  1
1:1
  0
DICTIONARYVAR
  5
663
102
{ACAD_REACTORS
330
65E
102
}
330
65E
100
DictionaryVariables
280
     0
  1
2
  0
DICTIONARYVAR
  5
664
102
{ACAD_REACTORS
330
65E
102
}
330
65E
100
DictionaryVariables
280
     0
  1
1
  0
DICTIONARYVAR
  5
661
102
{ACAD_REACTORS
330
65E
102
}
330
65E
100
DictionaryVariables
280
     0
  1
0
  0
XRECORD
  5
65D
102
{ACAD_REACTORS
330
65C
102
}
330
65C
100
AcDbXrecord
280
     1
1000
This DWG file was created in ArchiCAD(TM)®
  0
SPATIAL_FILTER
  5
636
102
{ACAD_REACTORS
330
635
102
}
330
635
100
AcDbFilter
100
AcDbSpatialFilter
 70
     4
 10
35.31939230675121
 20
28.70874748131841
 10
262.7738466327844
 20
28.70874748131841
 10
262.7738466327844
 20
192.5142927135917
 10
35.31939230675121
 20
192.5142927135917
210
0.0
220
0.0
230
1.0
 11
0.0
 21
0.0
 31
0.0
 71
     1
 72
     0
 73
     0
 40
1.0
 40
0.0
 40
0.0
 40
0.0
 40
0.0
 40
1.0
 40
0.0
 40
0.0
 40
0.0
 40
0.0
 40
1.0
 40
0.0
 40
1.0
 40
0.0
 40
0.0
 40
0.0
 40
0.0
 40
1.0
 40
0.0
 40
0.0
 40
0.0
 40
0.0
 40
1.0
 40
0.0
  0
DICTIONARY
  5
689
330
3D
100
AcDbDictionary
280
     1
281
     1
  3
ACAD_XREC_ROUNDTRIP
360
68A
  0
DICTIONARY
  5
687
330
3C
100
AcDbDictionary
280
     1
281
     1
  3
ACAD_XREC_ROUNDTRIP
360
688
  0
DICTIONARY
  5
68B
330
3E
100
AcDbDictionary
280
     1
281
     1
  3
ACAD_XREC_ROUNDTRIP
360
68C
  0
DICTIONARY
  5
66F
330
2F
100
AcDbDictionary
280
     1
281
     1
  3
ACAD_XREC_ROUNDTRIP
360
670
  0
DICTIONARY
  5
673
330
31
100
AcDbDictionary
280
     1
281
     1
  3
ACAD_XREC_ROUNDTRIP
360
674
  0
DICTIONARY
  5
671
330
30
100
AcDbDictionary
280
     1
281
     1
  3
ACAD_XREC_ROUNDTRIP
360
672
  0
DICTIONARY
  5
675
330
32
100
AcDbDictionary
280
     1
281
     1
  3
ACAD_XREC_ROUNDTRIP
360
676
  0
DICTIONARY
  5
67D
330
36
100
AcDbDictionary
280
     1
281
     1
  3
ACAD_XREC_ROUNDTRIP
360
67E
  0
DICTIONARY
  5
685
330
3A
100
AcDbDictionary
280
     1
281
     1
  3
ACAD_XREC_ROUNDTRIP
360
686
  0
DICTIONARY
  5
679
330
34
100
AcDbDictionary
280
     1
281
     1
  3
ACAD_XREC_ROUNDTRIP
360
67A
  0
DICTIONARY
  5
67B
330
35
100
AcDbDictionary
280
     1
281
     1
  3
ACAD_XREC_ROUNDTRIP
360
67C
  0
DICTIONARY
  5
683
330
39
100
AcDbDictionary
280
     1
281
     1
  3
ACAD_XREC_ROUNDTRIP
360
684
  0
DICTIONARY
  5
667
330
2B
100
AcDbDictionary
280
     1
281
     1
  3
ACAD_XREC_ROUNDTRIP
360
668
  0
DICTIONARY
  5
669
330
2C
100
AcDbDictionary
280
     1
281
     1
  3
ACAD_XREC_ROUNDTRIP
360
66A
  0
DICTIONARY
  5
66B
330
2D
100
AcDbDictionary
280
     1
281
     1
  3
ACAD_XREC_ROUNDTRIP
360
66C
  0
DICTIONARY
  5
66D
330
2E
100
AcDbDictionary
280
     1
281
     1
  3
ACAD_XREC_ROUNDTRIP
360
66E
  0
DICTIONARY
  5
681
330
38
100
AcDbDictionary
280
     1
281
     1
  3
ACAD_XREC_ROUNDTRIP
360
682
  0
DICTIONARY
  5
677
330
33
100
AcDbDictionary
280
     1
281
     1
  3
ACAD_XREC_ROUNDTRIP
360
678
  0
DICTIONARY
  5
67F
330
37
100
AcDbDictionary
280
     1
281
     1
  3
ACAD_XREC_ROUNDTRIP
360
680
  0
XRECORD
  5
68A
102
{ACAD_REACTORS
330
689
102
}
330
689
100
AcDbXrecord
280
     1
102
MATERIAL
148
0.0
149
0.0
149
0.0
 93
        0
 94
      127
282
     0
 72
     1
 77
     1
171
     1
175
     1
179
     1
273
     0
  0
XRECORD
  5
688
102
{ACAD_REACTORS
330
687
102
}
330
687
100
AcDbXrecord
280
     1
102
MATERIAL
148
0.0
149
0.0
149
0.0
 93
        0
 94
      127
282
     0
 72
     1
 77
     1
171
     1
175
     1
179
     1
273
     0
  0
XRECORD
  5
68C
102
{ACAD_REACTORS
330
68B
102
}
330
68B
100
AcDbXrecord
280
     1
102
MATERIAL
148
0.0
149
0.0
149
0.0
 93
        0
 94
      127
282
     0
 72
     1
 77
     1
171
     1
175
     1
179
     1
273
     0
  0
XRECORD
  5
670
102
{ACAD_REACTORS
330
66F
102
}
330
66F
100
AcDbXrecord
280
     1
102
RTVSPropertyOp0
 70
     1
102
RTVSPropertyOp1
 70
     1
102
RTVSPropertyOp2
 70
     1
102
RTVSPropertyOp3
 70
     1
102
RTVSPropertyOp4
 70
     1
102
RTVSPropertyOp5
 70
     1
102
RTVSPropertyOp6
 70
     1
102
RTVSPropertyOp7
 70
     1
102
RTVSPropertyOp8
 70
     1
102
RTVSPropertyOp9
 70
     1
102
RTVSPropertyOp10
 70
     1
102
RTVSPropertyOp11
 70
     1
102
RTVSPropertyOp12
 70
     1
102
RTVSPropertyOp13
 70
     1
102
RTVSPropertyOp14
 70
     1
102
RTVSPropertyOp15
 70
     1
102
RTVSPropertyOp16
 70
     1
102
RTVSPropertyOp17
 70
     1
102
RTVSPropertyOp18
 70
     1
102
RTVSPropertyOp19
 70
     1
102
RTVSPropertyOp20
 70
     1
102
RTVSPropertyOp21
 70
     1
102
RTVSPropertyOp22
 70
     1
102
RTVSPropertyOp23
 70
     1
102
RTVSPropertyOp24
 70
     1
102
RTVSPropertyOp25
 70
     1
102
RTVSPropertyOp26
 70
     1
102
RTVSPropertyOp27
 70
     1
102
RTVSPropertyOp28
 70
     1
102
RTVSPropertyOp29
 70
     1
102
RTVSPropertyOp30
 70
     1
102
RTVSPropertyOp31
 70
     1
102
RTVSPropertyOp32
 70
     1
  0
XRECORD
  5
674
102
{ACAD_REACTORS
330
673
102
}
330
673
100
AcDbXrecord
280
     1
102
RTVSPropertyOp0
 70
     1
102
RTVSPropertyOp1
 70
     1
102
RTVSPropertyOp2
 70
     1
102
RTVSPropertyOp3
 70
     1
102
RTVSPropertyOp4
 70
     1
102
RTVSPropertyOp5
 70
     1
102
RTVSPropertyOp6
 70
     1
102
RTVSPropertyOp7
 70
     1
102
RTVSPropertyOp8
 70
     1
102
RTVSPropertyOp9
 70
     1
102
RTVSPropertyOp10
 70
     1
102
RTVSPropertyOp11
 70
     1
102
RTVSPropertyOp12
 70
     1
102
RTVSPropertyOp13
 70
     1
102
RTVSPropertyOp14
 70
     1
102
RTVSPropertyOp15
 70
     1
102
RTVSPropertyOp16
 70
     1
102
RTVSPropertyOp17
 70
     1
102
RTVSPropertyOp18
 70
     1
102
RTVSPropertyOp19
 70
     1
102
RTVSPropertyOp20
 70
     1
102
RTVSPropertyOp21
 70
     1
102
RTVSPropertyOp22
 70
     1
102
RTVSPropertyOp23
 70
     1
102
RTVSPropertyOp24
 70
     1
102
RTVSPropertyOp25
 70
     1
102
RTVSPropertyOp26
 70
     1
102
RTVSPropertyOp27
 70
     1
102
RTVSPropertyOp28
 70
     1
102
RTVSPropertyOp29
 70
     1
102
RTVSPropertyOp30
 70
     1
102
RTVSPropertyOp31
 70
     1
102
RTVSPropertyOp32
 70
     1
  0
XRECORD
  5
672
102
{ACAD_REACTORS
330
671
102
}
330
671
100
AcDbXrecord
280
     1
102
RTVSPropertyOp0
 70
     1
102
RTVSPropertyOp1
 70
     1
102
RTVSPropertyOp2
 70
     1
102
RTVSPropertyOp3
 70
     1
102
RTVSPropertyOp4
 70
     1
102
RTVSPropertyOp5
 70
     1
102
RTVSPropertyOp6
 70
     1
102
RTVSPropertyOp7
 70
     1
102
RTVSPropertyOp8
 70
     1
102
RTVSPropertyOp9
 70
     1
102
RTVSPropertyOp10
 70
     1
102
RTVSPropertyOp11
 70
     1
102
RTVSPropertyOp12
 70
     1
102
RTVSPropertyOp13
 70
     1
102
RTVSPropertyOp14
 70
     1
102
RTVSPropertyOp15
 70
     1
102
RTVSPropertyOp16
 70
     1
102
RTVSPropertyOp17
 70
     1
102
RTVSPropertyOp18
 70
     1
102
RTVSPropertyOp19
 70
     1
102
RTVSPropertyOp20
 70
     1
102
RTVSPropertyOp21
 70
     1
102
RTVSPropertyOp22
 70
     1
102
RTVSPropertyOp23
 70
     1
102
RTVSPropertyOp24
 70
     1
102
RTVSPropertyOp25
 70
     1
102
RTVSPropertyOp26
 70
     1
102
RTVSPropertyOp27
 70
     1
102
RTVSPropertyOp28
 70
     1
102
RTVSPropertyOp29
 70
     1
102
RTVSPropertyOp30
 70
     1
102
RTVSPropertyOp31
 70
     1
102
RTVSPropertyOp32
 70
     1
  0
XRECORD
  5
676
102
{ACAD_REACTORS
330
675
102
}
330
675
100
AcDbXrecord
280
     1
102
RTVSPropertyOp0
 70
     1
102
RTVSPropertyOp1
 70
     1
102
RTVSPropertyOp2
 70
     1
102
RTVSPropertyOp3
 70
     1
102
RTVSPropertyOp4
 70
     1
102
RTVSPropertyOp5
 70
     1
102
RTVSPropertyOp6
 70
     1
102
RTVSPropertyOp7
 70
     1
102
RTVSPropertyOp8
 70
     1
102
RTVSPropertyOp9
 70
     1
102
RTVSPropertyOp10
 70
     1
102
RTVSPropertyOp11
 70
     1
102
RTVSPropertyOp12
 70
     1
102
RTVSPropertyOp13
 70
     1
102
RTVSPropertyOp14
 70
     1
102
RTVSPropertyOp15
 70
     1
102
RTVSPropertyOp16
 70
     1
102
RTVSPropertyOp17
 70
     1
102
RTVSPropertyOp18
 70
     1
102
RTVSPropertyOp19
 70
     1
102
RTVSPropertyOp20
 70
     1
102
RTVSPropertyOp21
 70
     1
102
RTVSPropertyOp22
 70
     1
102
RTVSPropertyOp23
 70
     1
102
RTVSPropertyOp24
 70
     1
102
RTVSPropertyOp25
 70
     1
102
RTVSPropertyOp26
 70
     1
102
RTVSPropertyOp27
 70
     1
102
RTVSPropertyOp28
 70
     1
102
RTVSPropertyOp29
 70
     1
102
RTVSPropertyOp30
 70
     1
102
RTVSPropertyOp31
 70
     1
102
RTVSPropertyOp32
 70
     1
  0
XRECORD
  5
67E
102
{ACAD_REACTORS
330
67D
102
}
330
67D
100
AcDbXrecord
280
     1
102
RTVSPropertyOp0
 70
     1
102
RTVSPropertyOp1
 70
     1
102
RTVSPropertyOp2
 70
     1
102
RTVSPropertyOp3
 70
     1
102
RTVSPropertyOp4
 70
     1
102
RTVSPropertyOp5
 70
     1
102
RTVSPropertyOp6
 70
     1
102
RTVSPropertyOp7
 70
     1
102
RTVSPropertyOp8
 70
     1
102
RTVSPropertyOp9
 70
     1
102
RTVSPropertyOp10
 70
     1
102
RTVSPropertyOp11
 70
     1
102
RTVSPropertyOp12
 70
     1
102
RTVSPropertyOp13
 70
     1
102
RTVSPropertyOp14
 70
     1
102
RTVSPropertyOp15
 70
     1
102
RTVSPropertyOp16
 70
     1
102
RTVSPropertyOp17
 70
     1
102
RTVSPropertyOp18
 70
     1
102
RTVSPropertyOp19
 70
     1
102
RTVSPropertyOp20
 70
     1
102
RTVSPropertyOp21
 70
     1
102
RTVSPropertyOp22
 70
     1
102
RTVSPropertyOp23
 70
     1
102
RTVSPropertyOp24
 70
     1
102
RTVSPropertyOp25
 70
     1
102
RTVSPropertyOp26
 70
     1
102
RTVSPropertyOp27
 70
     1
102
RTVSPropertyOp28
 70
     1
102
RTVSPropertyOp29
 70
     1
102
RTVSPropertyOp30
 70
     1
102
RTVSPropertyOp31
 70
     1
102
RTVSPropertyOp32
 70
     1
  0
XRECORD
  5
686
102
{ACAD_REACTORS
330
685
102
}
330
685
100
AcDbXrecord
280
     1
102
RTVSPropertyOp0
 70
     1
102
RTVSPropertyOp1
 70
     1
102
RTVSPropertyOp2
 70
     1
102
RTVSPropertyOp3
 70
     1
102
RTVSPropertyOp4
 70
     1
102
RTVSPropertyOp5
 70
     1
102
RTVSPropertyOp6
 70
     1
102
RTVSPropertyOp7
 70
     1
102
RTVSPropertyOp8
 70
     1
102
RTVSPropertyOp9
 70
     1
102
RTVSPropertyOp10
 70
     1
102
RTVSPropertyOp11
 70
     1
102
RTVSPropertyOp12
 70
     1
102
RTVSPropertyOp13
 70
     1
102
RTVSPropertyOp14
 70
     1
102
RTVSPropertyOp15
 70
     1
102
RTVSPropertyOp16
 70
     1
102
RTVSPropertyOp17
 70
     1
102
RTVSPropertyOp18
 70
     1
102
RTVSPropertyOp19
 70
     1
102
RTVSPropertyOp20
 70
     1
102
RTVSPropertyOp21
 70
     1
102
RTVSPropertyOp22
 70
     1
102
RTVSPropertyOp23
 70
     1
102
RTVSPropertyOp24
 70
     1
102
RTVSPropertyOp25
 70
     1
102
RTVSPropertyOp26
 70
     1
102
RTVSPropertyOp27
 70
     1
102
RTVSPropertyOp28
 70
     1
102
RTVSPropertyOp29
 70
     1
102
RTVSPropertyOp30
 70
     1
102
RTVSPropertyOp31
 70
     1
102
RTVSPropertyOp32
 70
     1
  0
XRECORD
  5
67A
102
{ACAD_REACTORS
330
679
102
}
330
679
100
AcDbXrecord
280
     1
102
RTVSPropertyOp0
 70
     1
102
RTVSPropertyOp1
 70
     1
102
RTVSPropertyOp2
 70
     1
102
RTVSPropertyOp3
 70
     1
102
RTVSPropertyOp4
 70
     1
102
RTVSPropertyOp5
 70
     1
102
RTVSPropertyOp6
 70
     1
102
RTVSPropertyOp7
 70
     1
102
RTVSPropertyOp8
 70
     1
102
RTVSPropertyOp9
 70
     1
102
RTVSPropertyOp10
 70
     1
102
RTVSPropertyOp11
 70
     1
102
RTVSPropertyOp12
 70
     1
102
RTVSPropertyOp13
 70
     1
102
RTVSPropertyOp14
 70
     1
102
RTVSPropertyOp15
 70
     1
102
RTVSPropertyOp16
 70
     1
102
RTVSPropertyOp17
 70
     1
102
RTVSPropertyOp18
 70
     1
102
RTVSPropertyOp19
 70
     1
102
RTVSPropertyOp20
 70
     1
102
RTVSPropertyOp21
 70
     1
102
RTVSPropertyOp22
 70
     1
102
RTVSPropertyOp23
 70
     1
102
RTVSPropertyOp24
 70
     1
102
RTVSPropertyOp25
 70
     1
102
RTVSPropertyOp26
 70
     1
102
RTVSPropertyOp27
 70
     1
102
RTVSPropertyOp28
 70
     1
102
RTVSPropertyOp29
 70
     1
102
RTVSPropertyOp30
 70
     1
102
RTVSPropertyOp31
 70
     1
102
RTVSPropertyOp32
 70
     1
  0
XRECORD
  5
67C
102
{ACAD_REACTORS
330
67B
102
}
330
67B
100
AcDbXrecord
280
     1
102
RTVSPropertyOp0
 70
     1
102
RTVSPropertyOp1
 70
     1
102
RTVSPropertyOp2
 70
     1
102
RTVSPropertyOp3
 70
     1
102
RTVSPropertyOp4
 70
     1
102
RTVSPropertyOp5
 70
     1
102
RTVSPropertyOp6
 70
     1
102
RTVSPropertyOp7
 70
     1
102
RTVSPropertyOp8
 70
     1
102
RTVSPropertyOp9
 70
     1
102
RTVSPropertyOp10
 70
     1
102
RTVSPropertyOp11
 70
     1
102
RTVSPropertyOp12
 70
     1
102
RTVSPropertyOp13
 70
     1
102
RTVSPropertyOp14
 70
     1
102
RTVSPropertyOp15
 70
     1
102
RTVSPropertyOp16
 70
     1
102
RTVSPropertyOp17
 70
     1
102
RTVSPropertyOp18
 70
     1
102
RTVSPropertyOp19
 70
     1
102
RTVSPropertyOp20
 70
     1
102
RTVSPropertyOp21
 70
     1
102
RTVSPropertyOp22
 70
     1
102
RTVSPropertyOp23
 70
     1
102
RTVSPropertyOp24
 70
     1
102
RTVSPropertyOp25
 70
     1
102
RTVSPropertyOp26
 70
     1
102
RTVSPropertyOp27
 70
     1
102
RTVSPropertyOp28
 70
     1
102
RTVSPropertyOp29
 70
     1
102
RTVSPropertyOp30
 70
     1
102
RTVSPropertyOp31
 70
     1
102
RTVSPropertyOp32
 70
     1
  0
XRECORD
  5
684
102
{ACAD_REACTORS
330
683
102
}
330
683
100
AcDbXrecord
280
     1
102
RTVSPropertyOp0
 70
     1
102
RTVSPropertyOp1
 70
     1
102
RTVSPropertyOp2
 70
     1
102
RTVSPropertyOp3
 70
     1
102
RTVSPropertyOp4
 70
     1
102
RTVSPropertyOp5
 70
     1
102
RTVSPropertyOp6
 70
     1
102
RTVSPropertyOp7
 70
     1
102
RTVSPropertyOp8
 70
     1
102
RTVSPropertyOp9
 70
     1
102
RTVSPropertyOp10
 70
     1
102
RTVSPropertyOp11
 70
     1
102
RTVSPropertyOp12
 70
     1
102
RTVSPropertyOp13
 70
     1
102
RTVSPropertyOp14
 70
     1
102
RTVSPropertyOp15
 70
     1
102
RTVSPropertyOp16
 70
     1
102
RTVSPropertyOp17
 70
     1
102
RTVSPropertyOp18
 70
     1
102
RTVSPropertyOp19
 70
     1
102
RTVSPropertyOp20
 70
     1
102
RTVSPropertyOp21
 70
     1
102
RTVSPropertyOp22
 70
     1
102
RTVSPropertyOp23
 70
     1
102
RTVSPropertyOp24
 70
     1
102
RTVSPropertyOp25
 70
     1
102
RTVSPropertyOp26
 70
     1
102
RTVSPropertyOp27
 70
     1
102
RTVSPropertyOp28
 70
     1
102
RTVSPropertyOp29
 70
     1
102
RTVSPropertyOp30
 70
     1
102
RTVSPropertyOp31
 70
     1
102
RTVSPropertyOp32
 70
     1
  0
XRECORD
  5
668
102
{ACAD_REACTORS
330
667
102
}
330
667
100
AcDbXrecord
280
     1
102
RTVSPropertyOp0
 70
     1
102
RTVSPropertyOp1
 70
     1
102
RTVSPropertyOp2
 70
     1
102
RTVSPropertyOp3
 70
     1
102
RTVSPropertyOp4
 70
     1
102
RTVSPropertyOp5
 70
     1
102
RTVSPropertyOp6
 70
     1
102
RTVSPropertyOp7
 70
     1
102
RTVSPropertyOp8
 70
     1
102
RTVSPropertyOp9
 70
     1
102
RTVSPropertyOp10
 70
     1
102
RTVSPropertyOp11
 70
     1
102
RTVSPropertyOp12
 70
     1
102
RTVSPropertyOp13
 70
     1
102
RTVSPropertyOp14
 70
     1
102
RTVSPropertyOp15
 70
     1
102
RTVSPropertyOp16
 70
     1
102
RTVSPropertyOp17
 70
     1
102
RTVSPropertyOp18
 70
     1
102
RTVSPropertyOp19
 70
     1
102
RTVSPropertyOp20
 70
     1
102
RTVSPropertyOp21
 70
     1
102
RTVSPropertyOp22
 70
     1
102
RTVSPropertyOp23
 70
     1
102
RTVSPropertyOp24
 70
     1
102
RTVSPropertyOp25
 70
     1
102
RTVSPropertyOp26
 70
     1
102
RTVSPropertyOp27
 70
     1
102
RTVSPropertyOp28
 70
     1
102
RTVSPropertyOp29
 70
     1
102
RTVSPropertyOp30
 70
     1
102
RTVSPropertyOp31
 70
     1
102
RTVSPropertyOp32
 70
     1
  0
XRECORD
  5
66A
102
{ACAD_REACTORS
330
669
102
}
330
669
100
AcDbXrecord
280
     1
102
RTVSPropertyOp0
 70
     1
102
RTVSPropertyOp1
 70
     1
102
RTVSPropertyOp2
 70
     1
102
RTVSPropertyOp3
 70
     1
102
RTVSPropertyOp4
 70
     1
102
RTVSPropertyOp5
 70
     1
102
RTVSPropertyOp6
 70
     1
102
RTVSPropertyOp7
 70
     1
102
RTVSPropertyOp8
 70
     1
102
RTVSPropertyOp9
 70
     1
102
RTVSPropertyOp10
 70
     1
102
RTVSPropertyOp11
 70
     1
102
RTVSPropertyOp12
 70
     1
102
RTVSPropertyOp13
 70
     1
102
RTVSPropertyOp14
 70
     1
102
RTVSPropertyOp15
 70
     1
102
RTVSPropertyOp16
 70
     1
102
RTVSPropertyOp17
 70
     1
102
RTVSPropertyOp18
 70
     1
102
RTVSPropertyOp19
 70
     1
102
RTVSPropertyOp20
 70
     1
102
RTVSPropertyOp21
 70
     1
102
RTVSPropertyOp22
 70
     1
102
RTVSPropertyOp23
 70
     1
102
RTVSPropertyOp24
 70
     1
102
RTVSPropertyOp25
 70
     1
102
RTVSPropertyOp26
 70
     1
102
RTVSPropertyOp27
 70
     1
102
RTVSPropertyOp28
 70
     1
102
RTVSPropertyOp29
 70
     1
102
RTVSPropertyOp30
 70
     1
102
RTVSPropertyOp31
 70
     1
102
RTVSPropertyOp32
 70
     1
  0
XRECORD
  5
66C
102
{ACAD_REACTORS
330
66B
102
}
330
66B
100
AcDbXrecord
280
     1
102
RTVSPropertyOp0
 70
     1
102
RTVSPropertyOp1
 70
     1
102
RTVSPropertyOp2
 70
     1
102
RTVSPropertyOp3
 70
     1
102
RTVSPropertyOp4
 70
     1
102
RTVSPropertyOp5
 70
     1
102
RTVSPropertyOp6
 70
     1
102
RTVSPropertyOp7
 70
     1
102
RTVSPropertyOp8
 70
     1
102
RTVSPropertyOp9
 70
     1
102
RTVSPropertyOp10
 70
     1
102
RTVSPropertyOp11
 70
     1
102
RTVSPropertyOp12
 70
     1
102
RTVSPropertyOp13
 70
     1
102
RTVSPropertyOp14
 70
     1
102
RTVSPropertyOp15
 70
     1
102
RTVSPropertyOp16
 70
     1
102
RTVSPropertyOp17
 70
     1
102
RTVSPropertyOp18
 70
     1
102
RTVSPropertyOp19
 70
     1
102
RTVSPropertyOp20
 70
     1
102
RTVSPropertyOp21
 70
     1
102
RTVSPropertyOp22
 70
     1
102
RTVSPropertyOp23
 70
     1
102
RTVSPropertyOp24
 70
     1
102
RTVSPropertyOp25
 70
     1
102
RTVSPropertyOp26
 70
     1
102
RTVSPropertyOp27
 70
     1
102
RTVSPropertyOp28
 70
     1
102
RTVSPropertyOp29
 70
     1
102
RTVSPropertyOp30
 70
     1
102
RTVSPropertyOp31
 70
     1
102
RTVSPropertyOp32
 70
     1
  0
XRECORD
  5
66E
102
{ACAD_REACTORS
330
66D
102
}
330
66D
100
AcDbXrecord
280
     1
102
RTVSPropertyOp0
 70
     1
102
RTVSPropertyOp1
 70
     1
102
RTVSPropertyOp2
 70
     1
102
RTVSPropertyOp3
 70
     1
102
RTVSPropertyOp4
 70
     1
102
RTVSPropertyOp5
 70
     1
102
RTVSPropertyOp6
 70
     1
102
RTVSPropertyOp7
 70
     1
102
RTVSPropertyOp8
 70
     1
102
RTVSPropertyOp9
 70
     1
102
RTVSPropertyOp10
 70
     1
102
RTVSPropertyOp11
 70
     1
102
RTVSPropertyOp12
 70
     1
102
RTVSPropertyOp13
 70
     1
102
RTVSPropertyOp14
 70
     1
102
RTVSPropertyOp15
 70
     1
102
RTVSPropertyOp16
 70
     1
102
RTVSPropertyOp17
 70
     1
102
RTVSPropertyOp18
 70
     1
102
RTVSPropertyOp19
 70
     1
102
RTVSPropertyOp20
 70
     1
102
RTVSPropertyOp21
 70
     1
102
RTVSPropertyOp22
 70
     1
102
RTVSPropertyOp23
 70
     1
102
RTVSPropertyOp24
 70
     1
102
RTVSPropertyOp25
 70
     1
102
RTVSPropertyOp26
 70
     1
102
RTVSPropertyOp27
 70
     1
102
RTVSPropertyOp28
 70
     1
102
RTVSPropertyOp29
 70
     1
102
RTVSPropertyOp30
 70
     1
102
RTVSPropertyOp31
 70
     1
102
RTVSPropertyOp32
 70
     1
  0
XRECORD
  5
682
102
{ACAD_REACTORS
330
681
102
}
330
681
100
AcDbXrecord
280
     1
102
RTVSPropertyOp0
 70
     1
102
RTVSPropertyOp1
 70
     1
102
RTVSPropertyOp2
 70
     1
102
RTVSPropertyOp3
 70
     1
102
RTVSPropertyOp4
 70
     1
102
RTVSPropertyOp5
 70
     1
102
RTVSPropertyOp6
 70
     1
102
RTVSPropertyOp7
 70
     1
102
RTVSPropertyOp8
 70
     1
102
RTVSPropertyOp9
 70
     1
102
RTVSPropertyOp10
 70
     1
102
RTVSPropertyOp11
 70
     1
102
RTVSPropertyOp12
 70
     1
102
RTVSPropertyOp13
 70
     1
102
RTVSPropertyOp14
 70
     1
102
RTVSPropertyOp15
 70
     1
102
RTVSPropertyOp16
 70
     1
102
RTVSPropertyOp17
 70
     1
102
RTVSPropertyOp18
 70
     1
102
RTVSPropertyOp19
 70
     1
102
RTVSPropertyOp20
 70
     1
102
RTVSPropertyOp21
 70
     1
102
RTVSPropertyOp22
 70
     1
102
RTVSPropertyOp23
 70
     1
102
RTVSPropertyOp24
 70
     1
102
RTVSPropertyOp25
 70
     1
102
RTVSPropertyOp26
 70
     1
102
RTVSPropertyOp27
 70
     1
102
RTVSPropertyOp28
 70
     1
102
RTVSPropertyOp29
 70
     1
102
RTVSPropertyOp30
 70
     1
102
RTVSPropertyOp31
 70
     1
102
RTVSPropertyOp32
 70
     1
  0
XRECORD
  5
678
102
{ACAD_REACTORS
330
677
102
}
330
677
100
AcDbXrecord
280
     1
102
RTVSPropertyOp0
 70
     1
102
RTVSPropertyOp1
 70
     1
102
RTVSPropertyOp2
 70
     1
102
RTVSPropertyOp3
 70
     1
102
RTVSPropertyOp4
 70
     1
102
RTVSPropertyOp5
 70
     1
102
RTVSPropertyOp6
 70
     1
102
RTVSPropertyOp7
 70
     1
102
RTVSPropertyOp8
 70
     1
102
RTVSPropertyOp9
 70
     1
102
RTVSPropertyOp10
 70
     1
102
RTVSPropertyOp11
 70
     1
102
RTVSPropertyOp12
 70
     1
102
RTVSPropertyOp13
 70
     1
102
RTVSPropertyOp14
 70
     1
102
RTVSPropertyOp15
 70
     1
102
RTVSPropertyOp16
 70
     1
102
RTVSPropertyOp17
 70
     1
102
RTVSPropertyOp18
 70
     1
102
RTVSPropertyOp19
 70
     1
102
RTVSPropertyOp20
 70
     1
102
RTVSPropertyOp21
 70
     1
102
RTVSPropertyOp22
 70
     1
102
RTVSPropertyOp23
 70
     1
102
RTVSPropertyOp24
 70
     1
102
RTVSPropertyOp25
 70
     1
102
RTVSPropertyOp26
 70
     1
102
RTVSPropertyOp27
 70
     1
102
RTVSPropertyOp28
 70
     1
102
RTVSPropertyOp29
 70
     1
102
RTVSPropertyOp30
 70
     1
102
RTVSPropertyOp31
 70
     1
102
RTVSPropertyOp32
 70
     1
  0
XRECORD
  5
680
102
{ACAD_REACTORS
330
67F
102
}
330
67F
100
AcDbXrecord
280
     1
102
RTVSPropertyOp0
 70
     1
102
RTVSPropertyOp1
 70
     1
102
RTVSPropertyOp2
 70
     1
102
RTVSPropertyOp3
 70
     1
102
RTVSPropertyOp4
 70
     1
102
RTVSPropertyOp5
 70
     1
102
RTVSPropertyOp6
 70
     1
102
RTVSPropertyOp7
 70
     1
102
RTVSPropertyOp8
 70
     1
102
RTVSPropertyOp9
 70
     1
102
RTVSPropertyOp10
 70
     1
102
RTVSPropertyOp11
 70
     1
102
RTVSPropertyOp12
 70
     1
102
RTVSPropertyOp13
 70
     1
102
RTVSPropertyOp14
 70
     1
102
RTVSPropertyOp15
 70
     1
102
RTVSPropertyOp16
 70
     1
102
RTVSPropertyOp17
 70
     1
102
RTVSPropertyOp18
 70
     1
102
RTVSPropertyOp19
 70
     1
102
RTVSPropertyOp20
 70
     1
102
RTVSPropertyOp21
 70
     1
102
RTVSPropertyOp22
 70
     1
102
RTVSPropertyOp23
 70
     1
102
RTVSPropertyOp24
 70
     1
102
RTVSPropertyOp25
 70
     1
102
RTVSPropertyOp26
 70
     1
102
RTVSPropertyOp27
 70
     1
102
RTVSPropertyOp28
 70
     1
102
RTVSPropertyOp29
 70
     1
102
RTVSPropertyOp30
 70
     1
102
RTVSPropertyOp31
 70
     1
102
RTVSPropertyOp32
 70
     1
  0
ENDSEC
  0
EOF
