  0
SECTION
  2
HEADER
  9
$ACADVER
  1
AC1015
  9
$ACADMAINTVER
 70
     6
  9
$DWGCODEPAGE
  3
ANSI_949
  9
$INSBASE
 10
0.0
 20
0.0
 30
0.0
  9
$EXTMIN
 10
1.000000000000000E+20
 20
1.000000000000000E+20
 30
1.000000000000000E+20
  9
$EXTMAX
 10
-1.000000000000000E+20
 20
-1.000000000000000E+20
 30
-1.000000000000000E+20
  9
$LIMMIN
 10
0.0
 20
0.0
  9
$LIMMAX
 10
12.0
 20
9.0
  9
$ORTHOMODE
 70
     0
  9
$REGENMODE
 70
     1
  9
$FILLMODE
 70
     1
  9
$QTEXTMODE
 70
     0
  9
$MIRRTEXT
 70
     1
  9
$LTSCALE
 40
1.0
  9
$ATTMODE
 70
     1
  9
$TEXTSIZE
 40
0.2
  9
$TRACEWID
 40
0.05
  9
$TEXTSTYLE
  7
Standard
  9
$CLAYER
  8
0
  9
$CELTYPE
  6
ByLayer
  9
$CECOLOR
 62
   256
  9
$CELTSCALE
 40
1.0
  9
$DISPSILH
 70
     0
  9
$DIMSCALE
 40
1.0
  9
$DIMASZ
 40
0.18
  9
$DIMEXO
 40
0.0625
  9
$DIMDLI
 40
0.38
  9
$DIMRND
 40
0.0
  9
$DIMDLE
 40
0.0
  9
$DIMEXE
 40
0.18
  9
$DIMTP
 40
0.0
  9
$DIMTM
 40
0.0
  9
$DIMTXT
 40
0.18
  9
$DIMCEN
 40
0.09
  9
$DIMTSZ
 40
0.0
  9
$DIMTOL
 70
     0
  9
$DIMLIM
 70
     0
  9
$DIMTIH
 70
     1
  9
$DIMTOH
 70
     1
  9
$DIMSE1
 70
     0
  9
$DIMSE2
 70
     0
  9
$DIMTAD
 70
     0
  9
$DIMZIN
 70
     0
  9
$DIMBLK
  1

  9
$DIMASO
 70
     1
  9
$DIMSHO
 70
     1
  9
$DIMPOST
  1

  9
$DIMAPOST
  1

  9
$DIMALT
 70
     0
  9
$DIMALTD
 70
     2
  9
$DIMALTF
 40
25.4
  9
$DIMLFAC
 40
1.0
  9
$DIMTOFL
 70
     0
  9
$DIMTVP
 40
0.0
  9
$DIMTIX
 70
     0
  9
$DIMSOXD
 70
     0
  9
$DIMSAH
 70
     0
  9
$DIMBLK1
  1

  9
$DIMBLK2
  1

  9
$DIMSTYLE
  2
Standard
  9
$DIMCLRD
 70
     0
  9
$DIMCLRE
 70
     0
  9
$DIMCLRT
 70
     0
  9
$DIMTFAC
 40
1.0
  9
$DIMGAP
 40
0.09
  9
$DIMJUST
 70
     0
  9
$DIMSD1
 70
     0
  9
$DIMSD2
 70
     0
  9
$DIMTOLJ
 70
     1
  9
$DIMTZIN
 70
     0
  9
$DIMALTZ
 70
     0
  9
$DIMALTTZ
 70
     0
  9
$DIMUPT
 70
     0
  9
$DIMDEC
 70
     4
  9
$DIMTDEC
 70
     4
  9
$DIMALTU
 70
     2
  9
$DIMALTTD
 70
     2
  9
$DIMTXSTY
  7
Standard
  9
$DIMAUNIT
 70
     0
  9
$DIMADEC
 70
     0
  9
$DIMALTRND
 40
0.0
  9
$DIMAZIN
 70
     0
  9
$DIMDSEP
 70
    46
  9
$DIMATFIT
 70
     3
  9
$DIMFRAC
 70
     0
  9
$DIMLDRBLK
  1

  9
$DIMLUNIT
 70
     2
  9
$DIMLWD
 70
    -2
  9
$DIMLWE
 70
    -2
  9
$DIMTMOVE
 70
     0
  9
$LUNITS
 70
     2
  9
$LUPREC
 70
     4
  9
$SKETCHINC
 40
0.1
  9
$FILLETRAD
 40
0.5
  9
$AUNITS
 70
     0
  9
$AUPREC
 70
     0
  9
$MENU
  1
.
  9
$ELEVATION
 40
0.0
  9
$PELEVATION
 40
0.0
  9
$THICKNESS
 40
0.0
  9
$LIMCHECK
 70
     0
  9
$CHAMFERA
 40
0.5
  9
$CHAMFERB
 40
0.5
  9
$CHAMFERC
 40
1.0
  9
$CHAMFERD
 40
0.0
  9
$SKPOLY
 70
     0
  9
$TDCREATE
 40
2456522.583862118
  9
$TDUCREATE
 40
2456522.083862118
  9
$TDUPDATE
 40
2456522.583892431
  9
$TDUUPDATE
 40
2456522.083892431
  9
$TDINDWG
 40
0.0000000116
  9
$TDUSRTIMER
 40
0.0000000116
  9
$USRTIMER
 70
     1
  9
$ANGBASE
 50
0.0
  9
$ANGDIR
 70
     0
  9
$PDMODE
 70
     0
  9
$PDSIZE
 40
0.0
  9
$PLINEWID
 40
0.0
  9
$SPLFRAME
 70
     0
  9
$SPLINETYPE
 70
     6
  9
$SPLINESEGS
 70
     8
  9
$HANDSEED
  5
686
  9
$SURFTAB1
 70
     6
  9
$SURFTAB2
 70
     6
  9
$SURFTYPE
 70
     6
  9
$SURFU
 70
     6
  9
$SURFV
 70
     6
  9
$UCSBASE
  2

  9
$UCSNAME
  2

  9
$UCSORG
 10
0.0
 20
0.0
 30
0.0
  9
$UCSXDIR
 10
1.0
 20
0.0
 30
0.0
  9
$UCSYDIR
 10
0.0
 20
1.0
 30
0.0
  9
$UCSORTHOREF
  2

  9
$UCSORTHOVIEW
 70
     0
  9
$UCSORGTOP
 10
0.0
 20
0.0
 30
0.0
  9
$UCSORGBOTTOM
 10
0.0
 20
0.0
 30
0.0
  9
$UCSORGLEFT
 10
0.0
 20
0.0
 30
0.0
  9
$UCSORGRIGHT
 10
0.0
 20
0.0
 30
0.0
  9
$UCSORGFRONT
 10
0.0
 20
0.0
 30
0.0
  9
$UCSORGBACK
 10
0.0
 20
0.0
 30
0.0
  9
$PUCSBASE
  2

  9
$PUCSNAME
  2

  9
$PUCSORG
 10
0.0
 20
0.0
 30
0.0
  9
$PUCSXDIR
 10
1.0
 20
0.0
 30
0.0
  9
$PUCSYDIR
 10
0.0
 20
1.0
 30
0.0
  9
$PUCSORTHOREF
  2

  9
$PUCSORTHOVIEW
 70
     0
  9
$PUCSORGTOP
 10
0.0
 20
0.0
 30
0.0
  9
$PUCSORGBOTTOM
 10
0.0
 20
0.0
 30
0.0
  9
$PUCSORGLEFT
 10
0.0
 20
0.0
 30
0.0
  9
$PUCSORGRIGHT
 10
0.0
 20
0.0
 30
0.0
  9
$PUCSORGFRONT
 10
0.0
 20
0.0
 30
0.0
  9
$PUCSORGBACK
 10
0.0
 20
0.0
 30
0.0
  9
$USERI1
 70
     0
  9
$USERI2
 70
     0
  9
$USERI3
 70
     0
  9
$USERI4
 70
     0
  9
$USERI5
 70
     0
  9
$USERR1
 40
0.0
  9
$USERR2
 40
0.0
  9
$USERR3
 40
0.0
  9
$USERR4
 40
0.0
  9
$USERR5
 40
0.0
  9
$WORLDVIEW
 70
     1
  9
$SHADEDGE
 70
     3
  9
$SHADEDIF
 70
    70
  9
$TILEMODE
 70
     1
  9
$MAXACTVP
 70
    64
  9
$PINSBASE
 10
0.0
 20
0.0
 30
0.0
  9
$PLIMCHECK
 70
     0
  9
$PEXTMIN
 10
1.000000000000000E+20
 20
1.000000000000000E+20
 30
1.000000000000000E+20
  9
$PEXTMAX
 10
-1.000000000000000E+20
 20
-1.000000000000000E+20
 30
-1.000000000000000E+20
  9
$PLIMMIN
 10
0.0
 20
0.0
  9
$PLIMMAX
 10
12.0
 20
9.0
  9
$UNITMODE
 70
     0
  9
$VISRETAIN
 70
     1
  9
$PLINEGEN
 70
     0
  9
$PSLTSCALE
 70
     1
  9
$TREEDEPTH
 70
  3020
  9
$CMLSTYLE
  2
Standard
  9
$CMLJUST
 70
     0
  9
$CMLSCALE
 40
1.0
  9
$PROXYGRAPHICS
 70
     1
  9
$MEASUREMENT
 70
     0
  9
$CELWEIGHT
370
    -1
  9
$ENDCAPS
280
     0
  9
$JOINSTYLE
280
     0
  9
$LWDISPLAY
290
     1
  9
$INSUNITS
 70
     4
  9
$HYPERLINKBASE
  1

  9
$STYLESHEET
  1

  9
$XEDIT
290
     1
  9
$CEPSNTYPE
380
     0
  9
$PSTYLEMODE
290
     1
  9
$FINGERPRINTGUID
  2
{962A6307-B134-4D2D-BB6F-8FC8A450667F}
  9
$VERSIONGUID
  2
{FAEB1C32-E019-11D5-929B-00C0DF256EC4}
  9
$EXTNAMES
290
     1
  9
$PSVPSCALE
 40
0.0
  9
$OLESTARTUP
290
     0
  0
ENDSEC
  0
SECTION
  2
CLASSES
  0
CLASS
  1
ACDBDICTIONARYWDFLT
  2
AcDbDictionaryWithDefault
  3
ObjectDBX Classes
 90
        0
280
     0
281
     0
  0
CLASS
  1
VISUALSTYLE
  2
AcDbVisualStyle
  3
ObjectDBX Classes
 90
     4095
280
     0
281
     0
  0
CLASS
  1
MATERIAL
  2
AcDbMaterial
  3
ObjectDBX Classes
 90
     1153
280
     0
281
     0
  0
CLASS
  1
SPATIAL_FILTER
  2
AcDbSpatialFilter
  3
ObjectDBX Classes
 90
        0
280
     0
281
     0
  0
CLASS
  1
SCALE
  2
AcDbScale
  3
ObjectDBX Classes
 90
     1153
280
     0
281
     0
  0
CLASS
  1
DICTIONARYVAR
  2
AcDbDictionaryVar
  3
ObjectDBX Classes
 90
        0
280
     0
281
     0
  0
CLASS
  1
ACDBPLACEHOLDER
  2
AcDbPlaceHolder
  3
ObjectDBX Classes
 90
        0
280
     0
281
     0
  0
CLASS
  1
LAYOUT
  2
AcDbLayout
  3
ObjectDBX Classes
 90
        0
280
     0
281
     0
  0
ENDSEC
  0
SECTION
  2
TABLES
  0
TABLE
  2
VPORT
  5
8
330
0
100
AcDbSymbolTable
 70
     1
  0
VPORT
  5
29
330
8
100
AcDbSymbolTableRecord
100
AcDbViewportTableRecord
  2
*Active
 70
     0
 10
0.0
 20
0.0
 11
1.0
 21
1.0
 12
148.6203422501967
 22
100.4660812394923
 13
0.0
 23
0.0
 14
0.5
 24
0.5
 15
0.5
 25
0.5
 16
0.0
 26
0.0
 36
1.0
 17
0.0
 27
0.0
 37
0.0
 40
200.8158936151757
 41
1.438658524413834
 42
50.0
 43
0.0
 44
0.0
 50
0.0
 51
0.0
 71
     0
 72
   100
 73
     1
 74
     3
 75
     0
 76
     0
 77
     0
 78
     0
281
     0
 65
     1
110
0.0
120
0.0
130
0.0
111
1.0
121
0.0
131
0.0
112
0.0
122
1.0
132
0.0
 79
     0
146
0.0
  0
ENDTAB
  0
TABLE
  2
LTYPE
  5
5
330
0
100
AcDbSymbolTable
 70
     2
  0
LTYPE
  5
14
330
5
100
AcDbSymbolTableRecord
100
AcDbLinetypeTableRecord
  2
ByBlock
 70
     0
  3

 72
    65
 73
     0
 40
0.0
  0
LTYPE
  5
15
330
5
100
AcDbSymbolTableRecord
100
AcDbLinetypeTableRecord
  2
ByLayer
 70
     0
  3

 72
    65
 73
     0
 40
0.0
  0
LTYPE
  5
16
330
5
100
AcDbSymbolTableRecord
100
AcDbLinetypeTableRecord
  2
Continuous
 70
     0
  3
Solid line
 72
    65
 73
     0
 40
0.0
  0
LTYPE
  5
12D
330
5
100
AcDbSymbolTableRecord
100
AcDbLinetypeTableRecord
  2
Dashed
 70
     0
  3
- - - - - 
 72
    65
 73
     2
 40
5.644444465637207
 49
2.822222232818604
 74
     0
 49
-2.822222232818603
 74
     0
  0
ENDTAB
  0
TABLE
  2
LAYER
  5
2
330
0
100
AcDbSymbolTable
 70
     3
  0
LAYER
  5
10
330
2
100
AcDbSymbolTableRecord
100
AcDbLayerTableRecord
  2
0
 70
     0
 62
     7
  6
Continuous
370
    -3
390
F
  0
LAYER
  5
40
330
2
100
AcDbSymbolTableRecord
100
AcDbLayerTableRecord
  2
Doc_ Finishes
 70
     0
 62
     7
  6
Continuous
370
    -3
390
F
  0
LAYER
  5
DB
330
2
100
AcDbSymbolTableRecord
100
AcDbLayerTableRecord
  2
Doc_ Floor
 70
     0
 62
     7
  6
Continuous
370
    -3
390
F
  0
ENDTAB
  0
TABLE
  2
STYLE
  5
3
330
0
100
AcDbSymbolTable
 70
     4
  0
STYLE
  5
11
330
3
100
AcDbSymbolTableRecord
100
AcDbTextStyleTableRecord
  2
Standard
 70
     0
 40
0.0
 41
1.0
 50
0.0
 71
     0
 42
0.2
  3
txt
  4

  0
STYLE
  5
D6
330
3
100
AcDbSymbolTableRecord
100
AcDbTextStyleTableRecord
  2
GENERATED_STYLE_1
 70
     0
 40
0.0
 41
1.0
 50
0.0
 71
     0
 42
0.2
  3

  4

1001
ACAD
1000
Century Gothic
1071
       34
  0
STYLE
  5
D9
330
3
100
AcDbSymbolTableRecord
100
AcDbTextStyleTableRecord
  2
GENERATED_STYLE_2
 70
     0
 40
0.0
 41
1.0
 50
0.0
 71
     0
 42
0.2
  3

  4

1001
ACAD
1000
DilleniaUPC
1071
 33554450
  0
STYLE
  5
169
330
3
100
AcDbSymbolTableRecord
100
AcDbTextStyleTableRecord
  2
GENERATED_STYLE_3
 70
     0
 40
0.0
 41
1.0
 50
0.0
 71
     0
 42
0.2
  3

  4

1001
ACAD
1000
Arial
1071
       34
  0
ENDTAB
  0
TABLE
  2
VIEW
  5
6
330
0
100
AcDbSymbolTable
 70
     0
  0
ENDTAB
  0
TABLE
  2
UCS
  5
7
330
0
100
AcDbSymbolTable
 70
     0
  0
ENDTAB
  0
TABLE
  2
APPID
  5
9
330
0
100
AcDbSymbolTable
 70
     1
  0
APPID
  5
12
330
9
100
AcDbSymbolTableRecord
100
AcDbRegAppTableRecord
  2
ACAD
 70
     0
  0
ENDTAB
  0
TABLE
  2
DIMSTYLE
  5
A
330
0
100
AcDbSymbolTable
 70
     1
100
AcDbDimStyleTable
  0
DIMSTYLE
105
27
330
A
100
AcDbSymbolTableRecord
100
AcDbDimStyleTableRecord
  2
Standard
 70
     0
178
     0
340
11
  0
ENDTAB
  0
TABLE
  2
BLOCK_RECORD
  5
1
330
0
100
AcDbSymbolTable
 70
     3
  0
BLOCK_RECORD
  5
1F
330
1
100
AcDbSymbolTableRecord
100
AcDbBlockTableRecord
  2
*Model_Space
340
22
  0
BLOCK_RECORD
  5
1B
330
1
100
AcDbSymbolTableRecord
100
AcDbBlockTableRecord
  2
*Paper_Space
340
1E
  0
BLOCK_RECORD
  5
E3
330
1
100
AcDbSymbolTableRecord
100
AcDbBlockTableRecord
  2
Drawing_1_2
340
0
102
{BLKREFS
331
62C
102
}
  0
BLOCK_RECORD
  5
630
330
1
100
AcDbSymbolTableRecord
100
AcDbBlockTableRecord
  2
R-TRS7-09 APRON DETAIL - SIDE_STORY_MARKER
340
0
  0
ENDTAB
  0
ENDSEC
  0
SECTION
  2
BLOCKS
  0
BLOCK
  5
20
330
1F
100
AcDbEntity
  8
0
100
AcDbBlockBegin
  2
*Model_Space
 70
     0
 10
0.0
 20
0.0
 30
0.0
  3
*Model_Space
  1

  0
ENDBLK
  5
21
330
1F
100
AcDbEntity
  8
0
100
AcDbBlockEnd
  0
BLOCK
  5
1C
330
1B
100
AcDbEntity
 67
     1
  8
0
100
AcDbBlockBegin
  2
*Paper_Space
 70
     0
 10
0.0
 20
0.0
 30
0.0
  3
*Paper_Space
  1

  0
ENDBLK
  5
1D
330
1B
100
AcDbEntity
 67
     1
  8
0
100
AcDbBlockEnd
  0
BLOCK
  5
E4
330
E3
100
AcDbEntity
  8
0
100
AcDbBlockBegin
  2
Drawing_1_2
 70
     0
 10
-1488.68793027213
 20
350.9956652514564
 30
0.0
  3
Drawing_1_2
  1

  0
HATCH
  5
E6
330
E3
100
AcDbEntity
  8
0
  6
Continuous
 62
   255
370
     0
100
AcDbHatch
 10
0.0
 20
0.0
 30
0.0
210
0.0
220
0.0
230
1.0
  2
SOLID
 70
     1
 71
     0
 91
        1
 92
        3
 72
     0
 73
     1
 93
        4
 10
168.1174859022492
 20
115.0117335009554
 10
168.1174859022492
 20
124.0117335009554
 10
79.43972639502928
 20
124.0117335009554
 10
79.43972639502928
 20
115.0117335009554
 97
        0
 75
     0
 76
     1
 98
        0
  0
LINE
  5
E7
330
E3
100
AcDbEntity
  8
0
  6
Continuous
100
AcDbLine
 10
168.1174872315822
 20
124.0117327594818
 30
0.0
 11
168.1174872315822
 21
115.0117343705166
 31
0.0
  0
LINE
  5
E8
330
E3
100
AcDbEntity
  8
0
  6
Continuous
100
AcDbLine
 10
79.43972579803209
 20
124.0117327594818
 30
0.0
 11
168.1174872315822
 21
124.0117327594818
 31
0.0
  0
LINE
  5
E9
330
E3
100
AcDbEntity
  8
0
  6
Continuous
100
AcDbLine
 10
79.43972579803209
 20
115.0117343705166
 30
0.0
 11
79.43972579803209
 21
124.0117327594818
 31
0.0
  0
LINE
  5
EA
330
E3
100
AcDbEntity
  8
0
  6
Continuous
100
AcDbLine
 10
168.1174872315822
 20
115.0117343705166
 30
0.0
 11
79.43972579803209
 21
115.0117343705166
 31
0.0
  0
HATCH
  5
EB
330
E3
100
AcDbEntity
  8
0
  6
Continuous
 62
   255
370
     0
100
AcDbHatch
 10
0.0
 20
0.0
 30
0.0
210
0.0
220
0.0
230
1.0
  2
SOLID
 70
     1
 71
     0
 91
        1
 92
        3
 72
     0
 73
     1
 93
        4
 10
168.1174859022492
 20
124.0117335009554
 10
154.1174859022492
 20
124.0117335009554
 10
154.1174859022492
 20
115.0117335009554
 10
168.1174859022492
 20
115.0117335009554
 97
        0
 75
     0
 76
     1
 98
        0
  0
LINE
  5
EC
330
E3
100
AcDbEntity
  8
0
  6
Continuous
100
AcDbLine
 10
168.1174872315822
 20
124.0117327594818
 30
0.0
 11
154.1174851055383
 21
115.0117343705166
 31
0.0
  0
LINE
  5
ED
330
E3
100
AcDbEntity
  8
0
  6
Continuous
100
AcDbLine
 10
168.1174872315822
 20
124.0117327594818
 30
0.0
 11
168.1174872315822
 21
115.0117343705166
 31
0.0
  0
LINE
  5
EE
330
E3
100
AcDbEntity
  8
0
  6
Continuous
100
AcDbLine
 10
168.1174872315822
 20
115.0117343705166
 30
0.0
 11
154.1174851055383
 21
115.0117343705166
 31
0.0
  0
LINE
  5
EF
330
E3
100
AcDbEntity
  8
0
  6
Continuous
100
AcDbLine
 10
154.1174851055383
 20
115.0117343705166
 30
0.0
 11
154.1174851055383
 21
124.0117327594818
 31
0.0
  0
LINE
  5
F0
330
E3
100
AcDbEntity
  8
0
  6
Continuous
100
AcDbLine
 10
154.1174851055383
 20
124.0117327594818
 30
0.0
 11
168.1174872315822
 21
124.0117327594818
 31
0.0
  0
HATCH
  5
F1
330
E3
100
AcDbEntity
  8
0
  6
Continuous
 62
   255
370
     0
100
AcDbHatch
 10
0.0
 20
0.0
 30
0.0
210
0.0
220
0.0
230
1.0
  2
SOLID
 70
     1
 71
     0
 91
        1
 92
        3
 72
     0
 73
     1
 93
        4
 10
168.1174859022492
 20
97.01173350095543
 10
168.1174859022492
 20
115.0117335009554
 10
79.43972639502928
 20
115.0117335009554
 10
79.43972639502928
 20
97.01173350095543
 97
        0
 75
     0
 76
     1
 98
        0
  0
LINE
  5
F2
330
E3
100
AcDbEntity
  8
0
  6
Continuous
100
AcDbLine
 10
168.1174872315822
 20
115.0117343705166
 30
0.0
 11
168.1174872315822
 21
97.01173461480893
 31
0.0
  0
LINE
  5
F3
330
E3
100
AcDbEntity
  8
0
  6
Continuous
100
AcDbLine
 10
79.43972579803209
 20
115.0117343705166
 30
0.0
 11
168.1174872315822
 21
115.0117343705166
 31
0.0
  0
LINE
  5
F4
330
E3
100
AcDbEntity
  8
0
  6
Continuous
100
AcDbLine
 10
79.43972579803209
 20
97.01173461480893
 30
0.0
 11
79.43972579803209
 21
115.0117343705166
 31
0.0
  0
LINE
  5
F5
330
E3
100
AcDbEntity
  8
0
  6
Continuous
100
AcDbLine
 10
168.1174872315822
 20
97.01173461480893
 30
0.0
 11
79.43972579803209
 21
97.01173461480893
 31
0.0
  0
HATCH
  5
F6
330
E3
100
AcDbEntity
  8
0
  6
Continuous
 62
   255
370
     0
100
AcDbHatch
 10
0.0
 20
0.0
 30
0.0
210
0.0
220
0.0
230
1.0
  2
SOLID
 70
     1
 71
     0
 91
        1
 92
        3
 72
     0
 73
     1
 93
        4
 10
160.0358488927439
 20
198.9052440655402
 10
160.0358488927439
 20
142.086526479936
 10
164.0358483337264
 20
142.086526479936
 10
164.0358483337264
 20
198.9052440655402
 97
        0
 75
     0
 76
     1
 98
        0
  0
LINE
  5
F7
330
E3
100
AcDbEntity
  8
0
  6
Continuous
100
AcDbLine
 10
160.0358488927439
 20
198.9052440655402
 30
0.0
 11
160.0358488927439
 21
142.086526479936
 31
0.0
  0
LINE
  5
F8
330
E3
100
AcDbEntity
  8
0
  6
Continuous
100
AcDbLine
 10
160.0358502519228
 20
142.086525347723
 30
0.0
 11
164.0358478815866
 21
142.086525347723
 31
0.0
  0
LINE
  5
F9
330
E3
100
AcDbEntity
  8
0
  6
Continuous
100
AcDbLine
 10
164.0358483337264
 20
142.086526479936
 30
0.0
 11
164.0358483337264
 21
198.9052440655402
 31
0.0
  0
HATCH
  5
FA
330
E3
100
AcDbEntity
  8
0
  6
Continuous
 62
   255
370
     0
100
AcDbHatch
 10
0.0
 20
0.0
 30
0.0
210
0.0
220
0.0
230
1.0
  2
SOLID
 70
     1
 71
     0
 91
        1
 92
        3
 72
     0
 73
     1
 93
        4
 10
160.0358492924565
 20
140.0865257098757
 10
164.0358492924563
 20
140.0865257098757
 10
164.0358492924563
 20
149.0865257098756
 10
160.0358492924565
 20
149.0865257098756
 97
        0
 75
     0
 76
     1
 98
        0
  0
LINE
  5
FB
330
E3
100
AcDbEntity
  8
0
  6
Continuous
100
AcDbLine
 10
160.0358502519228
 20
140.0865250440025
 30
0.0
 11
164.0358478815866
 21
149.086526410745
 31
0.0
  0
LINE
  5
FC
330
E3
100
AcDbEntity
  8
0
  6
Continuous
100
AcDbLine
 10
160.0358502519228
 20
140.0865250440025
 30
0.0
 11
164.0358478815866
 21
140.0865250440025
 31
0.0
  0
LINE
  5
FD
330
E3
100
AcDbEntity
  8
0
  6
Continuous
100
AcDbLine
 10
164.0358478815866
 20
140.0865250440025
 30
0.0
 11
164.0358478815866
 21
149.086526410745
 31
0.0
  0
LINE
  5
FE
330
E3
100
AcDbEntity
  8
0
  6
Continuous
100
AcDbLine
 10
164.0358478815866
 20
149.086526410745
 30
0.0
 11
160.0358502519228
 21
149.086526410745
 31
0.0
  0
LINE
  5
FF
330
E3
100
AcDbEntity
  8
0
  6
Continuous
100
AcDbLine
 10
160.0358502519228
 20
149.086526410745
 30
0.0
 11
160.0358502519228
 21
140.0865250440025
 31
0.0
  0
HATCH
  5
100
330
E3
100
AcDbEntity
  8
0
  6
Continuous
 62
   255
370
     0
100
AcDbHatch
 10
0.0
 20
0.0
 30
0.0
210
0.0
220
0.0
230
1.0
  2
SOLID
 70
     1
 71
     0
 91
        1
 92
        3
 72
     0
 73
     1
 93
        4
 10
168.1174868787372
 20
198.9052482462201
 10
168.1174868787372
 20
23.56187983551988
 10
186.117485075695
 20
23.56187983551988
 10
186.117485075695
 20
198.9052482462201
 97
        0
 75
     0
 76
     1
 98
        0
  0
LINE
  5
101
330
E3
100
AcDbEntity
  8
0
  6
Continuous
100
AcDbLine
 10
186.117485075695
 20
23.56187983551988
 30
0.0
 11
186.117485075695
 21
198.9052482462201
 31
0.0
  0
LINE
  5
102
330
E3
100
AcDbEntity
  8
0
  6
Continuous
100
AcDbLine
 10
168.1174868787372
 20
198.9052482462201
 30
0.0
 11
168.1174868787372
 21
23.56187983551988
 31
0.0
  0
HATCH
  5
103
330
E3
100
AcDbEntity
  8
0
  6
Continuous
 62
   255
370
     0
100
AcDbHatch
 10
0.0
 20
0.0
 30
0.0
210
0.0
220
0.0
230
1.0
  2
SOLID
 70
     1
 71
     0
 91
        1
 92
        3
 72
     0
 73
     1
 93
        4
 10
168.1174872315822
 20
194.1691040313079
 10
186.1174869872899
 20
194.1691040313079
 10
186.1174869872899
 20
198.9052439437405
 10
168.1174872315822
 20
198.9052439437405
 97
        0
 75
     0
 76
     1
 98
        0
  0
LINE
  5
104
330
E3
100
AcDbEntity
  8
0
  6
Continuous
100
AcDbLine
 10
186.1174869872899
 20
194.1691040313079
 30
0.0
 11
186.1174869872899
 21
198.9052439437405
 31
0.0
  0
LINE
  5
105
330
E3
100
AcDbEntity
  8
0
  6
Continuous
100
AcDbLine
 10
168.1174872315822
 20
198.9052439437405
 30
0.0
 11
168.1174872315822
 21
194.1691040313079
 31
0.0
  0
LINE
  5
106
330
E3
100
AcDbEntity
  8
0
  6
Continuous
100
AcDbLine
 10
168.1174872315822
 20
194.1691040313079
 30
0.0
 11
186.1174869872899
 21
194.1691040313079
 31
0.0
  0
HATCH
  5
107
330
E3
100
AcDbEntity
  8
0
  6
Continuous
 62
   255
370
     0
100
AcDbHatch
 10
0.0
 20
0.0
 30
0.0
210
0.0
220
0.0
230
1.0
  2
SOLID
 70
     1
 71
     0
 91
        1
 92
        3
 72
     0
 73
     1
 93
        4
 10
186.1174859022492
 20
45.66910478962427
 10
186.1174859022492
 20
54.66910478962428
 10
168.1174859022492
 20
54.66910478962428
 10
168.1174859022492
 20
45.66910478962427
 97
        0
 75
     0
 76
     1
 98
        0
  0
LINE
  5
108
330
E3
100
AcDbEntity
  8
0
  6
Continuous
100
AcDbLine
 10
186.1174869872899
 20
45.66910381338675
 30
0.0
 11
186.1174869872899
 21
54.66910518012923
 31
0.0
  0
LINE
  5
109
330
E3
100
AcDbEntity
  8
0
  6
Continuous
100
AcDbLine
 10
186.1174869872899
 20
54.66910518012923
 30
0.0
 11
168.1174872315822
 21
54.66910518012923
 31
0.0
  0
LINE
  5
10A
330
E3
100
AcDbEntity
  8
0
  6
Continuous
100
AcDbLine
 10
168.1174872315822
 20
54.66910518012923
 30
0.0
 11
168.1174872315822
 21
45.66910381338675
 31
0.0
  0
LINE
  5
10B
330
E3
100
AcDbEntity
  8
0
  6
Continuous
100
AcDbLine
 10
168.1174872315822
 20
45.66910381338675
 30
0.0
 11
186.1174869872899
 21
45.66910381338675
 31
0.0
  0
LINE
  5
10C
330
E3
100
AcDbEntity
  8
0
  6
Continuous
100
AcDbLine
 10
186.1174869872899
 20
194.1691040313079
 30
0.0
 11
176.6452101402021
 21
198.9052439437405
 31
0.0
  0
LINE
  5
10D
330
E3
100
AcDbEntity
  8
0
  6
Continuous
100
AcDbLine
 10
177.5897670564473
 20
198.9052439437405
 30
0.0
 11
168.1174872315822
 21
194.1691040313079
 31
0.0
  0
LINE
  5
10E
330
E3
100
AcDbEntity
  8
0
  6
Continuous
100
AcDbLine
 10
168.1174872315822
 20
45.66910381338675
 30
0.0
 11
186.1174869872899
 21
54.66910518012923
 31
0.0
  0
HATCH
  5
10F
330
E3
100
AcDbEntity
  8
0
  6
Continuous
 62
   255
370
     0
100
AcDbHatch
 10
0.0
 20
0.0
 30
0.0
210
0.0
220
0.0
230
1.0
  2
SOLID
 70
     1
 71
     0
 91
        1
 92
        3
 72
     0
 73
     1
 93
        4
 10
157.23584828813
 20
198.90524494705
 10
157.23584828813
 20
139.0865260571862
 10
159.0358483553277
 20
139.0865260571862
 10
159.0358483553277
 20
198.90524494705
 97
        0
 75
     0
 76
     1
 98
        0
  0
HATCH
  5
110
330
E3
100
AcDbEntity
  8
0
  6
Continuous
100
AcDbHatch
 10
0.0
 20
0.0
 30
0.0
210
0.0
220
0.0
230
1.0
  2
Plaster_0002
 70
     0
 71
     0
 91
        1
 92
        3
 72
     0
 73
     1
 93
        4
 10
157.23584828813
 20
198.90524494705
 10
157.23584828813
 20
139.0865260571862
 10
159.0358483553277
 20
139.0865260571862
 10
159.0358483553277
 20
198.90524494705
 97
        0
 75
     0
 76
     2
 52
0.0
 41
1.0
 77
     0
 78
     2
 53
0.0
 43
-1488.68793027213
 44
350.9956652514564
 45
0.0
 46
1.732050807568877
 79
     2
 49
0.0
 49
-1.0
 53
0.0
 43
-1488.18793027213
 44
351.8616906396973
 45
0.0
 46
1.732050807568877
 79
     2
 49
0.0
 49
-1.0
 98
        0
  0
LINE
  5
111
330
E3
100
AcDbEntity
  8
0
  6
Continuous
100
AcDbLine
 10
157.23584828813
 20
198.90524494705
 30
0.0
 11
157.23584828813
 21
139.0865260571862
 31
0.0
  0
LINE
  5
112
330
E3
100
AcDbEntity
  8
0
  6
Continuous
100
AcDbLine
 10
157.2358492311586
 20
139.0865248921423
 30
0.0
 11
159.0358501000625
 21
139.0865248921423
 31
0.0
  0
LINE
  5
113
330
E3
100
AcDbEntity
  8
0
  6
Continuous
100
AcDbLine
 10
159.0358483553277
 20
139.0865260571862
 30
0.0
 11
159.0358483553277
 21
198.90524494705
 31
0.0
  0
HATCH
  5
114
330
E3
100
AcDbEntity
  8
0
  6
Continuous
 62
   255
370
     0
100
AcDbHatch
 10
0.0
 20
0.0
 30
0.0
210
0.0
220
0.0
230
1.0
  2
SOLID
 70
     1
 71
     0
 91
        1
 92
        3
 72
     0
 73
     1
 93
        4
 10
177.1174859022491
 20
151.3784425109963
 10
168.1174859022492
 20
151.3784425109963
 10
168.1174859022492
 20
133.3784425109963
 10
177.1174859022491
 20
133.3784425109963
 97
        0
 75
     0
 76
     1
 98
        0
  0
LINE
  5
115
330
E3
100
AcDbEntity
  8
0
  6
Continuous
100
AcDbLine
 10
177.1174856205474
 20
151.3784412013113
 30
0.0
 11
168.1174872315822
 21
133.3784414456036
 31
0.0
  0
LINE
  5
116
330
E3
100
AcDbEntity
  8
0
  6
Continuous
100
AcDbLine
 10
177.1174856205474
 20
151.3784412013113
 30
0.0
 11
168.1174872315822
 21
151.3784412013113
 31
0.0
  0
LINE
  5
117
330
E3
100
AcDbEntity
  8
0
  6
Continuous
100
AcDbLine
 10
168.1174872315822
 20
151.3784412013113
 30
0.0
 11
168.1174872315822
 21
133.3784414456036
 31
0.0
  0
LINE
  5
118
330
E3
100
AcDbEntity
  8
0
  6
Continuous
100
AcDbLine
 10
168.1174872315822
 20
133.3784414456036
 30
0.0
 11
177.1174856205474
 21
133.3784414456036
 31
0.0
  0
LINE
  5
119
330
E3
100
AcDbEntity
  8
0
  6
Continuous
100
AcDbLine
 10
177.1174856205474
 20
133.3784414456036
 30
0.0
 11
177.1174856205474
 21
151.3784412013113
 31
0.0
  0
HATCH
  5
11A
330
E3
100
AcDbEntity
  8
0
  6
Continuous
 62
   255
370
     0
100
AcDbHatch
 10
0.0
 20
0.0
 30
0.0
210
0.0
220
0.0
230
1.0
  2
SOLID
 70
     1
 71
     0
 91
        1
 92
        3
 72
     0
 73
     1
 93
        4
 10
177.1174859022491
 20
130.736097640514
 10
168.1174859022492
 20
130.736097640514
 10
168.1174859022492
 20
112.736097640514
 10
177.1174859022491
 20
112.736097640514
 97
        0
 75
     0
 76
     1
 98
        0
  0
LINE
  5
11B
330
E3
100
AcDbEntity
  8
0
  6
Continuous
100
AcDbLine
 10
177.1174856205474
 20
130.7360988441766
 30
0.0
 11
168.1174872315822
 21
112.7360990884689
 31
0.0
  0
LINE
  5
11C
330
E3
100
AcDbEntity
  8
0
  6
Continuous
100
AcDbLine
 10
177.1174856205474
 20
130.7360988441766
 30
0.0
 11
168.1174872315822
 21
130.7360988441766
 31
0.0
  0
LINE
  5
11D
330
E3
100
AcDbEntity
  8
0
  6
Continuous
100
AcDbLine
 10
168.1174872315822
 20
130.7360988441766
 30
0.0
 11
168.1174872315822
 21
112.7360990884689
 31
0.0
  0
LINE
  5
11E
330
E3
100
AcDbEntity
  8
0
  6
Continuous
100
AcDbLine
 10
168.1174872315822
 20
112.7360990884689
 30
0.0
 11
177.1174856205474
 21
112.7360990884689
 31
0.0
  0
LINE
  5
11F
330
E3
100
AcDbEntity
  8
0
  6
Continuous
100
AcDbLine
 10
177.1174856205474
 20
112.7360990884689
 30
0.0
 11
177.1174856205474
 21
130.7360988441766
 31
0.0
  0
HATCH
  5
120
330
E3
100
AcDbEntity
  8
0
  6
Continuous
 62
   255
370
     0
100
AcDbHatch
 10
0.0
 20
0.0
 30
0.0
210
0.0
220
0.0
230
1.0
  2
SOLID
 70
     1
 71
     0
 91
        1
 92
        3
 72
     0
 73
     1
 93
        4
 10
159.1174859022493
 20
115.0117335009554
 10
159.1174859022493
 20
97.01173350095537
 10
168.1174859022492
 20
97.01173350095537
 10
168.1174859022492
 20
115.0117335009554
 97
        0
 75
     0
 76
     1
 98
        0
  0
LINE
  5
121
330
E3
100
AcDbEntity
  8
0
  6
Continuous
100
AcDbLine
 10
168.1174872315822
 20
115.0117343705166
 30
0.0
 11
159.1174858648397
 21
97.01173461480893
 31
0.0
  0
LINE
  5
122
330
E3
100
AcDbEntity
  8
0
  6
Continuous
100
AcDbLine
 10
159.1174858648397
 20
115.0117343705166
 30
0.0
 11
168.1174872315822
 21
97.01173461480893
 31
0.0
  0
LINE
  5
123
330
E3
100
AcDbEntity
  8
0
  6
Continuous
100
AcDbLine
 10
159.1174858648397
 20
115.0117343705166
 30
0.0
 11
168.1174872315822
 21
115.0117343705166
 31
0.0
  0
LINE
  5
124
330
E3
100
AcDbEntity
  8
0
  6
Continuous
100
AcDbLine
 10
168.1174872315822
 20
115.0117343705166
 30
0.0
 11
168.1174872315822
 21
97.01173461480893
 31
0.0
  0
LINE
  5
125
330
E3
100
AcDbEntity
  8
0
  6
Continuous
100
AcDbLine
 10
168.1174872315822
 20
97.01173461480893
 30
0.0
 11
159.1174858648397
 21
97.01173461480893
 31
0.0
  0
LINE
  5
126
330
E3
100
AcDbEntity
  8
0
  6
Continuous
100
AcDbLine
 10
159.1174858648397
 20
97.01173461480893
 30
0.0
 11
159.1174858648397
 21
115.0117343705166
 31
0.0
  0
HATCH
  5
127
330
E3
100
AcDbEntity
  8
0
  6
Continuous
 62
   255
370
     0
100
AcDbHatch
 10
0.0
 20
0.0
 30
0.0
210
0.0
220
0.0
230
1.0
  2
SOLID
 70
     1
 71
     0
 91
        1
 92
        3
 72
     0
 73
     1
 93
        8
 10
149.4538248712417
 20
75.11660877879062
 10
149.4538248712417
 20
23.56188081484578
 10
197.2913994821194
 20
23.56188081484578
 10
197.2913994821194
 20
83.55166601136033
 10
175.3422270631407
 20
79.68143322333098
 10
174.0291528644072
 20
85.44990124193052
 10
172.7160714889538
 20
73.21837354822041
 10
171.4029972902203
 20
78.98684156681995
 97
        0
 75
     0
 76
     1
 98
        0
  0
LINE
  5
128
330
E3
100
AcDbEntity
  8
0
  6
Continuous
100
AcDbLine
 10
149.4538272704519
 20
75.11661156829169
 30
0.0
 11
171.4029969750288
 21
78.98684361862077
 31
0.0
  0
LINE
  5
129
330
E3
100
AcDbEntity
  8
0
  6
Continuous
100
AcDbLine
 10
175.3422300810361
 20
79.68143399689558
 30
0.0
 11
197.291399785613
 21
83.55166604722464
 31
0.0
  0
LINE
  5
12A
330
E3
100
AcDbEntity
  8
0
  6
Continuous
100
AcDbLine
 10
175.3422300810361
 20
79.68143399689558
 30
0.0
 11
174.0291523790336
 21
85.4499037893732
 31
0.0
  0
LINE
  5
12B
330
E3
100
AcDbEntity
  8
0
  6
Continuous
100
AcDbLine
 10
174.0291523790336
 20
85.4499037893732
 30
0.0
 11
172.7160746770312
 21
73.21837382614316
 31
0.0
  0
LINE
  5
12C
330
E3
100
AcDbEntity
  8
0
  6
Continuous
100
AcDbLine
 10
172.7160746770312
 20
73.21837382614316
 30
0.0
 11
171.4029969750288
 21
78.98684361862077
 31
0.0
  0
LINE
  5
12E
330
E3
100
AcDbEntity
  8
0
  6
Dashed
100
AcDbLine
 10
165.2377532457378
 20
157.5015285373157
 30
0.0
 11
165.2377532457378
 21
143.8323128030383
 31
0.0
  0
LINE
  5
12F
330
E3
100
AcDbEntity
  8
0
  6
Dashed
100
AcDbLine
 10
167.2960554512848
 20
125.3229374395602
 30
0.0
 11
167.2960554512848
 21
156.0923668950592
 31
0.0
  0
LINE
  5
130
330
E3
100
AcDbEntity
  8
0
  6
Dashed
100
AcDbLine
 10
165.2377532457378
 20
155.5934432856243
 30
0.0
 11
165.9827901493122
 21
156.23606251662
 31
0.0
  0
LINE
  5
131
330
E3
100
AcDbEntity
  8
0
  6
Dashed
100
AcDbLine
 10
165.9827901493122
 20
156.23606251662
 30
0.0
 11
165.9827901493122
 21
198.9052439437405
 31
0.0
  0
LINE
  5
132
330
E3
100
AcDbEntity
  8
0
  6
Continuous
100
AcDbLine
 10
77.03935738029271
 20
52.93717332260744
 30
0.0
 11
201.4024595753678
 21
52.93717332260744
 31
0.0
  0
LINE
  5
133
330
E3
100
AcDbEntity
  8
0
  6
Continuous
100
AcDbLine
 10
177.4324421481681
 20
61.02354199040224
 30
0.0
 11
177.4324421481681
 21
31.41598763876262
 31
0.0
  0
LINE
  5
134
330
E3
100
AcDbEntity
  8
0
  6
Continuous
100
AcDbLine
 10
77.03935738029271
 20
31.41598763876262
 30
0.0
 11
77.03935738029271
 21
52.93717332260744
 31
0.0
  0
LINE
  5
135
330
E3
100
AcDbEntity
  8
0
  6
Continuous
100
AcDbLine
 10
153.4624247209684
 20
61.02354199040224
 30
0.0
 11
153.4624247209684
 21
31.41598763876262
 31
0.0
  0
LINE
  5
136
330
E3
100
AcDbEntity
  8
0
  6
Continuous
100
AcDbLine
 10
77.03935738029271
 20
42.17658196957368
 30
0.0
 11
201.4024595753678
 21
42.17658196957368
 31
0.0
  0
LINE
  5
137
330
E3
100
AcDbEntity
  8
0
  6
Continuous
100
AcDbLine
 10
77.03935738029271
 20
31.41598763876262
 30
0.0
 11
201.4024595753678
 21
31.41598763876262
 31
0.0
  0
LINE
  5
138
330
E3
100
AcDbEntity
  8
0
  6
Continuous
100
AcDbLine
 10
153.4624247209684
 20
61.02354199040224
 30
0.0
 11
177.4324421481681
 21
61.02354199040224
 31
0.0
  0
LINE
  5
139
330
E3
100
AcDbEntity
  8
0
  6
Continuous
100
AcDbLine
 10
201.4024595753678
 20
61.02354199040224
 30
0.0
 11
201.4024595753678
 21
31.41598763876262
 31
0.0
  0
LINE
  5
13A
330
E3
100
AcDbEntity
  8
0
  6
Continuous
100
AcDbLine
 10
177.4324421481681
 20
61.02354199040224
 30
0.0
 11
201.4024595753678
 21
61.02354199040224
 31
0.0
  0
LINE
  5
13B
330
E3
100
AcDbEntity
  8
0
  6
Dashed
100
AcDbLine
 10
167.4693352903565
 20
124.9637758078681
 30
0.0
 11
78.7596788841079
 21
124.9637758078681
 31
0.0
  0
LINE
  5
13C
330
E3
100
AcDbEntity
  8
0
  6
Dashed
100
AcDbLine
 10
136.7203750760422
 20
133.7227261018871
 30
0.0
 11
134.0125660405964
 21
133.7227261018871
 31
0.0
  0
LWPOLYLINE
  5
13D
330
E3
100
AcDbEntity
  8
0
  6
Continuous
100
AcDbPolyline
 90
        4
 70
   128
 43
0.0
 10
159.5560999963057
 20
141.4799668822754
 10
159.5560999963057
 20
139.5303526040371
 10
164.6300565694887
 20
139.5303526040371
 10
164.6300565694887
 20
151.4529937671099
  0
LWPOLYLINE
  5
13E
330
E3
100
AcDbEntity
  8
0
  6
Continuous
100
AcDbPolyline
 90
        7
 70
   128
 43
0.0
 10
129.0851121254439
 20
127.9444669617797
 10
133.1022468792753
 20
133.3749809809625
 10
166.3967878498427
 20
133.3749809809625
 10
166.3589507698966
 20
155.0221958114153
 10
166.0986788213128
 20
155.2628622184219
 10
165.8135209527043
 20
154.9517809072129
 10
165.8135209527043
 20
152.8260586139513
  0
LWPOLYLINE
  5
13F
330
E3
100
AcDbEntity
  8
0
  6
Continuous
100
AcDbPolyline
 90
        3
 70
   128
 43
0.0
 10
92.06513356143708
 20
127.5011779545818
 42
0.5012060838038215
 10
99.71990934907127
 20
127.723502625549
 42
-0.4736328287552234
 10
107.0402104810115
 20
127.6183838804715
  0
LWPOLYLINE
  5
140
330
E3
100
AcDbEntity
  8
0
  6
Continuous
100
AcDbPolyline
 90
       22
 70
   128
 43
0.0
 10
46.37732444102409
 20
125.7310263186787
 10
56.21516243881719
 20
125.7310263186787
 10
61.41516243881728
 20
132.9310263186786
 10
65.01516243881733
 20
132.9310263186786
 10
70.2151624388172
 20
125.7310263186787
 10
80.21516243881699
 20
125.7310263186787
 10
85.41516243881708
 20
132.9310263186786
 10
89.01516243881713
 20
132.9310263186786
 10
94.21516243881723
 20
125.7310263186787
 10
104.215162438817
 20
125.7310263186787
 10
109.4151624388169
 20
132.9310263186786
 10
113.0151624388169
 20
132.9310263186786
 10
118.215162438817
 20
125.7310263186787
 10
128.215162438817
 20
125.7310263186787
 10
133.4151624388171
 20
132.9310263186786
 10
137.0151624388172
 20
132.9310263186786
 10
142.2151624388173
 20
125.7310263186787
 10
152.2151624388173
 20
125.7310263186787
 10
154.856274764094
 20
129.3879510767543
 10
157.4151624388174
 20
132.9310263186786
 10
161.0151624388174
 20
132.9310263186786
 10
166.2151624388173
 20
125.7310263186787
  0
HATCH
  5
141
330
E3
100
AcDbEntity
  8
0
  6
Continuous
 62
   255
370
     0
100
AcDbHatch
 10
0.0
 20
0.0
 30
0.0
210
0.0
220
0.0
230
1.0
  2
SOLID
 70
     1
 71
     0
 91
        1
 92
        3
 72
     0
 73
     1
 93
        8
 10
148.5420028568649
 20
168.5444418697064
 10
170.6903458823079
 20
172.4497925871144
 10
172.003424149476
 20
166.6813263966904
 10
173.316502416644
 20
178.9128544981364
 10
174.6295755922893
 20
173.1443883077123
 10
196.7779237092551
 20
177.0497390251203
 10
196.7779237092551
 20
198.9052431179118
 10
148.5420028568649
 20
198.9052431179118
 97
        0
 75
     0
 76
     1
 98
        0
  0
LINE
  5
142
330
E3
100
AcDbEntity
  8
0
  6
Continuous
100
AcDbLine
 10
148.5420020823274
 20
168.5444429565004
 30
0.0
 11
170.6903463774079
 21
172.4497949123478
 31
0.0
  0
LINE
  5
143
330
E3
100
AcDbEntity
  8
0
  6
Continuous
100
AcDbLine
 10
174.6295765056378
 20
173.1443882683998
 30
0.0
 11
196.7779237784955
 21
177.0497402242472
 31
0.0
  0
LINE
  5
144
330
E3
100
AcDbEntity
  8
0
  6
Continuous
100
AcDbLine
 10
174.6295765056378
 20
173.1443882683998
 30
0.0
 11
173.3165017814127
 21
178.9128580608775
 31
0.0
  0
LINE
  5
145
330
E3
100
AcDbEntity
  8
0
  6
Continuous
100
AcDbLine
 10
173.3165017814127
 20
178.9128580608775
 30
0.0
 11
172.0034240794103
 21
166.6813251198701
 31
0.0
  0
LINE
  5
146
330
E3
100
AcDbEntity
  8
0
  6
Continuous
100
AcDbLine
 10
172.0034240794103
 20
166.6813251198701
 30
0.0
 11
170.6903463774079
 21
172.4497949123478
 31
0.0
  0
LINE
  5
147
330
E3
100
AcDbEntity
  8
Doc_ Floor
  6
Continuous
100
AcDbLine
 10
151.1802413066301
 20
138.1085245590007
 30
0.0
 11
151.1802413066301
 21
139.0865248921423
 31
0.0
  0
LINE
  5
148
330
E3
100
AcDbEntity
  8
Doc_ Floor
  6
Continuous
100
AcDbLine
 10
151.1802413066301
 20
139.0865248921423
 30
0.0
 11
151.1802413066301
 21
155.0221954210404
 31
0.0
  0
LINE
  5
149
330
E3
100
AcDbEntity
  8
Doc_ Floor
  6
Continuous
100
AcDbLine
 10
150.1802411547698
 20
139.6638742224211
 30
0.0
 11
152.1802414584904
 21
138.5091755618633
 31
0.0
  0
LINE
  5
14A
330
E3
100
AcDbEntity
  8
Doc_ Floor
  6
Continuous
100
AcDbLine
 10
152.1802414584904
 20
154.4448460907616
 30
0.0
 11
150.1802411547698
 21
155.5995447513193
 31
0.0
  0
LINE
  5
14B
330
E3
100
AcDbEntity
  8
Doc_ Floor
  6
Continuous
100
AcDbLine
 10
151.1802413066301
 20
155.0221954210404
 30
0.0
 11
151.1802413066301
 21
156.000195754182
 31
0.0
  0
LINE
  5
14C
330
E3
100
AcDbEntity
  8
Doc_ Floor
  6
Continuous
100
AcDbLine
 10
152.6802400455319
 20
139.0865248921423
 30
0.0
 11
149.6802425677284
 21
139.0865248921423
 31
0.0
  0
LINE
  5
14D
330
E3
100
AcDbEntity
  8
Doc_ Floor
  6
Continuous
100
AcDbLine
 10
152.6802400455319
 20
155.0221954210404
 30
0.0
 11
149.6802425677284
 21
155.0221954210404
 31
0.0
  0
MTEXT
  5
14E
330
E3
100
AcDbEntity
  8
Doc_ Floor
  6
Continuous
100
AcDbMText
 10
147.8961667906316
 20
146.9886823706722
 30
0.0
 40
2.5
 41
0.0
 71
     7
 72
     1
  1
{A}
  7
GENERATED_STYLE_1
 73
     1
 44
1.0
  0
LINE
  5
14F
330
E3
100
AcDbEntity
  8
Doc_ Floor
  6
Continuous
100
AcDbLine
 10
151.1802413066301
 20
132.3969809352353
 30
0.0
 11
151.1802413066301
 21
133.3749812683768
 31
0.0
  0
LINE
  5
150
330
E3
100
AcDbEntity
  8
Doc_ Floor
  6
Continuous
100
AcDbLine
 10
151.1802413066301
 20
133.3749812683768
 30
0.0
 11
151.1802413066301
 21
139.0865248921423
 31
0.0
  0
LINE
  5
151
330
E3
100
AcDbEntity
  8
Doc_ Floor
  6
Continuous
100
AcDbLine
 10
150.1802411547698
 20
133.9523305986557
 30
0.0
 11
152.1802414584904
 21
132.797631938098
 31
0.0
  0
LINE
  5
152
330
E3
100
AcDbEntity
  8
Doc_ Floor
  6
Continuous
100
AcDbLine
 10
152.1802414584904
 20
138.5091755618633
 30
0.0
 11
150.1802411547698
 21
139.6638742224211
 31
0.0
  0
LINE
  5
153
330
E3
100
AcDbEntity
  8
Doc_ Floor
  6
Continuous
100
AcDbLine
 10
151.1802413066301
 20
139.0865248921423
 30
0.0
 11
151.1802413066301
 21
140.0645252252837
 31
0.0
  0
LINE
  5
154
330
E3
100
AcDbEntity
  8
Doc_ Floor
  6
Continuous
100
AcDbLine
 10
152.6802400455319
 20
133.3749812683768
 30
0.0
 11
149.6802425677284
 21
133.3749812683768
 31
0.0
  0
LINE
  5
155
330
E3
100
AcDbEntity
  8
Doc_ Floor
  6
Continuous
100
AcDbLine
 10
152.6802400455319
 20
139.0865248921423
 30
0.0
 11
149.6802425677284
 21
139.0865248921423
 31
0.0
  0
MTEXT
  5
156
330
E3
100
AcDbEntity
  8
Doc_ Floor
  6
Continuous
100
AcDbMText
 10
138.1825294138399
 20
135.1737498277818
 30
0.0
 40
2.5
 41
0.0
 71
     7
 72
     1
  1
{35 MIN.}
  7
GENERATED_STYLE_1
 73
     1
 44
1.0
  0
LINE
  5
157
330
E3
100
AcDbEntity
  8
Doc_ Floor
  6
Continuous
100
AcDbLine
 10
132.124247274646
 20
137.7451344835375
 30
0.0
 11
133.1022476077875
 21
137.7451344835375
 31
0.0
  0
LINE
  5
158
330
E3
100
AcDbEntity
  8
Doc_ Floor
  6
Continuous
100
AcDbLine
 10
133.1022476077875
 20
137.7451344835375
 30
0.0
 11
166.3967875500495
 21
137.7451344835375
 31
0.0
  0
LINE
  5
159
330
E3
100
AcDbEntity
  8
Doc_ Floor
  6
Continuous
100
AcDbLine
 10
133.6795969380664
 20
138.7451346353978
 30
0.0
 11
132.5248982775086
 21
136.7451343316772
 31
0.0
  0
LINE
  5
15A
330
E3
100
AcDbEntity
  8
Doc_ Floor
  6
Continuous
100
AcDbLine
 10
165.8194382197706
 20
136.7451343316772
 30
0.0
 11
166.9741368803284
 21
138.7451346353978
 31
0.0
  0
LINE
  5
15B
330
E3
100
AcDbEntity
  8
Doc_ Floor
  6
Continuous
100
AcDbLine
 10
166.3967875500495
 20
137.7451344835375
 30
0.0
 11
167.374787883191
 21
137.7451344835375
 31
0.0
  0
LINE
  5
15C
330
E3
100
AcDbEntity
  8
Doc_ Floor
  6
Continuous
100
AcDbLine
 10
133.1022476077875
 20
136.2451327668585
 30
0.0
 11
133.1022476077875
 21
139.2451332224393
 31
0.0
  0
LINE
  5
15D
330
E3
100
AcDbEntity
  8
Doc_ Floor
  6
Continuous
100
AcDbLine
 10
166.3967875500495
 20
136.2451327668585
 30
0.0
 11
166.3967875500495
 21
139.2451332224393
 31
0.0
  0
MTEXT
  5
15E
330
E3
100
AcDbEntity
  8
Doc_ Floor
  6
Continuous
100
AcDbMText
 10
140.8139969329316
 20
138.2451336251171
 30
0.0
 40
2.5
 41
0.0
 71
     7
 72
     1
  1
{B}
  7
GENERATED_STYLE_1
 73
     1
 44
1.0
  0
MTEXT
  5
15F
330
E3
100
AcDbEntity
  8
Doc_ Floor
  6
Continuous
100
AcDbMText
 10
196.4204054808611
 20
171.8545330605044
 30
0.0
 40
2.499999999999999
 41
0.0
 71
     4
 72
     1
  1
{HEM TO FLASHING EDGE}
  7
GENERATED_STYLE_1
 73
     1
 44
1.0
  0
LINE
  5
160
330
E3
100
AcDbEntity
  8
Doc_ Floor
  6
Continuous
100
AcDbLine
 10
166.3589519116304
 20
152.1125615732909
 30
0.0
 11
168.6210234180603
 21
155.2448497855825
 31
0.0
  0
LINE
  5
161
330
E3
100
AcDbEntity
  8
Doc_ Floor
  6
Continuous
100
AcDbLine
 10
166.3589519116304
 20
152.1125615732909
 30
0.0
 11
169.8841072169132
 21
153.6941662991968
 31
0.0
  0
LINE
  5
162
330
E3
100
AcDbEntity
  8
Doc_ Floor
  6
Continuous
100
AcDbLine
 10
168.6210234180603
 20
155.2448497855825
 30
0.0
 11
169.8841072169132
 21
153.6941662991968
 31
0.0
  0
LWPOLYLINE
  5
163
330
E3
100
AcDbEntity
  8
Doc_ Floor
  6
Continuous
100
AcDbPolyline
 90
        8
 70
   128
 43
0.0
 10
169.2525651739379
 20
154.4695078430173
 10
179.6112532404657
 20
162.6699253916852
 10
183.6567927397811
 20
165.6856301659465
 10
187.0422612359303
 20
168.043471927233
 10
189.8395077435132
 20
169.7923054158503
 10
192.1203812771295
 20
170.9809853721035
 10
193.9567308513788
 20
171.6583665362982
 10
195.420405480861
 20
171.8733036487397
  0
MTEXT
  5
164
330
E3
100
AcDbEntity
  8
Doc_ Floor
  6
Continuous
100
AcDbMText
 10
110.2044393979538
 20
170.8655649609201
 30
0.0
 40
2.5
 41
56.71228972547948
 71
     6
 72
     1
  1
{CLADDING ON CAVITY BATTENS WITH BUILDING WRAP OVER METAL HIDDEN GUTTER}
  7
GENERATED_STYLE_1
 73
     1
 44
1.065340909090909
  0
LINE
  5
165
330
E3
100
AcDbEntity
  8
Doc_ Floor
  6
Continuous
100
AcDbLine
 10
157.0358497963419
 20
150.9436529594405
 30
0.0
 11
153.4468688123345
 21
152.3745285537946
 31
0.0
  0
LINE
  5
166
330
E3
100
AcDbEntity
  8
Doc_ Floor
  6
Continuous
100
AcDbLine
 10
157.0358497963419
 20
150.9436529594405
 30
0.0
 11
154.6431402218273
 21
153.9773201652154
 31
0.0
  0
LINE
  5
167
330
E3
100
AcDbEntity
  8
Doc_ Floor
  6
Continuous
100
AcDbLine
 10
153.4468688123345
 20
152.3745285537946
 30
0.0
 11
154.6431402218273
 21
153.9773201652154
 31
0.0
  0
LWPOLYLINE
  5
168
330
E3
100
AcDbEntity
  8
Doc_ Floor
  6
Continuous
100
AcDbPolyline
 90
       15
 70
   128
 43
0.0
 10
154.0450034690336
 20
153.1759243893217
 10
147.6123693558259
 20
157.7334386206432
 10
141.7167589291798
 20
161.5215493634779
 10
138.9345331653421
 20
163.1426564909121
 10
136.2435980035747
 20
164.590106423264
 10
133.6296316706874
 20
165.8701303862132
 10
131.0783123934904
 20
166.9889596054397
 10
128.5753183987934
 20
167.9528253066231
 10
126.1063279134064
 20
168.7679587154432
 10
123.6570191641395
 20
169.4405910575798
 10
121.2130703778026
 20
169.9769535587127
 10
118.7601597812055
 20
170.3832774445216
 10
116.2839656011584
 20
170.6657939406864
 10
113.7701660644711
 20
170.8307342728867
 10
111.2044393979537
 20
170.8843296668024
  0
MTEXT
  5
16A
330
E3
100
AcDbEntity
  8
Doc_ Floor
  6
Continuous
100
AcDbMText
 10
100.5528247465177
 20
153.4616035793204
 30
0.0
 40
2.5
 41
56.68353220040024
 71
     6
 72
     1
  1
\A1;{\fCentury Gothic|b0|i0|c0|p34;TRS 7\PMIN. ROOF PITCH 3\fArial|b0|i0|c0|p34;\H1.029412x;\U+00B0}
  7
GENERATED_STYLE_1
 73
     1
 44
1.056356172275314
  0
LINE
  5
16B
330
E3
100
AcDbEntity
  8
Doc_ Floor
  6
Continuous
100
AcDbLine
 10
123.2405519338261
 20
125.7310269301272
 30
0.0
 11
121.7167994653738
 21
129.2815707647002
 31
0.0
  0
LINE
  5
16C
330
E3
100
AcDbEntity
  8
Doc_ Floor
  6
Continuous
100
AcDbLine
 10
123.2405519338261
 20
125.7310269301272
 30
0.0
 11
123.6962143945948
 21
129.5677649413458
 31
0.0
  0
LINE
  5
16D
330
E3
100
AcDbEntity
  8
Doc_ Floor
  6
Continuous
100
AcDbLine
 10
121.7167994653738
 20
129.2815707647002
 30
0.0
 11
123.6962143945948
 21
129.5677649413458
 31
0.0
  0
LWPOLYLINE
  5
16E
330
E3
100
AcDbEntity
  8
Doc_ Floor
  6
Continuous
100
AcDbPolyline
 90
       17
 70
   128
 43
0.0
 10
122.7065067820499
 20
129.4246685044393
 10
122.1343240322592
 20
132.6525067919231
 10
121.4927728024984
 20
135.6112515338621
 10
120.7752914134059
 20
138.3092983830912
 10
119.9753181856201
 20
140.7550429924453
 10
119.0862914397796
 20
142.9568810147595
 10
118.1016494965227
 20
144.9232081028686
 10
117.0148306764879
 20
146.6624199096077
 10
115.8192733003138
 20
148.1829120878118
 10
114.5084156886387
 20
149.4930802903158
 10
113.0756961621011
 20
150.6013201699547
 10
111.5145530413396
 20
151.5160273795635
 10
109.8184246469925
 20
152.2455975719771
 10
107.9807492996983
 20
152.7984264000305
 10
105.9949653200955
 20
153.1829095165587
 10
103.8545110288225
 20
153.4074425743966
 10
101.5528247465178
 20
153.4804212263792
  0
MTEXT
  5
16F
330
E3
100
AcDbEntity
  8
Doc_ Floor
  6
Continuous
100
AcDbMText
 10
100.5528247465177
 20
139.0084227469098
 30
0.0
 40
2.5
 41
0.0
 71
     6
 72
     1
  1
{UNDERLAY}
  7
GENERATED_STYLE_1
 73
     1
 44
1.0
  0
LINE
  5
170
330
E3
100
AcDbEntity
  8
Doc_ Floor
  6
Continuous
100
AcDbLine
 10
113.8171493456217
 20
124.9637758078681
 30
0.0
 11
111.8637750789204
 21
128.2973200769985
 31
0.0
  0
LINE
  5
171
330
E3
100
AcDbEntity
  8
Doc_ Floor
  6
Continuous
100
AcDbLine
 10
113.8171493456217
 20
124.9637758078681
 30
0.0
 11
113.7922521495866
 21
128.8273971925833
 31
0.0
  0
LINE
  5
172
330
E3
100
AcDbEntity
  8
Doc_ Floor
  6
Continuous
100
AcDbLine
 10
111.8637750789204
 20
128.2973200769985
 30
0.0
 11
113.7922521495866
 21
128.8273971925833
 31
0.0
  0
LWPOLYLINE
  5
173
330
E3
100
AcDbEntity
  8
Doc_ Floor
  6
Continuous
100
AcDbPolyline
 90
        9
 70
   128
 43
0.0
 10
112.8280133526868
 20
128.5623595735138
 10
111.8860875303899
 20
131.249653425282
 10
110.8590016674151
 20
133.4883981007656
 10
109.7225539621764
 20
135.3064083247743
 10
108.452542613088
 20
136.7314988221175
 10
107.0247658185638
 20
137.7914843176049
 10
105.415021777018
 20
138.514179536046
 10
103.5991086868647
 20
138.9273992022503
 10
101.5528247465178
 20
139.0589580410274
  0
MTEXT
  5
174
330
E3
100
AcDbEntity
  8
Doc_ Floor
  6
Continuous
100
AcDbMText
 10
196.4204054808611
 20
104.0446282221472
 30
0.0
 40
2.499999999999999
 41
0.0
 71
     4
 72
     1
  1
{PURLIN}
  7
GENERATED_STYLE_1
 73
     1
 44
1.0
  0
LINE
  5
175
330
E3
100
AcDbEntity
  8
Doc_ Floor
  6
Continuous
100
AcDbLine
 10
162.6100761975308
 20
118.954519964847
 30
0.0
 11
165.9896181926693
 21
117.0818494186269
 31
0.0
  0
LINE
  5
176
330
E3
100
AcDbEntity
  8
Doc_ Floor
  6
Continuous
100
AcDbLine
 10
162.6100761975308
 20
118.954519964847
 30
0.0
 11
164.6005089027749
 21
115.6429665811035
 31
0.0
  0
LINE
  5
177
330
E3
100
AcDbEntity
  8
Doc_ Floor
  6
Continuous
100
AcDbLine
 10
165.9896181926693
 20
117.0818494186269
 30
0.0
 11
164.6005089027749
 21
115.6429665811035
 31
0.0
  0
LWPOLYLINE
  5
178
330
E3
100
AcDbEntity
  8
Doc_ Floor
  6
Continuous
100
AcDbPolyline
 90
       13
 70
   128
 43
0.0
 10
165.2950634778693
 20
116.3624076779615
 10
168.9074832343356
 20
113.2121847392251
 10
172.4149347682818
 20
110.5912780233338
 10
174.1525401648782
 20
109.4687919381767
 10
175.8917947615264
 20
108.4660033357969
 10
177.6419956434537
 20
107.5787016918832
 10
179.4124398958874
 20
106.8026764821242
 10
181.2124246040548
 20
106.1337171822085
 10
183.0512468531832
 20
105.567613267825
 10
184.9382037284998
 20
105.1001542146623
 10
186.8825923152319
 20
104.727129498409
 10
190.9808529638518
 20
104.2475409793858
 10
195.420405480861
 20
104.0951635162648
  0
MTEXT
  5
179
330
E3
100
AcDbEntity
  8
0
  6
Continuous
100
AcDbMText
 10
80.59528482672773
 20
44.09353246607213
 30
0.0
 40
2.499999999999999
 41
69.01187578516166
 71
     7
 72
     1
  1
\A1;{\fCentury Gothic|b0|i0|c0|p34;LOW, MEDIUM OR HIGH WIND ZONE.\P ROOF PITCH \fArial|b0|i0|c0|p34;\H1.029412x;\U+2265\fCentury Gothic|b0|i0|c0|p34;\H0.971429x; 10\fArial|b0|i0|c0|p34;\H1.029412x;\U+00B0}
  7
GENERATED_STYLE_1
 73
     1
 44
1.056355725756043
  0
MTEXT
  5
17A
330
E3
100
AcDbEntity
  8
0
  6
Continuous
100
AcDbMText
 10
80.59528482672773
 20
33.67068007994491
 30
0.0
 40
2.5
 41
69.01187578516166
 71
     7
 72
     1
  1
\A1;{\fCentury Gothic|b0|i0|c0|p34;VERY HIGH OR EXTRA WIND ZONE.\P ROOF PITCH \fArial|b0|i0|c0|p34;\H1.029412x;<\fCentury Gothic|b0|i0|c0|p34;\H0.971429x; 10\fArial|b0|i0|c0|p34;\H1.029412x;\U+00B0}
  7
GENERATED_STYLE_1
 73
     1
 44
1.056355725756044
  0
MTEXT
  5
17B
330
E3
100
AcDbEntity
  8
0
  6
Continuous
100
AcDbMText
 10
165.0946188833159
 20
46.13336019751755
 30
0.0
 40
2.499999999999999
 41
0.0
 71
     8
 72
     1
  1
{75MM}
  7
GENERATED_STYLE_1
 73
     1
 44
1.0
  0
MTEXT
  5
17C
330
E3
100
AcDbEntity
  8
0
  6
Continuous
100
AcDbMText
 10
165.0946188833159
 20
34.89458067605981
 30
0.0
 40
2.499999999999999
 41
0.0
 71
     8
 72
     1
  1
{100MM}
  7
GENERATED_STYLE_1
 73
     1
 44
1.0
  0
MTEXT
  5
17D
330
E3
100
AcDbEntity
  8
0
  6
Continuous
100
AcDbMText
 10
165.0946188833159
 20
56.01542426293395
 30
0.0
 40
2.499999999999999
 41
0.0
 71
     8
 72
     1
  1
{A}
  7
GENERATED_STYLE_1
 73
     1
 44
1.0
  0
MTEXT
  5
17E
330
E3
100
AcDbEntity
  8
0
  6
Continuous
100
AcDbMText
 10
189.0646357201038
 20
46.13335364306047
 30
0.0
 40
2.5
 41
0.0
 71
     8
 72
     1
  1
{2 CRESTS}
  7
GENERATED_STYLE_1
 73
     1
 44
1.0
  0
MTEXT
  5
17F
330
E3
100
AcDbEntity
  8
0
  6
Continuous
100
AcDbMText
 10
189.0646357201038
 20
34.89457336032336
 30
0.0
 40
2.499999999999999
 41
0.0
 71
     8
 72
     1
  1
{2 CRESTS}
  7
GENERATED_STYLE_1
 73
     1
 44
1.0
  0
MTEXT
  5
180
330
E3
100
AcDbEntity
  8
0
  6
Continuous
100
AcDbMText
 10
189.0646357201038
 20
56.015424262934
 30
0.0
 40
2.499999999999999
 41
0.0
 71
     8
 72
     1
  1
{B}
  7
GENERATED_STYLE_1
 73
     1
 44
1.0
  0
MTEXT
  5
181
330
E3
100
AcDbEntity
  8
Doc_ Floor
  6
Continuous
100
AcDbMText
 10
109.0617621256458
 20
82.3994032760864
 30
0.0
 40
2.499999999999999
 41
0.0
 71
     6
 72
     1
  1
{ROOF FRAME}
  7
GENERATED_STYLE_1
 73
     1
 44
1.0
  0
LINE
  5
182
330
E3
100
AcDbEntity
  8
Doc_ Floor
  6
Continuous
100
AcDbLine
 10
129.6189777180566
 20
108.030668993368
 30
0.0
 11
129.2825722605184
 21
104.1816387174403
 31
0.0
  0
LINE
  5
183
330
E3
100
AcDbEntity
  8
Doc_ Floor
  6
Continuous
100
AcDbLine
 10
129.6189777180566
 20
108.030668993368
 30
0.0
 11
127.4031272709326
 21
104.8655150529769
 31
0.0
  0
LINE
  5
184
330
E3
100
AcDbEntity
  8
Doc_ Floor
  6
Continuous
100
AcDbLine
 10
129.2825722605184
 20
104.1816387174403
 30
0.0
 11
127.4031272709326
 21
104.8655150529769
 31
0.0
  0
LWPOLYLINE
  5
185
330
E3
100
AcDbEntity
  8
Doc_ Floor
  6
Continuous
100
AcDbPolyline
 90
       15
 70
   128
 43
0.0
 10
128.3428502201417
 20
104.5235763658809
 10
126.0877698862937
 20
98.8393358963964
 10
123.918216553828
 20
94.11293937167176
 10
122.8508071478098
 20
92.08967416672519
 10
121.7871330537728
 20
90.28275984172554
 10
120.7213121255955
 20
88.68449302792517
 10
119.6474622171564
 20
87.28717035657638
 10
118.5597011823341
 20
86.0830884589315
 10
117.4521468750072
 20
85.06454396624282
 10
116.3189171490541
 20
84.22383350976273
 10
115.1541298583535
 20
83.55325372074348
 10
113.9519028567838
 20
83.04510123043744
 10
112.7063539982236
 20
82.69167267009692
 10
111.4116011365515
 20
82.48526467097423
 10
110.0617621256459
 20
82.41817386432172
  0
HATCH
  5
186
330
E3
100
AcDbEntity
  8
0
  6
Continuous
 62
   255
370
     0
100
AcDbHatch
 10
0.0
 20
0.0
 30
0.0
210
0.0
220
0.0
230
1.0
  2
SOLID
 70
     1
 71
     0
 91
        1
 92
        3
 72
     0
 73
     1
 93
        8
 10
46.37732440698232
 20
134.4176614465682
 10
46.37732440698232
 20
89.38636536409926
 10
114.0931829407312
 20
89.38636536409926
 10
110.4703640846976
 20
109.9323979474363
 10
104.2388349781746
 20
111.245474919368
 10
116.0073034341675
 20
112.5585518912996
 10
109.7757703900161
 20
113.8716288632312
 10
106.1529515339825
 20
134.4176614465682
 97
        0
 75
     0
 76
     1
 98
        0
  0
LINE
  5
187
330
E3
100
AcDbEntity
  8
0
  6
Continuous
100
AcDbLine
 10
106.1529520772625
 20
134.4176589245518
 30
0.0
 11
109.7757725225476
 21
113.8716297965236
 31
0.0
  0
LINE
  5
188
330
E3
100
AcDbEntity
  8
0
  6
Continuous
100
AcDbLine
 10
110.4703629008224
 20
109.9323966905163
 30
0.0
 11
114.0931833461075
 21
89.38636756248815
 31
0.0
  0
LINE
  5
189
330
E3
100
AcDbEntity
  8
0
  6
Continuous
100
AcDbLine
 10
110.4703629008224
 20
109.9323966905163
 30
0.0
 11
104.238833848754
 21
111.2454743925188
 31
0.0
  0
LINE
  5
18A
330
E3
100
AcDbEntity
  8
0
  6
Continuous
100
AcDbLine
 10
104.238833848754
 20
111.2454743925188
 30
0.0
 11
116.007301574616
 21
112.5585520945212
 31
0.0
  0
LINE
  5
18B
330
E3
100
AcDbEntity
  8
0
  6
Continuous
100
AcDbLine
 10
116.007301574616
 20
112.5585520945212
 30
0.0
 11
109.7757725225476
 21
113.8716297965236
 31
0.0
  0
HATCH
  5
18C
330
E3
100
AcDbEntity
  8
0
  6
Continuous
 62
   255
370
     0
100
AcDbHatch
 10
0.0
 20
0.0
 30
0.0
210
0.0
220
0.0
230
1.0
  2
SOLID
 70
     1
 71
     0
 91
        1
 92
        3
 72
     0
 73
     1
 93
        4
 10
134.5978901924441
 20
134.5529510038504
 10
134.5978901924441
 20
134.0529510038504
 10
136.0978901924441
 20
134.0529510038504
 10
136.0978901924441
 20
134.5529510038504
 97
        0
 75
     0
 76
     1
 98
        0
  0
HATCH
  5
18D
330
E3
100
AcDbEntity
  8
0
  6
Continuous
 62
   255
370
     0
100
AcDbHatch
 10
0.0
 20
0.0
 30
0.0
210
0.0
220
0.0
230
1.0
  2
SOLID
 70
     1
 71
     0
 91
        1
 92
        3
 72
     1
 73
     1
 93
        4
 10
134.8478901924441
 20
134.4696176705171
 42
0.0
 10
134.8478901924441
 20
134.1362843371838
 42
0.1666666666666667
 10
135.847890192444
 20
134.1362843371838
 42
0.0
 10
135.847890192444
 20
134.4696176705171
 42
0.1666666666666667
 97
        0
 75
     0
 76
     1
 98
        0
  0
LINE
  5
18E
330
E3
100
AcDbEntity
  8
0
  6
Continuous
100
AcDbLine
 10
134.8478891520149
 20
134.1362857693607
 30
0.0
 11
134.8478891520149
 21
134.4696181607217
 31
0.0
  0
ARC
  5
18F
330
E3
100
AcDbEntity
  8
0
  6
Continuous
100
AcDbCircle
 10
135.3478901924441
 20
135.594617670517
 30
0.0
 40
1.541666666666497
100
AcDbArc
 50
251.0753555839488
 51
288.9246444160513
  0
LINE
  5
190
330
E3
100
AcDbEntity
  8
0
  6
Continuous
100
AcDbLine
 10
135.8478893038752
 20
134.4696181607217
 30
0.0
 11
135.8478893038752
 21
134.1362857693607
 31
0.0
  0
ARC
  5
191
330
E3
100
AcDbEntity
  8
0
  6
Continuous
100
AcDbCircle
 10
135.3478901924441
 20
133.011284337184
 30
0.0
 40
1.541666666666497
100
AcDbArc
 50
71.07535558394876
 51
108.9246444160512
  0
HATCH
  5
192
330
E3
100
AcDbEntity
  8
0
  6
Continuous
 62
   255
370
     0
100
AcDbHatch
 10
0.0
 20
0.0
 30
0.0
210
0.0
220
0.0
230
1.0
  2
SOLID
 70
     1
 71
     0
 91
        1
 92
        3
 72
     1
 73
     1
 93
        4
 10
134.347890192444
 20
134.4696176705171
 42
0.0
 10
134.347890192444
 20
134.1362843371838
 42
0.3333333333333333
 10
134.8478901924441
 20
134.1362843371838
 42
0.0
 10
134.8478901924441
 20
134.4696176705171
 42
0.3333333333333333
 97
        0
 75
     0
 76
     1
 98
        0
  0
LINE
  5
193
330
E3
100
AcDbEntity
  8
0
  6
Continuous
100
AcDbLine
 10
134.3478905649734
 20
134.1362857693607
 30
0.0
 11
134.3478905649734
 21
134.4696181607217
 31
0.0
  0
ARC
  5
194
330
E3
100
AcDbEntity
  8
0
  6
Continuous
100
AcDbCircle
 10
134.5978901924441
 20
134.4696176705172
 30
0.0
 40
0.4166666666667984
100
AcDbArc
 50
233.1301023541552
 51
306.8698976458448
  0
LINE
  5
195
330
E3
100
AcDbEntity
  8
0
  6
Continuous
100
AcDbLine
 10
134.8478891520149
 20
134.4696181607217
 30
0.0
 11
134.8478891520149
 21
134.1362857693607
 31
0.0
  0
ARC
  5
196
330
E3
100
AcDbEntity
  8
0
  6
Continuous
100
AcDbCircle
 10
134.5978901924441
 20
134.1362843371837
 30
0.0
 40
0.4166666666667984
100
AcDbArc
 50
53.13010235415521
 51
126.8698976458448
  0
HATCH
  5
197
330
E3
100
AcDbEntity
  8
0
  6
Continuous
 62
   255
370
     0
100
AcDbHatch
 10
0.0
 20
0.0
 30
0.0
210
0.0
220
0.0
230
1.0
  2
SOLID
 70
     1
 71
     0
 91
        1
 92
        3
 72
     1
 73
     1
 93
        4
 10
136.3478901924442
 20
134.4696176705171
 42
0.3333333333333333
 10
135.847890192444
 20
134.4696176705171
 42
0.0
 10
135.847890192444
 20
134.1362843371838
 42
0.3333333333333333
 10
136.3478901924442
 20
134.1362843371838
 42
0.0
 97
        0
 75
     0
 76
     1
 98
        0
  0
ARC
  5
198
330
E3
100
AcDbEntity
  8
0
  6
Continuous
100
AcDbCircle
 10
136.0978901924441
 20
134.1362843371837
 30
0.0
 40
0.4166666666667984
100
AcDbArc
 50
53.13010235415521
 51
126.8698976458448
  0
LINE
  5
199
330
E3
100
AcDbEntity
  8
0
  6
Continuous
100
AcDbLine
 10
135.8478893038752
 20
134.4696181607217
 30
0.0
 11
135.8478893038752
 21
134.1362857693607
 31
0.0
  0
ARC
  5
19A
330
E3
100
AcDbEntity
  8
0
  6
Continuous
100
AcDbCircle
 10
136.0978901924441
 20
134.4696176705172
 30
0.0
 40
0.4166666666667984
100
AcDbArc
 50
233.1301023541552
 51
306.8698976458448
  0
LINE
  5
19B
330
E3
100
AcDbEntity
  8
0
  6
Continuous
100
AcDbLine
 10
136.347890868694
 20
134.1362857693607
 30
0.0
 11
136.347890868694
 21
134.4696181607217
 31
0.0
  0
HATCH
  5
19C
330
E3
100
AcDbEntity
  8
0
  6
Continuous
 62
   255
370
     0
100
AcDbHatch
 10
0.0
 20
0.0
 30
0.0
210
0.0
220
0.0
230
1.0
  2
SOLID
 70
     1
 71
     0
 91
        1
 92
        3
 72
     0
 73
     1
 93
        4
 10
135.681223192444
 20
134.0529510038504
 10
135.0145571924442
 20
134.0529510038504
 10
135.0145571924442
 20
132.4529510038505
 10
135.681223192444
 20
132.4529510038505
 97
        0
 75
     0
 76
     1
 98
        0
  0
LINE
  5
19D
330
E3
100
AcDbEntity
  8
0
  6
Continuous
100
AcDbLine
 10
135.0145583254727
 20
134.0529496937432
 30
0.0
 11
135.6812231081947
 21
134.0529496937432
 31
0.0
  0
LINE
  5
19E
330
E3
100
AcDbEntity
  8
0
  6
Continuous
100
AcDbLine
 10
135.0145583254727
 20
132.4529512374331
 30
0.0
 11
135.0145583254727
 21
134.0529496937432
 31
0.0
  0
LINE
  5
19F
330
E3
100
AcDbEntity
  8
0
  6
Continuous
100
AcDbLine
 10
135.6812231081947
 20
132.4529512374331
 30
0.0
 11
135.0145583254727
 21
132.4529512374331
 31
0.0
  0
LINE
  5
1A0
330
E3
100
AcDbEntity
  8
0
  6
Continuous
100
AcDbLine
 10
135.6812231081947
 20
134.0529496937432
 30
0.0
 11
135.6812231081947
 21
132.4529512374331
 31
0.0
  0
HATCH
  5
1A1
330
E3
100
AcDbEntity
  8
0
  6
Continuous
 62
   255
370
     0
100
AcDbHatch
 10
0.0
 20
0.0
 30
0.0
210
0.0
220
0.0
230
1.0
  2
SOLID
 70
     1
 71
     0
 91
        1
 92
        3
 72
     0
 73
     1
 93
        5
 10
135.6478901924441
 20
132.4529510038505
 10
135.0478901924441
 20
132.4529510038505
 10
135.0478901924441
 20
120.0529510038504
 10
135.3478901924441
 20
119.4529510038504
 10
135.6478901924441
 20
120.0529510038504
 97
        0
 75
     0
 76
     1
 98
        0
  0
LINE
  5
1A2
330
E3
100
AcDbEntity
  8
0
  6
Continuous
100
AcDbLine
 10
135.0478915646088
 20
132.4529512374331
 30
0.0
 11
135.6478898690586
 21
132.4529512374331
 31
0.0
  0
LINE
  5
1A3
330
E3
100
AcDbEntity
  8
0
  6
Continuous
100
AcDbLine
 10
135.0478915646088
 20
120.0529505454766
 30
0.0
 11
135.0478915646088
 21
132.4529512374331
 31
0.0
  0
LINE
  5
1A4
330
E3
100
AcDbEntity
  8
0
  6
Continuous
100
AcDbLine
 10
135.3478907168337
 20
119.4529522410268
 30
0.0
 11
135.0478915646088
 21
120.0529505454766
 31
0.0
  0
LINE
  5
1A5
330
E3
100
AcDbEntity
  8
0
  6
Continuous
100
AcDbLine
 10
135.6478898690586
 20
120.0529505454766
 30
0.0
 11
135.3478907168337
 21
119.4529522410268
 31
0.0
  0
LINE
  5
1A6
330
E3
100
AcDbEntity
  8
0
  6
Continuous
100
AcDbLine
 10
135.6478898690586
 20
132.4529512374331
 30
0.0
 11
135.6478898690586
 21
120.0529505454766
 31
0.0
  0
LINE
  5
1A7
330
E3
100
AcDbEntity
  8
0
  6
Continuous
100
AcDbLine
 10
134.5978898584942
 20
134.5529512585619
 30
0.0
 11
136.0978915751732
 21
134.5529512585619
 31
0.0
  0
LINE
  5
1A8
330
E3
100
AcDbEntity
  8
0
  6
Continuous
100
AcDbLine
 10
136.0978915751732
 20
134.0529496937432
 30
0.0
 11
134.5978898584942
 21
134.0529496937432
 31
0.0
  0
LINE
  5
1A9
330
E3
100
AcDbEntity
  8
0
  6
Continuous
100
AcDbLine
 10
135.847890192444
 20
132.4529510038505
 30
0.0
 11
135.8459875414899
 21
132.4474796233791
 31
0.0
  0
LINE
  5
1AA
330
E3
100
AcDbEntity
  8
0
  6
Continuous
100
AcDbLine
 10
135.8459875414899
 20
132.4474796233791
 30
0.0
 11
135.8402940689503
 21
132.4420082429077
 31
0.0
  0
LINE
  5
1AB
330
E3
100
AcDbEntity
  8
0
  6
Continuous
100
AcDbLine
 10
135.8402940689503
 20
132.4420082429077
 30
0.0
 11
135.8308534399215
 21
132.4365377289359
 31
0.0
  0
LINE
  5
1AC
330
E3
100
AcDbEntity
  8
0
  6
Continuous
100
AcDbLine
 10
135.8308534399215
 20
132.4365377289359
 30
0.0
 11
135.8177363308993
 21
132.4310645742519
 31
0.0
  0
LINE
  5
1AD
330
E3
100
AcDbEntity
  8
0
  6
Continuous
100
AcDbLine
 10
135.8177363308993
 20
132.4310645742519
 30
0.0
 11
135.8010429113355
 21
132.4255943973452
 31
0.0
  0
LINE
  5
1AE
330
E3
100
AcDbEntity
  8
0
  6
Continuous
100
AcDbLine
 10
135.8010429113355
 20
132.4255943973452
 30
0.0
 11
135.7809042034315
 21
132.4201212426613
 31
0.0
  0
LINE
  5
1AF
330
E3
100
AcDbEntity
  8
0
  6
Continuous
100
AcDbLine
 10
135.7809042034315
 20
132.4201212426613
 30
0.0
 11
135.7574661182751
 21
132.4146510657546
 31
0.0
  0
LINE
  5
1B0
330
E3
100
AcDbEntity
  8
0
  6
Continuous
100
AcDbLine
 10
135.7574661182751
 20
132.4146510657546
 30
0.0
 11
135.7309132780593
 21
132.409180888848
 31
0.0
  0
LINE
  5
1B1
330
E3
100
AcDbEntity
  8
0
  6
Continuous
100
AcDbLine
 10
135.7309132780593
 20
132.409180888848
 30
0.0
 11
135.7014422160859
 21
132.403707734164
 31
0.0
  0
LINE
  5
1B2
330
E3
100
AcDbEntity
  8
0
  6
Continuous
100
AcDbLine
 10
135.7014422160859
 20
132.403707734164
 30
0.0
 11
135.6692851989847
 21
132.3982375572574
 31
0.0
  0
LINE
  5
1B3
330
E3
100
AcDbEntity
  8
0
  6
Continuous
100
AcDbLine
 10
135.6692851989847
 20
132.3982375572574
 30
0.0
 11
135.6346774711627
 21
132.3927644025734
 31
0.0
  0
LINE
  5
1B4
330
E3
100
AcDbEntity
  8
0
  6
Continuous
100
AcDbLine
 10
135.6346774711627
 20
132.3927644025734
 30
0.0
 11
135.5978900103544
 21
132.3872942256668
 31
0.0
  0
LINE
  5
1B5
330
E3
100
AcDbEntity
  8
0
  6
Continuous
100
AcDbLine
 10
135.5978900103544
 20
132.3872942256668
 30
0.0
 11
135.5591997498492
 21
132.3818240487601
 31
0.0
  0
LINE
  5
1B6
330
E3
100
AcDbEntity
  8
0
  6
Continuous
100
AcDbLine
 10
135.5591997498492
 20
132.3818240487601
 30
0.0
 11
135.5189014896001
 21
132.3763508940762
 31
0.0
  0
LINE
  5
1B7
330
E3
100
AcDbEntity
  8
0
  6
Continuous
100
AcDbLine
 10
135.5189014896001
 20
132.3763508940762
 30
0.0
 11
135.477298962892
 21
132.3708807171695
 31
0.0
  0
LINE
  5
1B8
330
E3
100
AcDbEntity
  8
0
  6
Continuous
100
AcDbLine
 10
135.477298962892
 20
132.3708807171695
 30
0.0
 11
135.4347137696737
 21
132.3654075624856
 31
0.0
  0
LINE
  5
1B9
330
E3
100
AcDbEntity
  8
0
  6
Continuous
100
AcDbLine
 10
135.4347137696737
 20
132.3654075624856
 30
0.0
 11
135.3914675098941
 21
132.3599373855789
 31
0.0
  0
LINE
  5
1BA
330
E3
100
AcDbEntity
  8
0
  6
Continuous
100
AcDbLine
 10
135.3914675098941
 20
132.3599373855789
 30
0.0
 11
135.3478907168337
 21
132.3544672086723
 31
0.0
  0
LINE
  5
1BB
330
E3
100
AcDbEntity
  8
0
  6
Continuous
100
AcDbLine
 10
135.3478907168337
 20
132.3544672086723
 30
0.0
 11
135.304310945996
 21
132.3489940539884
 31
0.0
  0
LINE
  5
1BC
330
E3
100
AcDbEntity
  8
0
  6
Continuous
100
AcDbLine
 10
135.304310945996
 20
132.3489940539884
 30
0.0
 11
135.2610646862164
 21
132.3435238770817
 31
0.0
  0
LINE
  5
1BD
330
E3
100
AcDbEntity
  8
0
  6
Continuous
100
AcDbLine
 10
135.2610646862164
 20
132.3435238770817
 30
0.0
 11
135.2184794929981
 21
132.3380507223978
 31
0.0
  0
LINE
  5
1BE
330
E3
100
AcDbEntity
  8
0
  6
Continuous
100
AcDbLine
 10
135.2184794929981
 20
132.3380507223978
 30
0.0
 11
135.1768799440673
 21
132.3325805454911
 31
0.0
  0
LINE
  5
1BF
330
E3
100
AcDbEntity
  8
0
  6
Continuous
100
AcDbLine
 10
135.1768799440673
 20
132.3325805454911
 30
0.0
 11
135.1365816838182
 21
132.3271103685845
 31
0.0
  0
LINE
  5
1C0
330
E3
100
AcDbEntity
  8
0
  6
Continuous
100
AcDbLine
 10
135.1365816838182
 20
132.3271103685845
 30
0.0
 11
135.097891423313
 21
132.3216372139005
 31
0.0
  0
LINE
  5
1C1
330
E3
100
AcDbEntity
  8
0
  6
Continuous
100
AcDbLine
 10
135.097891423313
 20
132.3216372139005
 30
0.0
 11
135.0611009847274
 21
132.3161670369939
 31
0.0
  0
LINE
  5
1C2
330
E3
100
AcDbEntity
  8
0
  6
Continuous
100
AcDbLine
 10
135.0611009847274
 20
132.3161670369939
 30
0.0
 11
135.0264962346827
 21
132.3106938823099
 31
0.0
  0
LINE
  5
1C3
330
E3
100
AcDbEntity
  8
0
  6
Continuous
100
AcDbLine
 10
135.0264962346827
 20
132.3106938823099
 30
0.0
 11
134.9943362398042
 21
132.3052237054033
 31
0.0
  0
LINE
  5
1C4
330
E3
100
AcDbEntity
  8
0
  6
Continuous
100
AcDbLine
 10
134.9943362398042
 20
132.3052237054033
 30
0.0
 11
134.9648681556081
 21
132.2997535284966
 31
0.0
  0
LINE
  5
1C5
330
E3
100
AcDbEntity
  8
0
  6
Continuous
100
AcDbLine
 10
134.9648681556081
 20
132.2997535284966
 30
0.0
 11
134.9383153153922
 21
132.2942803738127
 31
0.0
  0
LINE
  5
1C6
330
E3
100
AcDbEntity
  8
0
  6
Continuous
100
AcDbLine
 10
134.9383153153922
 20
132.2942803738127
 30
0.0
 11
134.9148772302359
 21
132.288810196906
 31
0.0
  0
LINE
  5
1C7
330
E3
100
AcDbEntity
  8
0
  6
Continuous
100
AcDbLine
 10
134.9148772302359
 20
132.288810196906
 30
0.0
 11
134.8947355445546
 21
132.2833370422221
 31
0.0
  0
LINE
  5
1C8
330
E3
100
AcDbEntity
  8
0
  6
Continuous
100
AcDbLine
 10
134.8947355445546
 20
132.2833370422221
 30
0.0
 11
134.8780451027681
 21
132.2778668653154
 31
0.0
  0
LINE
  5
1C9
330
E3
100
AcDbEntity
  8
0
  6
Continuous
100
AcDbLine
 10
134.8780451027681
 20
132.2778668653154
 30
0.0
 11
134.8649279937459
 21
132.2723966884087
 31
0.0
  0
LINE
  5
1CA
330
E3
100
AcDbEntity
  8
0
  6
Continuous
100
AcDbLine
 10
134.8649279937459
 20
132.2723966884087
 30
0.0
 11
134.8554854619163
 21
132.2669235337248
 31
0.0
  0
LINE
  5
1CB
330
E3
100
AcDbEntity
  8
0
  6
Continuous
100
AcDbLine
 10
134.8554854619163
 20
132.2669235337248
 30
0.0
 11
134.8497928433983
 21
132.2614526873521
 31
0.0
  0
LINE
  5
1CC
330
E3
100
AcDbEntity
  8
0
  6
Continuous
100
AcDbLine
 10
134.8497928433983
 20
132.2614526873521
 30
0.0
 11
134.8478901924441
 21
132.2559813068808
 31
0.0
  0
LINE
  5
1CD
330
E3
100
AcDbEntity
  8
0
  6
Continuous
100
AcDbLine
 10
135.847890192444
 20
132.0590116099111
 30
0.0
 11
135.8459875414899
 21
132.0535402294396
 31
0.0
  0
LINE
  5
1CE
330
E3
100
AcDbEntity
  8
0
  6
Continuous
100
AcDbLine
 10
135.8459875414899
 20
132.0535402294396
 30
0.0
 11
135.8402940689503
 21
132.0480688489683
 31
0.0
  0
LINE
  5
1CF
330
E3
100
AcDbEntity
  8
0
  6
Continuous
100
AcDbLine
 10
135.8402940689503
 20
132.0480688489683
 30
0.0
 11
135.8308534399215
 21
132.0425986361154
 31
0.0
  0
LINE
  5
1D0
330
E3
100
AcDbEntity
  8
0
  6
Continuous
100
AcDbLine
 10
135.8308534399215
 20
132.0425986361154
 30
0.0
 11
135.8177363308993
 21
132.0371254814315
 31
0.0
  0
LINE
  5
1D1
330
E3
100
AcDbEntity
  8
0
  6
Continuous
100
AcDbLine
 10
135.8177363308993
 20
132.0371254814315
 30
0.0
 11
135.8010429113355
 21
132.0316553045248
 31
0.0
  0
LINE
  5
1D2
330
E3
100
AcDbEntity
  8
0
  6
Continuous
100
AcDbLine
 10
135.8010429113355
 20
132.0316553045248
 30
0.0
 11
135.7809042034315
 21
132.0261821498408
 31
0.0
  0
LINE
  5
1D3
330
E3
100
AcDbEntity
  8
0
  6
Continuous
100
AcDbLine
 10
135.7809042034315
 20
132.0261821498408
 30
0.0
 11
135.7574661182751
 21
132.0207119729342
 31
0.0
  0
LINE
  5
1D4
330
E3
100
AcDbEntity
  8
0
  6
Continuous
100
AcDbLine
 10
135.7574661182751
 20
132.0207119729342
 30
0.0
 11
135.7309132780593
 21
132.0152417960276
 31
0.0
  0
LINE
  5
1D5
330
E3
100
AcDbEntity
  8
0
  6
Continuous
100
AcDbLine
 10
135.7309132780593
 20
132.0152417960276
 30
0.0
 11
135.7014422160859
 21
132.0097686413436
 31
0.0
  0
LINE
  5
1D6
330
E3
100
AcDbEntity
  8
0
  6
Continuous
100
AcDbLine
 10
135.7014422160859
 20
132.0097686413436
 30
0.0
 11
135.6692851989847
 21
132.0042984644369
 31
0.0
  0
LINE
  5
1D7
330
E3
100
AcDbEntity
  8
0
  6
Continuous
100
AcDbLine
 10
135.6692851989847
 20
132.0042984644369
 30
0.0
 11
135.6346774711627
 21
131.998825309753
 31
0.0
  0
LINE
  5
1D8
330
E3
100
AcDbEntity
  8
0
  6
Continuous
100
AcDbLine
 10
135.6346774711627
 20
131.998825309753
 30
0.0
 11
135.5978900103544
 21
131.9933551328464
 31
0.0
  0
LINE
  5
1D9
330
E3
100
AcDbEntity
  8
0
  6
Continuous
100
AcDbLine
 10
135.5978900103544
 20
131.9933551328464
 30
0.0
 11
135.5591997498492
 21
131.9878849559397
 31
0.0
  0
LINE
  5
1DA
330
E3
100
AcDbEntity
  8
0
  6
Continuous
100
AcDbLine
 10
135.5591997498492
 20
131.9878849559397
 30
0.0
 11
135.5189014896001
 21
131.9824118012558
 31
0.0
  0
LINE
  5
1DB
330
E3
100
AcDbEntity
  8
0
  6
Continuous
100
AcDbLine
 10
135.5189014896001
 20
131.9824118012558
 30
0.0
 11
135.477298962892
 21
131.9769416243491
 31
0.0
  0
LINE
  5
1DC
330
E3
100
AcDbEntity
  8
0
  6
Continuous
100
AcDbLine
 10
135.477298962892
 20
131.9769416243491
 30
0.0
 11
135.4347137696737
 21
131.9714684696652
 31
0.0
  0
LINE
  5
1DD
330
E3
100
AcDbEntity
  8
0
  6
Continuous
100
AcDbLine
 10
135.4347137696737
 20
131.9714684696652
 30
0.0
 11
135.3914675098941
 21
131.9659982927585
 31
0.0
  0
LINE
  5
1DE
330
E3
100
AcDbEntity
  8
0
  6
Continuous
100
AcDbLine
 10
135.3914675098941
 20
131.9659982927585
 30
0.0
 11
135.3478907168337
 21
131.9605281158519
 31
0.0
  0
LINE
  5
1DF
330
E3
100
AcDbEntity
  8
0
  6
Continuous
100
AcDbLine
 10
135.3478907168337
 20
131.9605281158519
 30
0.0
 11
135.304310945996
 21
131.9550549611679
 31
0.0
  0
LINE
  5
1E0
330
E3
100
AcDbEntity
  8
0
  6
Continuous
100
AcDbLine
 10
135.304310945996
 20
131.9550549611679
 30
0.0
 11
135.2610646862164
 21
131.9495847842613
 31
0.0
  0
LINE
  5
1E1
330
E3
100
AcDbEntity
  8
0
  6
Continuous
100
AcDbLine
 10
135.2610646862164
 20
131.9495847842613
 30
0.0
 11
135.2184794929981
 21
131.9441116295773
 31
0.0
  0
LINE
  5
1E2
330
E3
100
AcDbEntity
  8
0
  6
Continuous
100
AcDbLine
 10
135.2184794929981
 20
131.9441116295773
 30
0.0
 11
135.1768799440673
 21
131.9386414526707
 31
0.0
  0
LINE
  5
1E3
330
E3
100
AcDbEntity
  8
0
  6
Continuous
100
AcDbLine
 10
135.1768799440673
 20
131.9386414526707
 30
0.0
 11
135.1365816838182
 21
131.933171275764
 31
0.0
  0
LINE
  5
1E4
330
E3
100
AcDbEntity
  8
0
  6
Continuous
100
AcDbLine
 10
135.1365816838182
 20
131.933171275764
 30
0.0
 11
135.097891423313
 21
131.9276981210801
 31
0.0
  0
LINE
  5
1E5
330
E3
100
AcDbEntity
  8
0
  6
Continuous
100
AcDbLine
 10
135.097891423313
 20
131.9276981210801
 30
0.0
 11
135.0611009847274
 21
131.9222279441734
 31
0.0
  0
LINE
  5
1E6
330
E3
100
AcDbEntity
  8
0
  6
Continuous
100
AcDbLine
 10
135.0611009847274
 20
131.9222279441734
 30
0.0
 11
135.0264962346827
 21
131.9167547894895
 31
0.0
  0
LINE
  5
1E7
330
E3
100
AcDbEntity
  8
0
  6
Continuous
100
AcDbLine
 10
135.0264962346827
 20
131.9167547894895
 30
0.0
 11
134.9943362398042
 21
131.9112846125828
 31
0.0
  0
LINE
  5
1E8
330
E3
100
AcDbEntity
  8
0
  6
Continuous
100
AcDbLine
 10
134.9943362398042
 20
131.9112846125828
 30
0.0
 11
134.9648681556081
 21
131.9058144356762
 31
0.0
  0
LINE
  5
1E9
330
E3
100
AcDbEntity
  8
0
  6
Continuous
100
AcDbLine
 10
134.9648681556081
 20
131.9058144356762
 30
0.0
 11
134.9383153153922
 21
131.9003412809922
 31
0.0
  0
LINE
  5
1EA
330
E3
100
AcDbEntity
  8
0
  6
Continuous
100
AcDbLine
 10
134.9383153153922
 20
131.9003412809922
 30
0.0
 11
134.9148772302359
 21
131.8948711040856
 31
0.0
  0
LINE
  5
1EB
330
E3
100
AcDbEntity
  8
0
  6
Continuous
100
AcDbLine
 10
134.9148772302359
 20
131.8948711040856
 30
0.0
 11
134.8947355445546
 21
131.8893979494016
 31
0.0
  0
LINE
  5
1EC
330
E3
100
AcDbEntity
  8
0
  6
Continuous
100
AcDbLine
 10
134.8947355445546
 20
131.8893979494016
 30
0.0
 11
134.8780451027681
 21
131.883927772495
 31
0.0
  0
LINE
  5
1ED
330
E3
100
AcDbEntity
  8
0
  6
Continuous
100
AcDbLine
 10
134.8780451027681
 20
131.883927772495
 30
0.0
 11
134.8649279937459
 21
131.878454617811
 31
0.0
  0
LINE
  5
1EE
330
E3
100
AcDbEntity
  8
0
  6
Continuous
100
AcDbLine
 10
134.8649279937459
 20
131.878454617811
 30
0.0
 11
134.8554854619163
 21
131.8729844409044
 31
0.0
  0
LINE
  5
1EF
330
E3
100
AcDbEntity
  8
0
  6
Continuous
100
AcDbLine
 10
134.8554854619163
 20
131.8729844409044
 30
0.0
 11
134.8497928433983
 21
131.8675132934127
 31
0.0
  0
LINE
  5
1F0
330
E3
100
AcDbEntity
  8
0
  6
Continuous
100
AcDbLine
 10
134.8497928433983
 20
131.8675132934127
 30
0.0
 11
134.8478901924441
 21
131.8620419129414
 31
0.0
  0
LINE
  5
1F1
330
E3
100
AcDbEntity
  8
0
  6
Continuous
100
AcDbLine
 10
135.847890192444
 20
131.6650722159717
 30
0.0
 11
135.8459875414899
 21
131.6596008355003
 31
0.0
  0
LINE
  5
1F2
330
E3
100
AcDbEntity
  8
0
  6
Continuous
100
AcDbLine
 10
135.8459875414899
 20
131.6596008355003
 30
0.0
 11
135.8402940689503
 21
131.6541294550289
 31
0.0
  0
LINE
  5
1F3
330
E3
100
AcDbEntity
  8
0
  6
Continuous
100
AcDbLine
 10
135.8402940689503
 20
131.6541294550289
 30
0.0
 11
135.8308534399215
 21
131.648659543295
 31
0.0
  0
LINE
  5
1F4
330
E3
100
AcDbEntity
  8
0
  6
Continuous
100
AcDbLine
 10
135.8308534399215
 20
131.648659543295
 30
0.0
 11
135.8177363308993
 21
131.643186388611
 31
0.0
  0
LINE
  5
1F5
330
E3
100
AcDbEntity
  8
0
  6
Continuous
100
AcDbLine
 10
135.8177363308993
 20
131.643186388611
 30
0.0
 11
135.8010429113355
 21
131.6377162117044
 31
0.0
  0
LINE
  5
1F6
330
E3
100
AcDbEntity
  8
0
  6
Continuous
100
AcDbLine
 10
135.8010429113355
 20
131.6377162117044
 30
0.0
 11
135.7809042034315
 21
131.6322430570204
 31
0.0
  0
LINE
  5
1F7
330
E3
100
AcDbEntity
  8
0
  6
Continuous
100
AcDbLine
 10
135.7809042034315
 20
131.6322430570204
 30
0.0
 11
135.7574661182751
 21
131.6267728801138
 31
0.0
  0
LINE
  5
1F8
330
E3
100
AcDbEntity
  8
0
  6
Continuous
100
AcDbLine
 10
135.7574661182751
 20
131.6267728801138
 30
0.0
 11
135.7309132780593
 21
131.6212997254299
 31
0.0
  0
LINE
  5
1F9
330
E3
100
AcDbEntity
  8
0
  6
Continuous
100
AcDbLine
 10
135.7309132780593
 20
131.6212997254299
 30
0.0
 11
135.7014422160859
 21
131.6158295485232
 31
0.0
  0
LINE
  5
1FA
330
E3
100
AcDbEntity
  8
0
  6
Continuous
100
AcDbLine
 10
135.7014422160859
 20
131.6158295485232
 30
0.0
 11
135.6692851989847
 21
131.6103593716165
 31
0.0
  0
LINE
  5
1FB
330
E3
100
AcDbEntity
  8
0
  6
Continuous
100
AcDbLine
 10
135.6692851989847
 20
131.6103593716165
 30
0.0
 11
135.6346774711627
 21
131.6048862169326
 31
0.0
  0
LINE
  5
1FC
330
E3
100
AcDbEntity
  8
0
  6
Continuous
100
AcDbLine
 10
135.6346774711627
 20
131.6048862169326
 30
0.0
 11
135.5978900103544
 21
131.5994160400259
 31
0.0
  0
LINE
  5
1FD
330
E3
100
AcDbEntity
  8
0
  6
Continuous
100
AcDbLine
 10
135.5978900103544
 20
131.5994160400259
 30
0.0
 11
135.5591997498492
 21
131.593942885342
 31
0.0
  0
LINE
  5
1FE
330
E3
100
AcDbEntity
  8
0
  6
Continuous
100
AcDbLine
 10
135.5591997498492
 20
131.593942885342
 30
0.0
 11
135.5189014896001
 21
131.5884727084353
 31
0.0
  0
LINE
  5
1FF
330
E3
100
AcDbEntity
  8
0
  6
Continuous
100
AcDbLine
 10
135.5189014896001
 20
131.5884727084353
 30
0.0
 11
135.477298962892
 21
131.5830025315287
 31
0.0
  0
LINE
  5
200
330
E3
100
AcDbEntity
  8
0
  6
Continuous
100
AcDbLine
 10
135.477298962892
 20
131.5830025315287
 30
0.0
 11
135.4347137696737
 21
131.5775293768448
 31
0.0
  0
LINE
  5
201
330
E3
100
AcDbEntity
  8
0
  6
Continuous
100
AcDbLine
 10
135.4347137696737
 20
131.5775293768448
 30
0.0
 11
135.3914675098941
 21
131.5720591999381
 31
0.0
  0
LINE
  5
202
330
E3
100
AcDbEntity
  8
0
  6
Continuous
100
AcDbLine
 10
135.3914675098941
 20
131.5720591999381
 30
0.0
 11
135.3478907168337
 21
131.5665860452542
 31
0.0
  0
LINE
  5
203
330
E3
100
AcDbEntity
  8
0
  6
Continuous
100
AcDbLine
 10
135.3478907168337
 20
131.5665860452542
 30
0.0
 11
135.304310945996
 21
131.5611158683475
 31
0.0
  0
LINE
  5
204
330
E3
100
AcDbEntity
  8
0
  6
Continuous
100
AcDbLine
 10
135.304310945996
 20
131.5611158683475
 30
0.0
 11
135.2610646862164
 21
131.5556456914408
 31
0.0
  0
LINE
  5
205
330
E3
100
AcDbEntity
  8
0
  6
Continuous
100
AcDbLine
 10
135.2610646862164
 20
131.5556456914408
 30
0.0
 11
135.2184794929981
 21
131.5501725367569
 31
0.0
  0
LINE
  5
206
330
E3
100
AcDbEntity
  8
0
  6
Continuous
100
AcDbLine
 10
135.2184794929981
 20
131.5501725367569
 30
0.0
 11
135.1768799440673
 21
131.5447023598502
 31
0.0
  0
LINE
  5
207
330
E3
100
AcDbEntity
  8
0
  6
Continuous
100
AcDbLine
 10
135.1768799440673
 20
131.5447023598502
 30
0.0
 11
135.1365816838182
 21
131.5392292051663
 31
0.0
  0
LINE
  5
208
330
E3
100
AcDbEntity
  8
0
  6
Continuous
100
AcDbLine
 10
135.1365816838182
 20
131.5392292051663
 30
0.0
 11
135.097891423313
 21
131.5337590282597
 31
0.0
  0
LINE
  5
209
330
E3
100
AcDbEntity
  8
0
  6
Continuous
100
AcDbLine
 10
135.097891423313
 20
131.5337590282597
 30
0.0
 11
135.0611009847274
 21
131.528288851353
 31
0.0
  0
LINE
  5
20A
330
E3
100
AcDbEntity
  8
0
  6
Continuous
100
AcDbLine
 10
135.0611009847274
 20
131.528288851353
 30
0.0
 11
135.0264962346827
 21
131.5228156966691
 31
0.0
  0
LINE
  5
20B
330
E3
100
AcDbEntity
  8
0
  6
Continuous
100
AcDbLine
 10
135.0264962346827
 20
131.5228156966691
 30
0.0
 11
134.9943362398042
 21
131.5173455197624
 31
0.0
  0
LINE
  5
20C
330
E3
100
AcDbEntity
  8
0
  6
Continuous
100
AcDbLine
 10
134.9943362398042
 20
131.5173455197624
 30
0.0
 11
134.9648681556081
 21
131.5118723650784
 31
0.0
  0
LINE
  5
20D
330
E3
100
AcDbEntity
  8
0
  6
Continuous
100
AcDbLine
 10
134.9648681556081
 20
131.5118723650784
 30
0.0
 11
134.9383153153922
 21
131.5064021881718
 31
0.0
  0
LINE
  5
20E
330
E3
100
AcDbEntity
  8
0
  6
Continuous
100
AcDbLine
 10
134.9383153153922
 20
131.5064021881718
 30
0.0
 11
134.9148772302359
 21
131.5009320112652
 31
0.0
  0
LINE
  5
20F
330
E3
100
AcDbEntity
  8
0
  6
Continuous
100
AcDbLine
 10
134.9148772302359
 20
131.5009320112652
 30
0.0
 11
134.8947355445546
 21
131.4954588565812
 31
0.0
  0
LINE
  5
210
330
E3
100
AcDbEntity
  8
0
  6
Continuous
100
AcDbLine
 10
134.8947355445546
 20
131.4954588565812
 30
0.0
 11
134.8780451027681
 21
131.4899886796746
 31
0.0
  0
LINE
  5
211
330
E3
100
AcDbEntity
  8
0
  6
Continuous
100
AcDbLine
 10
134.8780451027681
 20
131.4899886796746
 30
0.0
 11
134.8649279937459
 21
131.4845155249906
 31
0.0
  0
LINE
  5
212
330
E3
100
AcDbEntity
  8
0
  6
Continuous
100
AcDbLine
 10
134.8649279937459
 20
131.4845155249906
 30
0.0
 11
134.8554854619163
 21
131.479045348084
 31
0.0
  0
LINE
  5
213
330
E3
100
AcDbEntity
  8
0
  6
Continuous
100
AcDbLine
 10
134.8554854619163
 20
131.479045348084
 30
0.0
 11
134.8497928433983
 21
131.4735738994733
 31
0.0
  0
LINE
  5
214
330
E3
100
AcDbEntity
  8
0
  6
Continuous
100
AcDbLine
 10
134.8497928433983
 20
131.4735738994733
 30
0.0
 11
134.8478901924441
 21
131.468102519002
 31
0.0
  0
LINE
  5
215
330
E3
100
AcDbEntity
  8
0
  6
Continuous
100
AcDbLine
 10
135.847890192444
 20
131.2711328220323
 30
0.0
 11
135.8459875414899
 21
131.2656614415609
 31
0.0
  0
LINE
  5
216
330
E3
100
AcDbEntity
  8
0
  6
Continuous
100
AcDbLine
 10
135.8459875414899
 20
131.2656614415609
 30
0.0
 11
135.8402940689503
 21
131.2601900610895
 31
0.0
  0
LINE
  5
217
330
E3
100
AcDbEntity
  8
0
  6
Continuous
100
AcDbLine
 10
135.8402940689503
 20
131.2601900610895
 30
0.0
 11
135.8308534399215
 21
131.2547174726972
 31
0.0
  0
LINE
  5
218
330
E3
100
AcDbEntity
  8
0
  6
Continuous
100
AcDbLine
 10
135.8308534399215
 20
131.2547174726972
 30
0.0
 11
135.8177363308993
 21
131.2492472957906
 31
0.0
  0
LINE
  5
219
330
E3
100
AcDbEntity
  8
0
  6
Continuous
100
AcDbLine
 10
135.8177363308993
 20
131.2492472957906
 30
0.0
 11
135.8010429113355
 21
131.2437771188839
 31
0.0
  0
LINE
  5
21A
330
E3
100
AcDbEntity
  8
0
  6
Continuous
100
AcDbLine
 10
135.8010429113355
 20
131.2437771188839
 30
0.0
 11
135.7809042034315
 21
131.2383039642
 31
0.0
  0
LINE
  5
21B
330
E3
100
AcDbEntity
  8
0
  6
Continuous
100
AcDbLine
 10
135.7809042034315
 20
131.2383039642
 30
0.0
 11
135.7574661182751
 21
131.2328337872933
 31
0.0
  0
LINE
  5
21C
330
E3
100
AcDbEntity
  8
0
  6
Continuous
100
AcDbLine
 10
135.7574661182751
 20
131.2328337872933
 30
0.0
 11
135.7309132780593
 21
131.2273606326094
 31
0.0
  0
LINE
  5
21D
330
E3
100
AcDbEntity
  8
0
  6
Continuous
100
AcDbLine
 10
135.7309132780593
 20
131.2273606326094
 30
0.0
 11
135.7014422160859
 21
131.2218904557027
 31
0.0
  0
LINE
  5
21E
330
E3
100
AcDbEntity
  8
0
  6
Continuous
100
AcDbLine
 10
135.7014422160859
 20
131.2218904557027
 30
0.0
 11
135.6692851989847
 21
131.2164202787961
 31
0.0
  0
LINE
  5
21F
330
E3
100
AcDbEntity
  8
0
  6
Continuous
100
AcDbLine
 10
135.6692851989847
 20
131.2164202787961
 30
0.0
 11
135.6346774711627
 21
131.2109471241121
 31
0.0
  0
LINE
  5
220
330
E3
100
AcDbEntity
  8
0
  6
Continuous
100
AcDbLine
 10
135.6346774711627
 20
131.2109471241121
 30
0.0
 11
135.5978900103544
 21
131.2054769472055
 31
0.0
  0
LINE
  5
221
330
E3
100
AcDbEntity
  8
0
  6
Continuous
100
AcDbLine
 10
135.5978900103544
 20
131.2054769472055
 30
0.0
 11
135.5591997498492
 21
131.2000037925215
 31
0.0
  0
LINE
  5
222
330
E3
100
AcDbEntity
  8
0
  6
Continuous
100
AcDbLine
 10
135.5591997498492
 20
131.2000037925215
 30
0.0
 11
135.5189014896001
 21
131.1945336156149
 31
0.0
  0
LINE
  5
223
330
E3
100
AcDbEntity
  8
0
  6
Continuous
100
AcDbLine
 10
135.5189014896001
 20
131.1945336156149
 30
0.0
 11
135.477298962892
 21
131.1890634387082
 31
0.0
  0
LINE
  5
224
330
E3
100
AcDbEntity
  8
0
  6
Continuous
100
AcDbLine
 10
135.477298962892
 20
131.1890634387082
 30
0.0
 11
135.4347137696737
 21
131.1835902840243
 31
0.0
  0
LINE
  5
225
330
E3
100
AcDbEntity
  8
0
  6
Continuous
100
AcDbLine
 10
135.4347137696737
 20
131.1835902840243
 30
0.0
 11
135.3914675098941
 21
131.1781201071176
 31
0.0
  0
LINE
  5
226
330
E3
100
AcDbEntity
  8
0
  6
Continuous
100
AcDbLine
 10
135.3914675098941
 20
131.1781201071176
 30
0.0
 11
135.3478907168337
 21
131.1726469524337
 31
0.0
  0
LINE
  5
227
330
E3
100
AcDbEntity
  8
0
  6
Continuous
100
AcDbLine
 10
135.3478907168337
 20
131.1726469524337
 30
0.0
 11
135.304310945996
 21
131.1671767755271
 31
0.0
  0
LINE
  5
228
330
E3
100
AcDbEntity
  8
0
  6
Continuous
100
AcDbLine
 10
135.304310945996
 20
131.1671767755271
 30
0.0
 11
135.2610646862164
 21
131.1617065986204
 31
0.0
  0
LINE
  5
229
330
E3
100
AcDbEntity
  8
0
  6
Continuous
100
AcDbLine
 10
135.2610646862164
 20
131.1617065986204
 30
0.0
 11
135.2184794929981
 21
131.1562334439365
 31
0.0
  0
LINE
  5
22A
330
E3
100
AcDbEntity
  8
0
  6
Continuous
100
AcDbLine
 10
135.2184794929981
 20
131.1562334439365
 30
0.0
 11
135.1768799440673
 21
131.1507632670298
 31
0.0
  0
LINE
  5
22B
330
E3
100
AcDbEntity
  8
0
  6
Continuous
100
AcDbLine
 10
135.1768799440673
 20
131.1507632670298
 30
0.0
 11
135.1365816838182
 21
131.1452901123459
 31
0.0
  0
LINE
  5
22C
330
E3
100
AcDbEntity
  8
0
  6
Continuous
100
AcDbLine
 10
135.1365816838182
 20
131.1452901123459
 30
0.0
 11
135.097891423313
 21
131.1398199354392
 31
0.0
  0
LINE
  5
22D
330
E3
100
AcDbEntity
  8
0
  6
Continuous
100
AcDbLine
 10
135.097891423313
 20
131.1398199354392
 30
0.0
 11
135.0611009847274
 21
131.1343497585326
 31
0.0
  0
LINE
  5
22E
330
E3
100
AcDbEntity
  8
0
  6
Continuous
100
AcDbLine
 10
135.0611009847274
 20
131.1343497585326
 30
0.0
 11
135.0264962346827
 21
131.1288766038486
 31
0.0
  0
LINE
  5
22F
330
E3
100
AcDbEntity
  8
0
  6
Continuous
100
AcDbLine
 10
135.0264962346827
 20
131.1288766038486
 30
0.0
 11
134.9943362398042
 21
131.123406426942
 31
0.0
  0
LINE
  5
230
330
E3
100
AcDbEntity
  8
0
  6
Continuous
100
AcDbLine
 10
134.9943362398042
 20
131.123406426942
 30
0.0
 11
134.9648681556081
 21
131.117933272258
 31
0.0
  0
LINE
  5
231
330
E3
100
AcDbEntity
  8
0
  6
Continuous
100
AcDbLine
 10
134.9648681556081
 20
131.117933272258
 30
0.0
 11
134.9383153153922
 21
131.1124630953514
 31
0.0
  0
LINE
  5
232
330
E3
100
AcDbEntity
  8
0
  6
Continuous
100
AcDbLine
 10
134.9383153153922
 20
131.1124630953514
 30
0.0
 11
134.9148772302359
 21
131.1069899406674
 31
0.0
  0
LINE
  5
233
330
E3
100
AcDbEntity
  8
0
  6
Continuous
100
AcDbLine
 10
134.9148772302359
 20
131.1069899406674
 30
0.0
 11
134.8947355445546
 21
131.1015197637608
 31
0.0
  0
LINE
  5
234
330
E3
100
AcDbEntity
  8
0
  6
Continuous
100
AcDbLine
 10
134.8947355445546
 20
131.1015197637608
 30
0.0
 11
134.8780451027681
 21
131.0960495868541
 31
0.0
  0
LINE
  5
235
330
E3
100
AcDbEntity
  8
0
  6
Continuous
100
AcDbLine
 10
134.8780451027681
 20
131.0960495868541
 30
0.0
 11
134.8649279937459
 21
131.0905764321701
 31
0.0
  0
LINE
  5
236
330
E3
100
AcDbEntity
  8
0
  6
Continuous
100
AcDbLine
 10
134.8649279937459
 20
131.0905764321701
 30
0.0
 11
134.8554854619163
 21
131.0851062552635
 31
0.0
  0
LINE
  5
237
330
E3
100
AcDbEntity
  8
0
  6
Continuous
100
AcDbLine
 10
134.8554854619163
 20
131.0851062552635
 30
0.0
 11
134.8497928433983
 21
131.079634505534
 31
0.0
  0
LINE
  5
238
330
E3
100
AcDbEntity
  8
0
  6
Continuous
100
AcDbLine
 10
134.8497928433983
 20
131.079634505534
 30
0.0
 11
134.8478901924441
 21
131.0741631250626
 31
0.0
  0
LINE
  5
239
330
E3
100
AcDbEntity
  8
0
  6
Continuous
100
AcDbLine
 10
135.847890192444
 20
130.8771934280929
 30
0.0
 11
135.8459875414899
 21
130.8717220476215
 31
0.0
  0
LINE
  5
23A
330
E3
100
AcDbEntity
  8
0
  6
Continuous
100
AcDbLine
 10
135.8459875414899
 20
130.8717220476215
 30
0.0
 11
135.8402940689503
 21
130.8662506671501
 31
0.0
  0
LINE
  5
23B
330
E3
100
AcDbEntity
  8
0
  6
Continuous
100
AcDbLine
 10
135.8402940689503
 20
130.8662506671501
 30
0.0
 11
135.8308534399215
 21
130.8607783798768
 31
0.0
  0
LINE
  5
23C
330
E3
100
AcDbEntity
  8
0
  6
Continuous
100
AcDbLine
 10
135.8308534399215
 20
130.8607783798768
 30
0.0
 11
135.8177363308993
 21
130.8553082029701
 31
0.0
  0
LINE
  5
23D
330
E3
100
AcDbEntity
  8
0
  6
Continuous
100
AcDbLine
 10
135.8177363308993
 20
130.8553082029701
 30
0.0
 11
135.8010429113355
 21
130.8498350482862
 31
0.0
  0
LINE
  5
23E
330
E3
100
AcDbEntity
  8
0
  6
Continuous
100
AcDbLine
 10
135.8010429113355
 20
130.8498350482862
 30
0.0
 11
135.7809042034315
 21
130.8443648713796
 31
0.0
  0
LINE
  5
23F
330
E3
100
AcDbEntity
  8
0
  6
Continuous
100
AcDbLine
 10
135.7809042034315
 20
130.8443648713796
 30
0.0
 11
135.7574661182751
 21
130.8388946944729
 31
0.0
  0
LINE
  5
240
330
E3
100
AcDbEntity
  8
0
  6
Continuous
100
AcDbLine
 10
135.7574661182751
 20
130.8388946944729
 30
0.0
 11
135.7309132780593
 21
130.8334215397889
 31
0.0
  0
LINE
  5
241
330
E3
100
AcDbEntity
  8
0
  6
Continuous
100
AcDbLine
 10
135.7309132780593
 20
130.8334215397889
 30
0.0
 11
135.7014422160859
 21
130.8279513628823
 31
0.0
  0
LINE
  5
242
330
E3
100
AcDbEntity
  8
0
  6
Continuous
100
AcDbLine
 10
135.7014422160859
 20
130.8279513628823
 30
0.0
 11
135.6692851989847
 21
130.8224782081984
 31
0.0
  0
LINE
  5
243
330
E3
100
AcDbEntity
  8
0
  6
Continuous
100
AcDbLine
 10
135.6692851989847
 20
130.8224782081984
 30
0.0
 11
135.6346774711627
 21
130.8170080312917
 31
0.0
  0
LINE
  5
244
330
E3
100
AcDbEntity
  8
0
  6
Continuous
100
AcDbLine
 10
135.6346774711627
 20
130.8170080312917
 30
0.0
 11
135.5978900103544
 21
130.8115378543851
 31
0.0
  0
LINE
  5
245
330
E3
100
AcDbEntity
  8
0
  6
Continuous
100
AcDbLine
 10
135.5978900103544
 20
130.8115378543851
 30
0.0
 11
135.5591997498492
 21
130.8060646997011
 31
0.0
  0
LINE
  5
246
330
E3
100
AcDbEntity
  8
0
  6
Continuous
100
AcDbLine
 10
135.5591997498492
 20
130.8060646997011
 30
0.0
 11
135.5189014896001
 21
130.8005945227945
 31
0.0
  0
LINE
  5
247
330
E3
100
AcDbEntity
  8
0
  6
Continuous
100
AcDbLine
 10
135.5189014896001
 20
130.8005945227945
 30
0.0
 11
135.477298962892
 21
130.7951213681105
 31
0.0
  0
LINE
  5
248
330
E3
100
AcDbEntity
  8
0
  6
Continuous
100
AcDbLine
 10
135.477298962892
 20
130.7951213681105
 30
0.0
 11
135.4347137696737
 21
130.7896511912039
 31
0.0
  0
LINE
  5
249
330
E3
100
AcDbEntity
  8
0
  6
Continuous
100
AcDbLine
 10
135.4347137696737
 20
130.7896511912039
 30
0.0
 11
135.3914675098941
 21
130.7841810142972
 31
0.0
  0
LINE
  5
24A
330
E3
100
AcDbEntity
  8
0
  6
Continuous
100
AcDbLine
 10
135.3914675098941
 20
130.7841810142972
 30
0.0
 11
135.3478907168337
 21
130.7787078596133
 31
0.0
  0
LINE
  5
24B
330
E3
100
AcDbEntity
  8
0
  6
Continuous
100
AcDbLine
 10
135.3478907168337
 20
130.7787078596133
 30
0.0
 11
135.304310945996
 21
130.7732376827066
 31
0.0
  0
LINE
  5
24C
330
E3
100
AcDbEntity
  8
0
  6
Continuous
100
AcDbLine
 10
135.304310945996
 20
130.7732376827066
 30
0.0
 11
135.2610646862164
 21
130.7677645280227
 31
0.0
  0
LINE
  5
24D
330
E3
100
AcDbEntity
  8
0
  6
Continuous
100
AcDbLine
 10
135.2610646862164
 20
130.7677645280227
 30
0.0
 11
135.2184794929981
 21
130.762294351116
 31
0.0
  0
LINE
  5
24E
330
E3
100
AcDbEntity
  8
0
  6
Continuous
100
AcDbLine
 10
135.2184794929981
 20
130.762294351116
 30
0.0
 11
135.1768799440673
 21
130.7568241742094
 31
0.0
  0
LINE
  5
24F
330
E3
100
AcDbEntity
  8
0
  6
Continuous
100
AcDbLine
 10
135.1768799440673
 20
130.7568241742094
 30
0.0
 11
135.1365816838182
 21
130.7513510195254
 31
0.0
  0
LINE
  5
250
330
E3
100
AcDbEntity
  8
0
  6
Continuous
100
AcDbLine
 10
135.1365816838182
 20
130.7513510195254
 30
0.0
 11
135.097891423313
 21
130.7458808426188
 31
0.0
  0
LINE
  5
251
330
E3
100
AcDbEntity
  8
0
  6
Continuous
100
AcDbLine
 10
135.097891423313
 20
130.7458808426188
 30
0.0
 11
135.0611009847274
 21
130.7404076879348
 31
0.0
  0
LINE
  5
252
330
E3
100
AcDbEntity
  8
0
  6
Continuous
100
AcDbLine
 10
135.0611009847274
 20
130.7404076879348
 30
0.0
 11
135.0264962346827
 21
130.7349375110282
 31
0.0
  0
LINE
  5
253
330
E3
100
AcDbEntity
  8
0
  6
Continuous
100
AcDbLine
 10
135.0264962346827
 20
130.7349375110282
 30
0.0
 11
134.9943362398042
 21
130.7294673341215
 31
0.0
  0
LINE
  5
254
330
E3
100
AcDbEntity
  8
0
  6
Continuous
100
AcDbLine
 10
134.9943362398042
 20
130.7294673341215
 30
0.0
 11
134.9648681556081
 21
130.7239941794376
 31
0.0
  0
LINE
  5
255
330
E3
100
AcDbEntity
  8
0
  6
Continuous
100
AcDbLine
 10
134.9648681556081
 20
130.7239941794376
 30
0.0
 11
134.9383153153922
 21
130.7185240025309
 31
0.0
  0
LINE
  5
256
330
E3
100
AcDbEntity
  8
0
  6
Continuous
100
AcDbLine
 10
134.9383153153922
 20
130.7185240025309
 30
0.0
 11
134.9148772302359
 21
130.713050847847
 31
0.0
  0
LINE
  5
257
330
E3
100
AcDbEntity
  8
0
  6
Continuous
100
AcDbLine
 10
134.9148772302359
 20
130.713050847847
 30
0.0
 11
134.8947355445546
 21
130.7075806709403
 31
0.0
  0
LINE
  5
258
330
E3
100
AcDbEntity
  8
0
  6
Continuous
100
AcDbLine
 10
134.8947355445546
 20
130.7075806709403
 30
0.0
 11
134.8780451027681
 21
130.7021104940337
 31
0.0
  0
LINE
  5
259
330
E3
100
AcDbEntity
  8
0
  6
Continuous
100
AcDbLine
 10
134.8780451027681
 20
130.7021104940337
 30
0.0
 11
134.8649279937459
 21
130.6966373393497
 31
0.0
  0
LINE
  5
25A
330
E3
100
AcDbEntity
  8
0
  6
Continuous
100
AcDbLine
 10
134.8649279937459
 20
130.6966373393497
 30
0.0
 11
134.8554854619163
 21
130.6911671624431
 31
0.0
  0
LINE
  5
25B
330
E3
100
AcDbEntity
  8
0
  6
Continuous
100
AcDbLine
 10
134.8554854619163
 20
130.6911671624431
 30
0.0
 11
134.8497928433983
 21
130.6856951115946
 31
0.0
  0
LINE
  5
25C
330
E3
100
AcDbEntity
  8
0
  6
Continuous
100
AcDbLine
 10
134.8497928433983
 20
130.6856951115946
 30
0.0
 11
134.8478901924441
 21
130.6802237311232
 31
0.0
  0
LINE
  5
25D
330
E3
100
AcDbEntity
  8
0
  6
Continuous
100
AcDbLine
 10
135.847890192444
 20
130.4832540341535
 30
0.0
 11
135.8459875414899
 21
130.4777826536821
 31
0.0
  0
LINE
  5
25E
330
E3
100
AcDbEntity
  8
0
  6
Continuous
100
AcDbLine
 10
135.8459875414899
 20
130.4777826536821
 30
0.0
 11
135.8402940689503
 21
130.4723112732107
 31
0.0
  0
LINE
  5
25F
330
E3
100
AcDbEntity
  8
0
  6
Continuous
100
AcDbLine
 10
135.8402940689503
 20
130.4723112732107
 30
0.0
 11
135.8308534399215
 21
130.4668392870564
 31
0.0
  0
LINE
  5
260
330
E3
100
AcDbEntity
  8
0
  6
Continuous
100
AcDbLine
 10
135.8308534399215
 20
130.4668392870564
 30
0.0
 11
135.8177363308993
 21
130.4613691101497
 31
0.0
  0
LINE
  5
261
330
E3
100
AcDbEntity
  8
0
  6
Continuous
100
AcDbLine
 10
135.8177363308993
 20
130.4613691101497
 30
0.0
 11
135.8010429113355
 21
130.4558959554658
 31
0.0
  0
LINE
  5
262
330
E3
100
AcDbEntity
  8
0
  6
Continuous
100
AcDbLine
 10
135.8010429113355
 20
130.4558959554658
 30
0.0
 11
135.7809042034315
 21
130.4504257785592
 31
0.0
  0
LINE
  5
263
330
E3
100
AcDbEntity
  8
0
  6
Continuous
100
AcDbLine
 10
135.7809042034315
 20
130.4504257785592
 30
0.0
 11
135.7574661182751
 21
130.4449556016525
 31
0.0
  0
LINE
  5
264
330
E3
100
AcDbEntity
  8
0
  6
Continuous
100
AcDbLine
 10
135.7574661182751
 20
130.4449556016525
 30
0.0
 11
135.7309132780593
 21
130.4394824469685
 31
0.0
  0
LINE
  5
265
330
E3
100
AcDbEntity
  8
0
  6
Continuous
100
AcDbLine
 10
135.7309132780593
 20
130.4394824469685
 30
0.0
 11
135.7014422160859
 21
130.4340122700619
 31
0.0
  0
LINE
  5
266
330
E3
100
AcDbEntity
  8
0
  6
Continuous
100
AcDbLine
 10
135.7014422160859
 20
130.4340122700619
 30
0.0
 11
135.6692851989847
 21
130.4285391153779
 31
0.0
  0
LINE
  5
267
330
E3
100
AcDbEntity
  8
0
  6
Continuous
100
AcDbLine
 10
135.6692851989847
 20
130.4285391153779
 30
0.0
 11
135.6346774711627
 21
130.4230689384713
 31
0.0
  0
LINE
  5
268
330
E3
100
AcDbEntity
  8
0
  6
Continuous
100
AcDbLine
 10
135.6346774711627
 20
130.4230689384713
 30
0.0
 11
135.5978900103544
 21
130.4175987615646
 31
0.0
  0
LINE
  5
269
330
E3
100
AcDbEntity
  8
0
  6
Continuous
100
AcDbLine
 10
135.5978900103544
 20
130.4175987615646
 30
0.0
 11
135.5591997498492
 21
130.4121256068807
 31
0.0
  0
LINE
  5
26A
330
E3
100
AcDbEntity
  8
0
  6
Continuous
100
AcDbLine
 10
135.5591997498492
 20
130.4121256068807
 30
0.0
 11
135.5189014896001
 21
130.4066554299741
 31
0.0
  0
LINE
  5
26B
330
E3
100
AcDbEntity
  8
0
  6
Continuous
100
AcDbLine
 10
135.5189014896001
 20
130.4066554299741
 30
0.0
 11
135.477298962892
 21
130.4011822752901
 31
0.0
  0
LINE
  5
26C
330
E3
100
AcDbEntity
  8
0
  6
Continuous
100
AcDbLine
 10
135.477298962892
 20
130.4011822752901
 30
0.0
 11
135.4347137696737
 21
130.3957120983834
 31
0.0
  0
LINE
  5
26D
330
E3
100
AcDbEntity
  8
0
  6
Continuous
100
AcDbLine
 10
135.4347137696737
 20
130.3957120983834
 30
0.0
 11
135.3914675098941
 21
130.3902419214768
 31
0.0
  0
LINE
  5
26E
330
E3
100
AcDbEntity
  8
0
  6
Continuous
100
AcDbLine
 10
135.3914675098941
 20
130.3902419214768
 30
0.0
 11
135.3478907168337
 21
130.3847687667928
 31
0.0
  0
LINE
  5
26F
330
E3
100
AcDbEntity
  8
0
  6
Continuous
100
AcDbLine
 10
135.3478907168337
 20
130.3847687667928
 30
0.0
 11
135.304310945996
 21
130.3792985898862
 31
0.0
  0
LINE
  5
270
330
E3
100
AcDbEntity
  8
0
  6
Continuous
100
AcDbLine
 10
135.304310945996
 20
130.3792985898862
 30
0.0
 11
135.2610646862164
 21
130.3738254352022
 31
0.0
  0
LINE
  5
271
330
E3
100
AcDbEntity
  8
0
  6
Continuous
100
AcDbLine
 10
135.2610646862164
 20
130.3738254352022
 30
0.0
 11
135.2184794929981
 21
130.3683552582956
 31
0.0
  0
LINE
  5
272
330
E3
100
AcDbEntity
  8
0
  6
Continuous
100
AcDbLine
 10
135.2184794929981
 20
130.3683552582956
 30
0.0
 11
135.1768799440673
 21
130.3628850813889
 31
0.0
  0
LINE
  5
273
330
E3
100
AcDbEntity
  8
0
  6
Continuous
100
AcDbLine
 10
135.1768799440673
 20
130.3628850813889
 30
0.0
 11
135.1365816838182
 21
130.357411926705
 31
0.0
  0
LINE
  5
274
330
E3
100
AcDbEntity
  8
0
  6
Continuous
100
AcDbLine
 10
135.1365816838182
 20
130.357411926705
 30
0.0
 11
135.097891423313
 21
130.3519417497984
 31
0.0
  0
LINE
  5
275
330
E3
100
AcDbEntity
  8
0
  6
Continuous
100
AcDbLine
 10
135.097891423313
 20
130.3519417497984
 30
0.0
 11
135.0611009847274
 21
130.3464685951144
 31
0.0
  0
LINE
  5
276
330
E3
100
AcDbEntity
  8
0
  6
Continuous
100
AcDbLine
 10
135.0611009847274
 20
130.3464685951144
 30
0.0
 11
135.0264962346827
 21
130.3409984182077
 31
0.0
  0
LINE
  5
277
330
E3
100
AcDbEntity
  8
0
  6
Continuous
100
AcDbLine
 10
135.0264962346827
 20
130.3409984182077
 30
0.0
 11
134.9943362398042
 21
130.3355282413011
 31
0.0
  0
LINE
  5
278
330
E3
100
AcDbEntity
  8
0
  6
Continuous
100
AcDbLine
 10
134.9943362398042
 20
130.3355282413011
 30
0.0
 11
134.9648681556081
 21
130.3300550866172
 31
0.0
  0
LINE
  5
279
330
E3
100
AcDbEntity
  8
0
  6
Continuous
100
AcDbLine
 10
134.9648681556081
 20
130.3300550866172
 30
0.0
 11
134.9383153153922
 21
130.3245849097105
 31
0.0
  0
LINE
  5
27A
330
E3
100
AcDbEntity
  8
0
  6
Continuous
100
AcDbLine
 10
134.9383153153922
 20
130.3245849097105
 30
0.0
 11
134.9148772302359
 21
130.3191117550265
 31
0.0
  0
LINE
  5
27B
330
E3
100
AcDbEntity
  8
0
  6
Continuous
100
AcDbLine
 10
134.9148772302359
 20
130.3191117550265
 30
0.0
 11
134.8947355445546
 21
130.3136415781199
 31
0.0
  0
LINE
  5
27C
330
E3
100
AcDbEntity
  8
0
  6
Continuous
100
AcDbLine
 10
134.8947355445546
 20
130.3136415781199
 30
0.0
 11
134.8780451027681
 21
130.3081684234359
 31
0.0
  0
LINE
  5
27D
330
E3
100
AcDbEntity
  8
0
  6
Continuous
100
AcDbLine
 10
134.8780451027681
 20
130.3081684234359
 30
0.0
 11
134.8649279937459
 21
130.3026982465293
 31
0.0
  0
LINE
  5
27E
330
E3
100
AcDbEntity
  8
0
  6
Continuous
100
AcDbLine
 10
134.8649279937459
 20
130.3026982465293
 30
0.0
 11
134.8554854619163
 21
130.2972280696226
 31
0.0
  0
LINE
  5
27F
330
E3
100
AcDbEntity
  8
0
  6
Continuous
100
AcDbLine
 10
134.8554854619163
 20
130.2972280696226
 30
0.0
 11
134.8497928433983
 21
130.2917557176552
 31
0.0
  0
LINE
  5
280
330
E3
100
AcDbEntity
  8
0
  6
Continuous
100
AcDbLine
 10
134.8497928433983
 20
130.2917557176552
 30
0.0
 11
134.8478901924441
 21
130.2862843371838
 31
0.0
  0
LINE
  5
281
330
E3
100
AcDbEntity
  8
0
  6
Continuous
100
AcDbLine
 10
135.847890192444
 20
130.0893146402141
 30
0.0
 11
135.8459875414899
 21
130.0838432597427
 31
0.0
  0
LINE
  5
282
330
E3
100
AcDbEntity
  8
0
  6
Continuous
100
AcDbLine
 10
135.8459875414899
 20
130.0838432597427
 30
0.0
 11
135.8402940689503
 21
130.0783718792713
 31
0.0
  0
LINE
  5
283
330
E3
100
AcDbEntity
  8
0
  6
Continuous
100
AcDbLine
 10
135.8402940689503
 20
130.0783718792713
 30
0.0
 11
135.8308534399215
 21
130.0729001942359
 31
0.0
  0
LINE
  5
284
330
E3
100
AcDbEntity
  8
0
  6
Continuous
100
AcDbLine
 10
135.8308534399215
 20
130.0729001942359
 30
0.0
 11
135.8177363308993
 21
130.0674300173293
 31
0.0
  0
LINE
  5
285
330
E3
100
AcDbEntity
  8
0
  6
Continuous
100
AcDbLine
 10
135.8177363308993
 20
130.0674300173293
 30
0.0
 11
135.8010429113355
 21
130.0619568626453
 31
0.0
  0
LINE
  5
286
330
E3
100
AcDbEntity
  8
0
  6
Continuous
100
AcDbLine
 10
135.8010429113355
 20
130.0619568626453
 30
0.0
 11
135.7809042034315
 21
130.0564866857387
 31
0.0
  0
LINE
  5
287
330
E3
100
AcDbEntity
  8
0
  6
Continuous
100
AcDbLine
 10
135.7809042034315
 20
130.0564866857387
 30
0.0
 11
135.7574661182751
 21
130.0510135310547
 31
0.0
  0
LINE
  5
288
330
E3
100
AcDbEntity
  8
0
  6
Continuous
100
AcDbLine
 10
135.7574661182751
 20
130.0510135310547
 30
0.0
 11
135.7309132780593
 21
130.0455433541481
 31
0.0
  0
LINE
  5
289
330
E3
100
AcDbEntity
  8
0
  6
Continuous
100
AcDbLine
 10
135.7309132780593
 20
130.0455433541481
 30
0.0
 11
135.7014422160859
 21
130.0400731772414
 31
0.0
  0
LINE
  5
28A
330
E3
100
AcDbEntity
  8
0
  6
Continuous
100
AcDbLine
 10
135.7014422160859
 20
130.0400731772414
 30
0.0
 11
135.6692851989847
 21
130.0346000225575
 31
0.0
  0
LINE
  5
28B
330
E3
100
AcDbEntity
  8
0
  6
Continuous
100
AcDbLine
 10
135.6692851989847
 20
130.0346000225575
 30
0.0
 11
135.6346774711627
 21
130.0291298456509
 31
0.0
  0
LINE
  5
28C
330
E3
100
AcDbEntity
  8
0
  6
Continuous
100
AcDbLine
 10
135.6346774711627
 20
130.0291298456509
 30
0.0
 11
135.5978900103544
 21
130.0236566909669
 31
0.0
  0
LINE
  5
28D
330
E3
100
AcDbEntity
  8
0
  6
Continuous
100
AcDbLine
 10
135.5978900103544
 20
130.0236566909669
 30
0.0
 11
135.5591997498492
 21
130.0181865140602
 31
0.0
  0
LINE
  5
28E
330
E3
100
AcDbEntity
  8
0
  6
Continuous
100
AcDbLine
 10
135.5591997498492
 20
130.0181865140602
 30
0.0
 11
135.5189014896001
 21
130.0127163371536
 31
0.0
  0
LINE
  5
28F
330
E3
100
AcDbEntity
  8
0
  6
Continuous
100
AcDbLine
 10
135.5189014896001
 20
130.0127163371536
 30
0.0
 11
135.477298962892
 21
130.0072431824696
 31
0.0
  0
LINE
  5
290
330
E3
100
AcDbEntity
  8
0
  6
Continuous
100
AcDbLine
 10
135.477298962892
 20
130.0072431824696
 30
0.0
 11
135.4347137696737
 21
130.001773005563
 31
0.0
  0
LINE
  5
291
330
E3
100
AcDbEntity
  8
0
  6
Continuous
100
AcDbLine
 10
135.4347137696737
 20
130.001773005563
 30
0.0
 11
135.3914675098941
 21
129.996299850879
 31
0.0
  0
LINE
  5
292
330
E3
100
AcDbEntity
  8
0
  6
Continuous
100
AcDbLine
 10
135.3914675098941
 20
129.996299850879
 30
0.0
 11
135.3478907168337
 21
129.9908296739724
 31
0.0
  0
LINE
  5
293
330
E3
100
AcDbEntity
  8
0
  6
Continuous
100
AcDbLine
 10
135.3478907168337
 20
129.9908296739724
 30
0.0
 11
135.304310945996
 21
129.9853594970658
 31
0.0
  0
LINE
  5
294
330
E3
100
AcDbEntity
  8
0
  6
Continuous
100
AcDbLine
 10
135.304310945996
 20
129.9853594970658
 30
0.0
 11
135.2610646862164
 21
129.9798863423818
 31
0.0
  0
LINE
  5
295
330
E3
100
AcDbEntity
  8
0
  6
Continuous
100
AcDbLine
 10
135.2610646862164
 20
129.9798863423818
 30
0.0
 11
135.2184794929981
 21
129.9744161654751
 31
0.0
  0
LINE
  5
296
330
E3
100
AcDbEntity
  8
0
  6
Continuous
100
AcDbLine
 10
135.2184794929981
 20
129.9744161654751
 30
0.0
 11
135.1768799440673
 21
129.9689430107912
 31
0.0
  0
LINE
  5
297
330
E3
100
AcDbEntity
  8
0
  6
Continuous
100
AcDbLine
 10
135.1768799440673
 20
129.9689430107912
 30
0.0
 11
135.1365816838182
 21
129.9634728338845
 31
0.0
  0
LINE
  5
298
330
E3
100
AcDbEntity
  8
0
  6
Continuous
100
AcDbLine
 10
135.1365816838182
 20
129.9634728338845
 30
0.0
 11
135.097891423313
 21
129.9580026569779
 31
0.0
  0
LINE
  5
299
330
E3
100
AcDbEntity
  8
0
  6
Continuous
100
AcDbLine
 10
135.097891423313
 20
129.9580026569779
 30
0.0
 11
135.0611009847274
 21
129.9525295022939
 31
0.0
  0
LINE
  5
29A
330
E3
100
AcDbEntity
  8
0
  6
Continuous
100
AcDbLine
 10
135.0611009847274
 20
129.9525295022939
 30
0.0
 11
135.0264962346827
 21
129.9470593253873
 31
0.0
  0
LINE
  5
29B
330
E3
100
AcDbEntity
  8
0
  6
Continuous
100
AcDbLine
 10
135.0264962346827
 20
129.9470593253873
 30
0.0
 11
134.9943362398042
 21
129.9415861707033
 31
0.0
  0
LINE
  5
29C
330
E3
100
AcDbEntity
  8
0
  6
Continuous
100
AcDbLine
 10
134.9943362398042
 20
129.9415861707033
 30
0.0
 11
134.9648681556081
 21
129.9361159937967
 31
0.0
  0
LINE
  5
29D
330
E3
100
AcDbEntity
  8
0
  6
Continuous
100
AcDbLine
 10
134.9648681556081
 20
129.9361159937967
 30
0.0
 11
134.9383153153922
 21
129.9306458168901
 31
0.0
  0
LINE
  5
29E
330
E3
100
AcDbEntity
  8
0
  6
Continuous
100
AcDbLine
 10
134.9383153153922
 20
129.9306458168901
 30
0.0
 11
134.9148772302359
 21
129.9251726622061
 31
0.0
  0
LINE
  5
29F
330
E3
100
AcDbEntity
  8
0
  6
Continuous
100
AcDbLine
 10
134.9148772302359
 20
129.9251726622061
 30
0.0
 11
134.8947355445546
 21
129.9197024852994
 31
0.0
  0
LINE
  5
2A0
330
E3
100
AcDbEntity
  8
0
  6
Continuous
100
AcDbLine
 10
134.8947355445546
 20
129.9197024852994
 30
0.0
 11
134.8780451027681
 21
129.9142293306155
 31
0.0
  0
LINE
  5
2A1
330
E3
100
AcDbEntity
  8
0
  6
Continuous
100
AcDbLine
 10
134.8780451027681
 20
129.9142293306155
 30
0.0
 11
134.8649279937459
 21
129.9087591537089
 31
0.0
  0
LINE
  5
2A2
330
E3
100
AcDbEntity
  8
0
  6
Continuous
100
AcDbLine
 10
134.8649279937459
 20
129.9087591537089
 30
0.0
 11
134.8554854619163
 21
129.9032889768022
 31
0.0
  0
LINE
  5
2A3
330
E3
100
AcDbEntity
  8
0
  6
Continuous
100
AcDbLine
 10
134.8554854619163
 20
129.9032889768022
 30
0.0
 11
134.8497928433983
 21
129.8978163237158
 31
0.0
  0
LINE
  5
2A4
330
E3
100
AcDbEntity
  8
0
  6
Continuous
100
AcDbLine
 10
134.8497928433983
 20
129.8978163237158
 30
0.0
 11
134.8478901924441
 21
129.8923449432444
 31
0.0
  0
LINE
  5
2A5
330
E3
100
AcDbEntity
  8
0
  6
Continuous
100
AcDbLine
 10
135.847890192444
 20
129.6953752462747
 30
0.0
 11
135.8459875414899
 21
129.6899038658033
 31
0.0
  0
LINE
  5
2A6
330
E3
100
AcDbEntity
  8
0
  6
Continuous
100
AcDbLine
 10
135.8459875414899
 20
129.6899038658033
 30
0.0
 11
135.8402940689503
 21
129.6844324853319
 31
0.0
  0
LINE
  5
2A7
330
E3
100
AcDbEntity
  8
0
  6
Continuous
100
AcDbLine
 10
135.8402940689503
 20
129.6844324853319
 30
0.0
 11
135.8308534399215
 21
129.6789611014155
 31
0.0
  0
LINE
  5
2A8
330
E3
100
AcDbEntity
  8
0
  6
Continuous
100
AcDbLine
 10
135.8308534399215
 20
129.6789611014155
 30
0.0
 11
135.8177363308993
 21
129.6734909245089
 31
0.0
  0
LINE
  5
2A9
330
E3
100
AcDbEntity
  8
0
  6
Continuous
100
AcDbLine
 10
135.8177363308993
 20
129.6734909245089
 30
0.0
 11
135.8010429113355
 21
129.6680177698249
 31
0.0
  0
LINE
  5
2AA
330
E3
100
AcDbEntity
  8
0
  6
Continuous
100
AcDbLine
 10
135.8010429113355
 20
129.6680177698249
 30
0.0
 11
135.7809042034315
 21
129.6625475929182
 31
0.0
  0
LINE
  5
2AB
330
E3
100
AcDbEntity
  8
0
  6
Continuous
100
AcDbLine
 10
135.7809042034315
 20
129.6625475929182
 30
0.0
 11
135.7574661182751
 21
129.6570744382343
 31
0.0
  0
LINE
  5
2AC
330
E3
100
AcDbEntity
  8
0
  6
Continuous
100
AcDbLine
 10
135.7574661182751
 20
129.6570744382343
 30
0.0
 11
135.7309132780593
 21
129.6516042613277
 31
0.0
  0
LINE
  5
2AD
330
E3
100
AcDbEntity
  8
0
  6
Continuous
100
AcDbLine
 10
135.7309132780593
 20
129.6516042613277
 30
0.0
 11
135.7014422160859
 21
129.646134084421
 31
0.0
  0
LINE
  5
2AE
330
E3
100
AcDbEntity
  8
0
  6
Continuous
100
AcDbLine
 10
135.7014422160859
 20
129.646134084421
 30
0.0
 11
135.6692851989847
 21
129.6406609297371
 31
0.0
  0
LINE
  5
2AF
330
E3
100
AcDbEntity
  8
0
  6
Continuous
100
AcDbLine
 10
135.6692851989847
 20
129.6406609297371
 30
0.0
 11
135.6346774711627
 21
129.6351907528304
 31
0.0
  0
LINE
  5
2B0
330
E3
100
AcDbEntity
  8
0
  6
Continuous
100
AcDbLine
 10
135.6346774711627
 20
129.6351907528304
 30
0.0
 11
135.5978900103544
 21
129.6297175981464
 31
0.0
  0
LINE
  5
2B1
330
E3
100
AcDbEntity
  8
0
  6
Continuous
100
AcDbLine
 10
135.5978900103544
 20
129.6297175981464
 30
0.0
 11
135.5591997498492
 21
129.6242474212398
 31
0.0
  0
LINE
  5
2B2
330
E3
100
AcDbEntity
  8
0
  6
Continuous
100
AcDbLine
 10
135.5591997498492
 20
129.6242474212398
 30
0.0
 11
135.5189014896001
 21
129.6187772443332
 31
0.0
  0
LINE
  5
2B3
330
E3
100
AcDbEntity
  8
0
  6
Continuous
100
AcDbLine
 10
135.5189014896001
 20
129.6187772443332
 30
0.0
 11
135.477298962892
 21
129.6133040896492
 31
0.0
  0
LINE
  5
2B4
330
E3
100
AcDbEntity
  8
0
  6
Continuous
100
AcDbLine
 10
135.477298962892
 20
129.6133040896492
 30
0.0
 11
135.4347137696737
 21
129.6078339127426
 31
0.0
  0
LINE
  5
2B5
330
E3
100
AcDbEntity
  8
0
  6
Continuous
100
AcDbLine
 10
135.4347137696737
 20
129.6078339127426
 30
0.0
 11
135.3914675098941
 21
129.6023607580586
 31
0.0
  0
LINE
  5
2B6
330
E3
100
AcDbEntity
  8
0
  6
Continuous
100
AcDbLine
 10
135.3914675098941
 20
129.6023607580586
 30
0.0
 11
135.3478907168337
 21
129.596890581152
 31
0.0
  0
LINE
  5
2B7
330
E3
100
AcDbEntity
  8
0
  6
Continuous
100
AcDbLine
 10
135.3478907168337
 20
129.596890581152
 30
0.0
 11
135.304310945996
 21
129.5914204042453
 31
0.0
  0
LINE
  5
2B8
330
E3
100
AcDbEntity
  8
0
  6
Continuous
100
AcDbLine
 10
135.304310945996
 20
129.5914204042453
 30
0.0
 11
135.2610646862164
 21
129.5859472495613
 31
0.0
  0
LINE
  5
2B9
330
E3
100
AcDbEntity
  8
0
  6
Continuous
100
AcDbLine
 10
135.2610646862164
 20
129.5859472495613
 30
0.0
 11
135.2184794929981
 21
129.5804770726547
 31
0.0
  0
LINE
  5
2BA
330
E3
100
AcDbEntity
  8
0
  6
Continuous
100
AcDbLine
 10
135.2184794929981
 20
129.5804770726547
 30
0.0
 11
135.1768799440673
 21
129.5750039179708
 31
0.0
  0
LINE
  5
2BB
330
E3
100
AcDbEntity
  8
0
  6
Continuous
100
AcDbLine
 10
135.1768799440673
 20
129.5750039179708
 30
0.0
 11
135.1365816838182
 21
129.5695337410641
 31
0.0
  0
LINE
  5
2BC
330
E3
100
AcDbEntity
  8
0
  6
Continuous
100
AcDbLine
 10
135.1365816838182
 20
129.5695337410641
 30
0.0
 11
135.097891423313
 21
129.5640635641574
 31
0.0
  0
LINE
  5
2BD
330
E3
100
AcDbEntity
  8
0
  6
Continuous
100
AcDbLine
 10
135.097891423313
 20
129.5640635641574
 30
0.0
 11
135.0611009847274
 21
129.5585904094735
 31
0.0
  0
LINE
  5
2BE
330
E3
100
AcDbEntity
  8
0
  6
Continuous
100
AcDbLine
 10
135.0611009847274
 20
129.5585904094735
 30
0.0
 11
135.0264962346827
 21
129.5531202325669
 31
0.0
  0
LINE
  5
2BF
330
E3
100
AcDbEntity
  8
0
  6
Continuous
100
AcDbLine
 10
135.0264962346827
 20
129.5531202325669
 30
0.0
 11
134.9943362398042
 21
129.5476470778829
 31
0.0
  0
LINE
  5
2C0
330
E3
100
AcDbEntity
  8
0
  6
Continuous
100
AcDbLine
 10
134.9943362398042
 20
129.5476470778829
 30
0.0
 11
134.9648681556081
 21
129.5421769009763
 31
0.0
  0
LINE
  5
2C1
330
E3
100
AcDbEntity
  8
0
  6
Continuous
100
AcDbLine
 10
134.9648681556081
 20
129.5421769009763
 30
0.0
 11
134.9383153153922
 21
129.5367037462923
 31
0.0
  0
LINE
  5
2C2
330
E3
100
AcDbEntity
  8
0
  6
Continuous
100
AcDbLine
 10
134.9383153153922
 20
129.5367037462923
 30
0.0
 11
134.9148772302359
 21
129.5312335693857
 31
0.0
  0
LINE
  5
2C3
330
E3
100
AcDbEntity
  8
0
  6
Continuous
100
AcDbLine
 10
134.9148772302359
 20
129.5312335693857
 30
0.0
 11
134.8947355445546
 21
129.525763392479
 31
0.0
  0
LINE
  5
2C4
330
E3
100
AcDbEntity
  8
0
  6
Continuous
100
AcDbLine
 10
134.8947355445546
 20
129.525763392479
 30
0.0
 11
134.8780451027681
 21
129.5202902377951
 31
0.0
  0
LINE
  5
2C5
330
E3
100
AcDbEntity
  8
0
  6
Continuous
100
AcDbLine
 10
134.8780451027681
 20
129.5202902377951
 30
0.0
 11
134.8649279937459
 21
129.5148200608884
 31
0.0
  0
LINE
  5
2C6
330
E3
100
AcDbEntity
  8
0
  6
Continuous
100
AcDbLine
 10
134.8649279937459
 20
129.5148200608884
 30
0.0
 11
134.8554854619163
 21
129.5093469062045
 31
0.0
  0
LINE
  5
2C7
330
E3
100
AcDbEntity
  8
0
  6
Continuous
100
AcDbLine
 10
134.8554854619163
 20
129.5093469062045
 30
0.0
 11
134.8497928433983
 21
129.5038769297764
 31
0.0
  0
LINE
  5
2C8
330
E3
100
AcDbEntity
  8
0
  6
Continuous
100
AcDbLine
 10
134.8497928433983
 20
129.5038769297764
 30
0.0
 11
134.8478901924441
 21
129.498405549305
 31
0.0
  0
LINE
  5
2C9
330
E3
100
AcDbEntity
  8
0
  6
Continuous
100
AcDbLine
 10
135.847890192444
 20
129.3014358523353
 30
0.0
 11
135.8459875414899
 21
129.2959644718639
 31
0.0
  0
LINE
  5
2CA
330
E3
100
AcDbEntity
  8
0
  6
Continuous
100
AcDbLine
 10
135.8459875414899
 20
129.2959644718639
 30
0.0
 11
135.8402940689503
 21
129.2904930913925
 31
0.0
  0
LINE
  5
2CB
330
E3
100
AcDbEntity
  8
0
  6
Continuous
100
AcDbLine
 10
135.8402940689503
 20
129.2904930913925
 30
0.0
 11
135.8308534399215
 21
129.285022008595
 31
0.0
  0
LINE
  5
2CC
330
E3
100
AcDbEntity
  8
0
  6
Continuous
100
AcDbLine
 10
135.8308534399215
 20
129.285022008595
 30
0.0
 11
135.8177363308993
 21
129.2795488539111
 31
0.0
  0
LINE
  5
2CD
330
E3
100
AcDbEntity
  8
0
  6
Continuous
100
AcDbLine
 10
135.8177363308993
 20
129.2795488539111
 30
0.0
 11
135.8010429113355
 21
129.2740786770045
 31
0.0
  0
LINE
  5
2CE
330
E3
100
AcDbEntity
  8
0
  6
Continuous
100
AcDbLine
 10
135.8010429113355
 20
129.2740786770045
 30
0.0
 11
135.7809042034315
 21
129.2686085000978
 31
0.0
  0
LINE
  5
2CF
330
E3
100
AcDbEntity
  8
0
  6
Continuous
100
AcDbLine
 10
135.7809042034315
 20
129.2686085000978
 30
0.0
 11
135.7574661182751
 21
129.2631353454139
 31
0.0
  0
LINE
  5
2D0
330
E3
100
AcDbEntity
  8
0
  6
Continuous
100
AcDbLine
 10
135.7574661182751
 20
129.2631353454139
 30
0.0
 11
135.7309132780593
 21
129.2576651685072
 31
0.0
  0
LINE
  5
2D1
330
E3
100
AcDbEntity
  8
0
  6
Continuous
100
AcDbLine
 10
135.7309132780593
 20
129.2576651685072
 30
0.0
 11
135.7014422160859
 21
129.2521920138233
 31
0.0
  0
LINE
  5
2D2
330
E3
100
AcDbEntity
  8
0
  6
Continuous
100
AcDbLine
 10
135.7014422160859
 20
129.2521920138233
 30
0.0
 11
135.6692851989847
 21
129.2467218369166
 31
0.0
  0
LINE
  5
2D3
330
E3
100
AcDbEntity
  8
0
  6
Continuous
100
AcDbLine
 10
135.6692851989847
 20
129.2467218369166
 30
0.0
 11
135.6346774711627
 21
129.24125166001
 31
0.0
  0
LINE
  5
2D4
330
E3
100
AcDbEntity
  8
0
  6
Continuous
100
AcDbLine
 10
135.6346774711627
 20
129.24125166001
 30
0.0
 11
135.5978900103544
 21
129.235778505326
 31
0.0
  0
LINE
  5
2D5
330
E3
100
AcDbEntity
  8
0
  6
Continuous
100
AcDbLine
 10
135.5978900103544
 20
129.235778505326
 30
0.0
 11
135.5591997498492
 21
129.2303083284194
 31
0.0
  0
LINE
  5
2D6
330
E3
100
AcDbEntity
  8
0
  6
Continuous
100
AcDbLine
 10
135.5591997498492
 20
129.2303083284194
 30
0.0
 11
135.5189014896001
 21
129.2248351737354
 31
0.0
  0
LINE
  5
2D7
330
E3
100
AcDbEntity
  8
0
  6
Continuous
100
AcDbLine
 10
135.5189014896001
 20
129.2248351737354
 30
0.0
 11
135.477298962892
 21
129.2193649968288
 31
0.0
  0
LINE
  5
2D8
330
E3
100
AcDbEntity
  8
0
  6
Continuous
100
AcDbLine
 10
135.477298962892
 20
129.2193649968288
 30
0.0
 11
135.4347137696737
 21
129.2138948199221
 31
0.0
  0
LINE
  5
2D9
330
E3
100
AcDbEntity
  8
0
  6
Continuous
100
AcDbLine
 10
135.4347137696737
 20
129.2138948199221
 30
0.0
 11
135.3914675098941
 21
129.2084216652381
 31
0.0
  0
LINE
  5
2DA
330
E3
100
AcDbEntity
  8
0
  6
Continuous
100
AcDbLine
 10
135.3914675098941
 20
129.2084216652381
 30
0.0
 11
135.3478907168337
 21
129.2029514883316
 31
0.0
  0
LINE
  5
2DB
330
E3
100
AcDbEntity
  8
0
  6
Continuous
100
AcDbLine
 10
135.3478907168337
 20
129.2029514883316
 30
0.0
 11
135.304310945996
 21
129.1974783336476
 31
0.0
  0
LINE
  5
2DC
330
E3
100
AcDbEntity
  8
0
  6
Continuous
100
AcDbLine
 10
135.304310945996
 20
129.1974783336476
 30
0.0
 11
135.2610646862164
 21
129.1920081567409
 31
0.0
  0
LINE
  5
2DD
330
E3
100
AcDbEntity
  8
0
  6
Continuous
100
AcDbLine
 10
135.2610646862164
 20
129.1920081567409
 30
0.0
 11
135.2184794929981
 21
129.1865379798343
 31
0.0
  0
LINE
  5
2DE
330
E3
100
AcDbEntity
  8
0
  6
Continuous
100
AcDbLine
 10
135.2184794929981
 20
129.1865379798343
 30
0.0
 11
135.1768799440673
 21
129.1810648251503
 31
0.0
  0
LINE
  5
2DF
330
E3
100
AcDbEntity
  8
0
  6
Continuous
100
AcDbLine
 10
135.1768799440673
 20
129.1810648251503
 30
0.0
 11
135.1365816838182
 21
129.1755946482437
 31
0.0
  0
LINE
  5
2E0
330
E3
100
AcDbEntity
  8
0
  6
Continuous
100
AcDbLine
 10
135.1365816838182
 20
129.1755946482437
 30
0.0
 11
135.097891423313
 21
129.1701214935597
 31
0.0
  0
LINE
  5
2E1
330
E3
100
AcDbEntity
  8
0
  6
Continuous
100
AcDbLine
 10
135.097891423313
 20
129.1701214935597
 30
0.0
 11
135.0611009847274
 21
129.1646513166531
 31
0.0
  0
LINE
  5
2E2
330
E3
100
AcDbEntity
  8
0
  6
Continuous
100
AcDbLine
 10
135.0611009847274
 20
129.1646513166531
 30
0.0
 11
135.0264962346827
 21
129.1591811397464
 31
0.0
  0
LINE
  5
2E3
330
E3
100
AcDbEntity
  8
0
  6
Continuous
100
AcDbLine
 10
135.0264962346827
 20
129.1591811397464
 30
0.0
 11
134.9943362398042
 21
129.1537079850625
 31
0.0
  0
LINE
  5
2E4
330
E3
100
AcDbEntity
  8
0
  6
Continuous
100
AcDbLine
 10
134.9943362398042
 20
129.1537079850625
 30
0.0
 11
134.9648681556081
 21
129.1482378081558
 31
0.0
  0
LINE
  5
2E5
330
E3
100
AcDbEntity
  8
0
  6
Continuous
100
AcDbLine
 10
134.9648681556081
 20
129.1482378081558
 30
0.0
 11
134.9383153153922
 21
129.1427646534719
 31
0.0
  0
LINE
  5
2E6
330
E3
100
AcDbEntity
  8
0
  6
Continuous
100
AcDbLine
 10
134.9383153153922
 20
129.1427646534719
 30
0.0
 11
134.9148772302359
 21
129.1372944765652
 31
0.0
  0
LINE
  5
2E7
330
E3
100
AcDbEntity
  8
0
  6
Continuous
100
AcDbLine
 10
134.9148772302359
 20
129.1372944765652
 30
0.0
 11
134.8947355445546
 21
129.1318242996586
 31
0.0
  0
LINE
  5
2E8
330
E3
100
AcDbEntity
  8
0
  6
Continuous
100
AcDbLine
 10
134.8947355445546
 20
129.1318242996586
 30
0.0
 11
134.8780451027681
 21
129.1263511449746
 31
0.0
  0
LINE
  5
2E9
330
E3
100
AcDbEntity
  8
0
  6
Continuous
100
AcDbLine
 10
134.8780451027681
 20
129.1263511449746
 30
0.0
 11
134.8649279937459
 21
129.120880968068
 31
0.0
  0
LINE
  5
2EA
330
E3
100
AcDbEntity
  8
0
  6
Continuous
100
AcDbLine
 10
134.8649279937459
 20
129.120880968068
 30
0.0
 11
134.8554854619163
 21
129.1154078133841
 31
0.0
  0
LINE
  5
2EB
330
E3
100
AcDbEntity
  8
0
  6
Continuous
100
AcDbLine
 10
134.8554854619163
 20
129.1154078133841
 30
0.0
 11
134.8497928433983
 21
129.109937535837
 31
0.0
  0
LINE
  5
2EC
330
E3
100
AcDbEntity
  8
0
  6
Continuous
100
AcDbLine
 10
134.8497928433983
 20
129.109937535837
 30
0.0
 11
134.8478901924441
 21
129.1044661553656
 31
0.0
  0
LINE
  5
2ED
330
E3
100
AcDbEntity
  8
0
  6
Continuous
100
AcDbLine
 10
135.847890192444
 20
128.9074964583959
 30
0.0
 11
135.8459875414899
 21
128.9020250779245
 31
0.0
  0
LINE
  5
2EE
330
E3
100
AcDbEntity
  8
0
  6
Continuous
100
AcDbLine
 10
135.8459875414899
 20
128.9020250779245
 30
0.0
 11
135.8402940689503
 21
128.8965536974531
 31
0.0
  0
LINE
  5
2EF
330
E3
100
AcDbEntity
  8
0
  6
Continuous
100
AcDbLine
 10
135.8402940689503
 20
128.8965536974531
 30
0.0
 11
135.8308534399215
 21
128.8910829157746
 31
0.0
  0
LINE
  5
2F0
330
E3
100
AcDbEntity
  8
0
  6
Continuous
100
AcDbLine
 10
135.8308534399215
 20
128.8910829157746
 30
0.0
 11
135.8177363308993
 21
128.8856097610907
 31
0.0
  0
LINE
  5
2F1
330
E3
100
AcDbEntity
  8
0
  6
Continuous
100
AcDbLine
 10
135.8177363308993
 20
128.8856097610907
 30
0.0
 11
135.8010429113355
 21
128.880139584184
 31
0.0
  0
LINE
  5
2F2
330
E3
100
AcDbEntity
  8
0
  6
Continuous
100
AcDbLine
 10
135.8010429113355
 20
128.880139584184
 30
0.0
 11
135.7809042034315
 21
128.8746694072774
 31
0.0
  0
LINE
  5
2F3
330
E3
100
AcDbEntity
  8
0
  6
Continuous
100
AcDbLine
 10
135.7809042034315
 20
128.8746694072774
 30
0.0
 11
135.7574661182751
 21
128.8691962525934
 31
0.0
  0
LINE
  5
2F4
330
E3
100
AcDbEntity
  8
0
  6
Continuous
100
AcDbLine
 10
135.7574661182751
 20
128.8691962525934
 30
0.0
 11
135.7309132780593
 21
128.8637260756868
 31
0.0
  0
LINE
  5
2F5
330
E3
100
AcDbEntity
  8
0
  6
Continuous
100
AcDbLine
 10
135.7309132780593
 20
128.8637260756868
 30
0.0
 11
135.7014422160859
 21
128.8582529210028
 31
0.0
  0
LINE
  5
2F6
330
E3
100
AcDbEntity
  8
0
  6
Continuous
100
AcDbLine
 10
135.7014422160859
 20
128.8582529210028
 30
0.0
 11
135.6692851989847
 21
128.8527827440962
 31
0.0
  0
LINE
  5
2F7
330
E3
100
AcDbEntity
  8
0
  6
Continuous
100
AcDbLine
 10
135.6692851989847
 20
128.8527827440962
 30
0.0
 11
135.6346774711627
 21
128.8473125671895
 31
0.0
  0
LINE
  5
2F8
330
E3
100
AcDbEntity
  8
0
  6
Continuous
100
AcDbLine
 10
135.6346774711627
 20
128.8473125671895
 30
0.0
 11
135.5978900103544
 21
128.8418394125056
 31
0.0
  0
LINE
  5
2F9
330
E3
100
AcDbEntity
  8
0
  6
Continuous
100
AcDbLine
 10
135.5978900103544
 20
128.8418394125056
 30
0.0
 11
135.5591997498492
 21
128.8363692355989
 31
0.0
  0
LINE
  5
2FA
330
E3
100
AcDbEntity
  8
0
  6
Continuous
100
AcDbLine
 10
135.5591997498492
 20
128.8363692355989
 30
0.0
 11
135.5189014896001
 21
128.830896080915
 31
0.0
  0
LINE
  5
2FB
330
E3
100
AcDbEntity
  8
0
  6
Continuous
100
AcDbLine
 10
135.5189014896001
 20
128.830896080915
 30
0.0
 11
135.477298962892
 21
128.8254259040083
 31
0.0
  0
LINE
  5
2FC
330
E3
100
AcDbEntity
  8
0
  6
Continuous
100
AcDbLine
 10
135.477298962892
 20
128.8254259040083
 30
0.0
 11
135.4347137696737
 21
128.8199557271017
 31
0.0
  0
LINE
  5
2FD
330
E3
100
AcDbEntity
  8
0
  6
Continuous
100
AcDbLine
 10
135.4347137696737
 20
128.8199557271017
 30
0.0
 11
135.3914675098941
 21
128.8144825724177
 31
0.0
  0
LINE
  5
2FE
330
E3
100
AcDbEntity
  8
0
  6
Continuous
100
AcDbLine
 10
135.3914675098941
 20
128.8144825724177
 30
0.0
 11
135.3478907168337
 21
128.8090123955111
 31
0.0
  0
LINE
  5
2FF
330
E3
100
AcDbEntity
  8
0
  6
Continuous
100
AcDbLine
 10
135.3478907168337
 20
128.8090123955111
 30
0.0
 11
135.304310945996
 21
128.8035392408271
 31
0.0
  0
LINE
  5
300
330
E3
100
AcDbEntity
  8
0
  6
Continuous
100
AcDbLine
 10
135.304310945996
 20
128.8035392408271
 30
0.0
 11
135.2610646862164
 21
128.7980690639205
 31
0.0
  0
LINE
  5
301
330
E3
100
AcDbEntity
  8
0
  6
Continuous
100
AcDbLine
 10
135.2610646862164
 20
128.7980690639205
 30
0.0
 11
135.2184794929981
 21
128.7925988870138
 31
0.0
  0
LINE
  5
302
330
E3
100
AcDbEntity
  8
0
  6
Continuous
100
AcDbLine
 10
135.2184794929981
 20
128.7925988870138
 30
0.0
 11
135.1768799440673
 21
128.7871257323299
 31
0.0
  0
LINE
  5
303
330
E3
100
AcDbEntity
  8
0
  6
Continuous
100
AcDbLine
 10
135.1768799440673
 20
128.7871257323299
 30
0.0
 11
135.1365816838182
 21
128.7816555554232
 31
0.0
  0
LINE
  5
304
330
E3
100
AcDbEntity
  8
0
  6
Continuous
100
AcDbLine
 10
135.1365816838182
 20
128.7816555554232
 30
0.0
 11
135.097891423313
 21
128.7761824007393
 31
0.0
  0
LINE
  5
305
330
E3
100
AcDbEntity
  8
0
  6
Continuous
100
AcDbLine
 10
135.097891423313
 20
128.7761824007393
 30
0.0
 11
135.0611009847274
 21
128.7707122238326
 31
0.0
  0
LINE
  5
306
330
E3
100
AcDbEntity
  8
0
  6
Continuous
100
AcDbLine
 10
135.0611009847274
 20
128.7707122238326
 30
0.0
 11
135.0264962346827
 21
128.765242046926
 31
0.0
  0
LINE
  5
307
330
E3
100
AcDbEntity
  8
0
  6
Continuous
100
AcDbLine
 10
135.0264962346827
 20
128.765242046926
 30
0.0
 11
134.9943362398042
 21
128.7597688922421
 31
0.0
  0
LINE
  5
308
330
E3
100
AcDbEntity
  8
0
  6
Continuous
100
AcDbLine
 10
134.9943362398042
 20
128.7597688922421
 30
0.0
 11
134.9648681556081
 21
128.7542987153354
 31
0.0
  0
LINE
  5
309
330
E3
100
AcDbEntity
  8
0
  6
Continuous
100
AcDbLine
 10
134.9648681556081
 20
128.7542987153354
 30
0.0
 11
134.9383153153922
 21
128.7488255606515
 31
0.0
  0
LINE
  5
30A
330
E3
100
AcDbEntity
  8
0
  6
Continuous
100
AcDbLine
 10
134.9383153153922
 20
128.7488255606515
 30
0.0
 11
134.9148772302359
 21
128.7433553837448
 31
0.0
  0
LINE
  5
30B
330
E3
100
AcDbEntity
  8
0
  6
Continuous
100
AcDbLine
 10
134.9148772302359
 20
128.7433553837448
 30
0.0
 11
134.8947355445546
 21
128.7378822290609
 31
0.0
  0
LINE
  5
30C
330
E3
100
AcDbEntity
  8
0
  6
Continuous
100
AcDbLine
 10
134.8947355445546
 20
128.7378822290609
 30
0.0
 11
134.8780451027681
 21
128.7324120521542
 31
0.0
  0
LINE
  5
30D
330
E3
100
AcDbEntity
  8
0
  6
Continuous
100
AcDbLine
 10
134.8780451027681
 20
128.7324120521542
 30
0.0
 11
134.8649279937459
 21
128.7269418752475
 31
0.0
  0
LINE
  5
30E
330
E3
100
AcDbEntity
  8
0
  6
Continuous
100
AcDbLine
 10
134.8649279937459
 20
128.7269418752475
 30
0.0
 11
134.8554854619163
 21
128.7214687205636
 31
0.0
  0
LINE
  5
30F
330
E3
100
AcDbEntity
  8
0
  6
Continuous
100
AcDbLine
 10
134.8554854619163
 20
128.7214687205636
 30
0.0
 11
134.8497928433983
 21
128.7159981418976
 31
0.0
  0
LINE
  5
310
330
E3
100
AcDbEntity
  8
0
  6
Continuous
100
AcDbLine
 10
134.8497928433983
 20
128.7159981418976
 30
0.0
 11
134.8478901924441
 21
128.7105267614262
 31
0.0
  0
LINE
  5
311
330
E3
100
AcDbEntity
  8
0
  6
Continuous
100
AcDbLine
 10
135.847890192444
 20
128.5135570644565
 30
0.0
 11
135.8459875414899
 21
128.5080856839851
 31
0.0
  0
LINE
  5
312
330
E3
100
AcDbEntity
  8
0
  6
Continuous
100
AcDbLine
 10
135.8459875414899
 20
128.5080856839851
 30
0.0
 11
135.8402940689503
 21
128.5026143035137
 31
0.0
  0
LINE
  5
313
330
E3
100
AcDbEntity
  8
0
  6
Continuous
100
AcDbLine
 10
135.8402940689503
 20
128.5026143035137
 30
0.0
 11
135.8308534399215
 21
128.4971438229542
 31
0.0
  0
LINE
  5
314
330
E3
100
AcDbEntity
  8
0
  6
Continuous
100
AcDbLine
 10
135.8308534399215
 20
128.4971438229542
 30
0.0
 11
135.8177363308993
 21
128.4916706682702
 31
0.0
  0
LINE
  5
315
330
E3
100
AcDbEntity
  8
0
  6
Continuous
100
AcDbLine
 10
135.8177363308993
 20
128.4916706682702
 30
0.0
 11
135.8010429113355
 21
128.4862004913636
 31
0.0
  0
LINE
  5
316
330
E3
100
AcDbEntity
  8
0
  6
Continuous
100
AcDbLine
 10
135.8010429113355
 20
128.4862004913636
 30
0.0
 11
135.7809042034315
 21
128.4807273366796
 31
0.0
  0
LINE
  5
317
330
E3
100
AcDbEntity
  8
0
  6
Continuous
100
AcDbLine
 10
135.7809042034315
 20
128.4807273366796
 30
0.0
 11
135.7574661182751
 21
128.475257159773
 31
0.0
  0
LINE
  5
318
330
E3
100
AcDbEntity
  8
0
  6
Continuous
100
AcDbLine
 10
135.7574661182751
 20
128.475257159773
 30
0.0
 11
135.7309132780593
 21
128.4697869828664
 31
0.0
  0
LINE
  5
319
330
E3
100
AcDbEntity
  8
0
  6
Continuous
100
AcDbLine
 10
135.7309132780593
 20
128.4697869828664
 30
0.0
 11
135.7014422160859
 21
128.4643138281824
 31
0.0
  0
LINE
  5
31A
330
E3
100
AcDbEntity
  8
0
  6
Continuous
100
AcDbLine
 10
135.7014422160859
 20
128.4643138281824
 30
0.0
 11
135.6692851989847
 21
128.4588436512757
 31
0.0
  0
LINE
  5
31B
330
E3
100
AcDbEntity
  8
0
  6
Continuous
100
AcDbLine
 10
135.6692851989847
 20
128.4588436512757
 30
0.0
 11
135.6346774711627
 21
128.4533704965918
 31
0.0
  0
LINE
  5
31C
330
E3
100
AcDbEntity
  8
0
  6
Continuous
100
AcDbLine
 10
135.6346774711627
 20
128.4533704965918
 30
0.0
 11
135.5978900103544
 21
128.4479003196852
 31
0.0
  0
LINE
  5
31D
330
E3
100
AcDbEntity
  8
0
  6
Continuous
100
AcDbLine
 10
135.5978900103544
 20
128.4479003196852
 30
0.0
 11
135.5591997498492
 21
128.4424301427785
 31
0.0
  0
LINE
  5
31E
330
E3
100
AcDbEntity
  8
0
  6
Continuous
100
AcDbLine
 10
135.5591997498492
 20
128.4424301427785
 30
0.0
 11
135.5189014896001
 21
128.4369569880946
 31
0.0
  0
LINE
  5
31F
330
E3
100
AcDbEntity
  8
0
  6
Continuous
100
AcDbLine
 10
135.5189014896001
 20
128.4369569880946
 30
0.0
 11
135.477298962892
 21
128.4314868111879
 31
0.0
  0
LINE
  5
320
330
E3
100
AcDbEntity
  8
0
  6
Continuous
100
AcDbLine
 10
135.477298962892
 20
128.4314868111879
 30
0.0
 11
135.4347137696737
 21
128.426013656504
 31
0.0
  0
LINE
  5
321
330
E3
100
AcDbEntity
  8
0
  6
Continuous
100
AcDbLine
 10
135.4347137696737
 20
128.426013656504
 30
0.0
 11
135.3914675098941
 21
128.4205434795973
 31
0.0
  0
LINE
  5
322
330
E3
100
AcDbEntity
  8
0
  6
Continuous
100
AcDbLine
 10
135.3914675098941
 20
128.4205434795973
 30
0.0
 11
135.3478907168337
 21
128.4150733026906
 31
0.0
  0
LINE
  5
323
330
E3
100
AcDbEntity
  8
0
  6
Continuous
100
AcDbLine
 10
135.3478907168337
 20
128.4150733026906
 30
0.0
 11
135.304310945996
 21
128.4096001480067
 31
0.0
  0
LINE
  5
324
330
E3
100
AcDbEntity
  8
0
  6
Continuous
100
AcDbLine
 10
135.304310945996
 20
128.4096001480067
 30
0.0
 11
135.2610646862164
 21
128.4041299711001
 31
0.0
  0
LINE
  5
325
330
E3
100
AcDbEntity
  8
0
  6
Continuous
100
AcDbLine
 10
135.2610646862164
 20
128.4041299711001
 30
0.0
 11
135.2184794929981
 21
128.3986568164161
 31
0.0
  0
LINE
  5
326
330
E3
100
AcDbEntity
  8
0
  6
Continuous
100
AcDbLine
 10
135.2184794929981
 20
128.3986568164161
 30
0.0
 11
135.1768799440673
 21
128.3931866395095
 31
0.0
  0
LINE
  5
327
330
E3
100
AcDbEntity
  8
0
  6
Continuous
100
AcDbLine
 10
135.1768799440673
 20
128.3931866395095
 30
0.0
 11
135.1365816838182
 21
128.3877164626028
 31
0.0
  0
LINE
  5
328
330
E3
100
AcDbEntity
  8
0
  6
Continuous
100
AcDbLine
 10
135.1365816838182
 20
128.3877164626028
 30
0.0
 11
135.097891423313
 21
128.3822433079189
 31
0.0
  0
LINE
  5
329
330
E3
100
AcDbEntity
  8
0
  6
Continuous
100
AcDbLine
 10
135.097891423313
 20
128.3822433079189
 30
0.0
 11
135.0611009847274
 21
128.3767731310122
 31
0.0
  0
LINE
  5
32A
330
E3
100
AcDbEntity
  8
0
  6
Continuous
100
AcDbLine
 10
135.0611009847274
 20
128.3767731310122
 30
0.0
 11
135.0264962346827
 21
128.3712999763283
 31
0.0
  0
LINE
  5
32B
330
E3
100
AcDbEntity
  8
0
  6
Continuous
100
AcDbLine
 10
135.0264962346827
 20
128.3712999763283
 30
0.0
 11
134.9943362398042
 21
128.3658297994216
 31
0.0
  0
LINE
  5
32C
330
E3
100
AcDbEntity
  8
0
  6
Continuous
100
AcDbLine
 10
134.9943362398042
 20
128.3658297994216
 30
0.0
 11
134.9648681556081
 21
128.360359622515
 31
0.0
  0
LINE
  5
32D
330
E3
100
AcDbEntity
  8
0
  6
Continuous
100
AcDbLine
 10
134.9648681556081
 20
128.360359622515
 30
0.0
 11
134.9383153153922
 21
128.354886467831
 31
0.0
  0
LINE
  5
32E
330
E3
100
AcDbEntity
  8
0
  6
Continuous
100
AcDbLine
 10
134.9383153153922
 20
128.354886467831
 30
0.0
 11
134.9148772302359
 21
128.3494162909244
 31
0.0
  0
LINE
  5
32F
330
E3
100
AcDbEntity
  8
0
  6
Continuous
100
AcDbLine
 10
134.9148772302359
 20
128.3494162909244
 30
0.0
 11
134.8947355445546
 21
128.3439431362404
 31
0.0
  0
LINE
  5
330
330
E3
100
AcDbEntity
  8
0
  6
Continuous
100
AcDbLine
 10
134.8947355445546
 20
128.3439431362404
 30
0.0
 11
134.8780451027681
 21
128.3384729593338
 31
0.0
  0
LINE
  5
331
330
E3
100
AcDbEntity
  8
0
  6
Continuous
100
AcDbLine
 10
134.8780451027681
 20
128.3384729593338
 30
0.0
 11
134.8649279937459
 21
128.3330027824271
 31
0.0
  0
LINE
  5
332
330
E3
100
AcDbEntity
  8
0
  6
Continuous
100
AcDbLine
 10
134.8649279937459
 20
128.3330027824271
 30
0.0
 11
134.8554854619163
 21
128.3275296277432
 31
0.0
  0
LINE
  5
333
330
E3
100
AcDbEntity
  8
0
  6
Continuous
100
AcDbLine
 10
134.8554854619163
 20
128.3275296277432
 30
0.0
 11
134.8497928433983
 21
128.3220587479582
 31
0.0
  0
LINE
  5
334
330
E3
100
AcDbEntity
  8
0
  6
Continuous
100
AcDbLine
 10
134.8497928433983
 20
128.3220587479582
 30
0.0
 11
134.8478901924441
 21
128.3165873674868
 31
0.0
  0
LINE
  5
335
330
E3
100
AcDbEntity
  8
0
  6
Continuous
100
AcDbLine
 10
135.847890192444
 20
128.1196176705171
 30
0.0
 11
135.8459875414899
 21
128.1141462900457
 31
0.0
  0
LINE
  5
336
330
E3
100
AcDbEntity
  8
0
  6
Continuous
100
AcDbLine
 10
135.8459875414899
 20
128.1141462900457
 30
0.0
 11
135.8402940689503
 21
128.1086749095743
 31
0.0
  0
LINE
  5
337
330
E3
100
AcDbEntity
  8
0
  6
Continuous
100
AcDbLine
 10
135.8402940689503
 20
128.1086749095743
 30
0.0
 11
135.8308534399215
 21
128.1032047301338
 31
0.0
  0
LINE
  5
338
330
E3
100
AcDbEntity
  8
0
  6
Continuous
100
AcDbLine
 10
135.8308534399215
 20
128.1032047301338
 30
0.0
 11
135.8177363308993
 21
128.0977315754498
 31
0.0
  0
LINE
  5
339
330
E3
100
AcDbEntity
  8
0
  6
Continuous
100
AcDbLine
 10
135.8177363308993
 20
128.0977315754498
 30
0.0
 11
135.8010429113355
 21
128.0922613985431
 31
0.0
  0
LINE
  5
33A
330
E3
100
AcDbEntity
  8
0
  6
Continuous
100
AcDbLine
 10
135.8010429113355
 20
128.0922613985431
 30
0.0
 11
135.7809042034315
 21
128.0867882438592
 31
0.0
  0
LINE
  5
33B
330
E3
100
AcDbEntity
  8
0
  6
Continuous
100
AcDbLine
 10
135.7809042034315
 20
128.0867882438592
 30
0.0
 11
135.7574661182751
 21
128.0813180669525
 31
0.0
  0
LINE
  5
33C
330
E3
100
AcDbEntity
  8
0
  6
Continuous
100
AcDbLine
 10
135.7574661182751
 20
128.0813180669525
 30
0.0
 11
135.7309132780593
 21
128.0758478900459
 31
0.0
  0
LINE
  5
33D
330
E3
100
AcDbEntity
  8
0
  6
Continuous
100
AcDbLine
 10
135.7309132780593
 20
128.0758478900459
 30
0.0
 11
135.7014422160859
 21
128.070374735362
 31
0.0
  0
LINE
  5
33E
330
E3
100
AcDbEntity
  8
0
  6
Continuous
100
AcDbLine
 10
135.7014422160859
 20
128.070374735362
 30
0.0
 11
135.6692851989847
 21
128.0649045584553
 31
0.0
  0
LINE
  5
33F
330
E3
100
AcDbEntity
  8
0
  6
Continuous
100
AcDbLine
 10
135.6692851989847
 20
128.0649045584553
 30
0.0
 11
135.6346774711627
 21
128.0594314037714
 31
0.0
  0
LINE
  5
340
330
E3
100
AcDbEntity
  8
0
  6
Continuous
100
AcDbLine
 10
135.6346774711627
 20
128.0594314037714
 30
0.0
 11
135.5978900103544
 21
128.0539612268647
 31
0.0
  0
LINE
  5
341
330
E3
100
AcDbEntity
  8
0
  6
Continuous
100
AcDbLine
 10
135.5978900103544
 20
128.0539612268647
 30
0.0
 11
135.5591997498492
 21
128.048491049958
 31
0.0
  0
LINE
  5
342
330
E3
100
AcDbEntity
  8
0
  6
Continuous
100
AcDbLine
 10
135.5591997498492
 20
128.048491049958
 30
0.0
 11
135.5189014896001
 21
128.0430178952741
 31
0.0
  0
LINE
  5
343
330
E3
100
AcDbEntity
  8
0
  6
Continuous
100
AcDbLine
 10
135.5189014896001
 20
128.0430178952741
 30
0.0
 11
135.477298962892
 21
128.0375477183674
 31
0.0
  0
LINE
  5
344
330
E3
100
AcDbEntity
  8
0
  6
Continuous
100
AcDbLine
 10
135.477298962892
 20
128.0375477183674
 30
0.0
 11
135.4347137696737
 21
128.0320745636836
 31
0.0
  0
LINE
  5
345
330
E3
100
AcDbEntity
  8
0
  6
Continuous
100
AcDbLine
 10
135.4347137696737
 20
128.0320745636836
 30
0.0
 11
135.3914675098941
 21
128.0266043867769
 31
0.0
  0
LINE
  5
346
330
E3
100
AcDbEntity
  8
0
  6
Continuous
100
AcDbLine
 10
135.3914675098941
 20
128.0266043867769
 30
0.0
 11
135.3478907168337
 21
128.0211342098702
 31
0.0
  0
LINE
  5
347
330
E3
100
AcDbEntity
  8
0
  6
Continuous
100
AcDbLine
 10
135.3478907168337
 20
128.0211342098702
 30
0.0
 11
135.304310945996
 21
128.0156610551863
 31
0.0
  0
LINE
  5
348
330
E3
100
AcDbEntity
  8
0
  6
Continuous
100
AcDbLine
 10
135.304310945996
 20
128.0156610551863
 30
0.0
 11
135.2610646862164
 21
128.0101908782796
 31
0.0
  0
LINE
  5
349
330
E3
100
AcDbEntity
  8
0
  6
Continuous
100
AcDbLine
 10
135.2610646862164
 20
128.0101908782796
 30
0.0
 11
135.2184794929981
 21
128.0047177235957
 31
0.0
  0
LINE
  5
34A
330
E3
100
AcDbEntity
  8
0
  6
Continuous
100
AcDbLine
 10
135.2184794929981
 20
128.0047177235957
 30
0.0
 11
135.1768799440673
 21
127.999247546689
 31
0.0
  0
LINE
  5
34B
330
E3
100
AcDbEntity
  8
0
  6
Continuous
100
AcDbLine
 10
135.1768799440673
 20
127.999247546689
 30
0.0
 11
135.1365816838182
 21
127.9937773697824
 31
0.0
  0
LINE
  5
34C
330
E3
100
AcDbEntity
  8
0
  6
Continuous
100
AcDbLine
 10
135.1365816838182
 20
127.9937773697824
 30
0.0
 11
135.097891423313
 21
127.9883042150984
 31
0.0
  0
LINE
  5
34D
330
E3
100
AcDbEntity
  8
0
  6
Continuous
100
AcDbLine
 10
135.097891423313
 20
127.9883042150984
 30
0.0
 11
135.0611009847274
 21
127.9828340381918
 31
0.0
  0
LINE
  5
34E
330
E3
100
AcDbEntity
  8
0
  6
Continuous
100
AcDbLine
 10
135.0611009847274
 20
127.9828340381918
 30
0.0
 11
135.0264962346827
 21
127.9773608835078
 31
0.0
  0
LINE
  5
34F
330
E3
100
AcDbEntity
  8
0
  6
Continuous
100
AcDbLine
 10
135.0264962346827
 20
127.9773608835078
 30
0.0
 11
134.9943362398042
 21
127.9718907066012
 31
0.0
  0
LINE
  5
350
330
E3
100
AcDbEntity
  8
0
  6
Continuous
100
AcDbLine
 10
134.9943362398042
 20
127.9718907066012
 30
0.0
 11
134.9648681556081
 21
127.9664175519172
 31
0.0
  0
LINE
  5
351
330
E3
100
AcDbEntity
  8
0
  6
Continuous
100
AcDbLine
 10
134.9648681556081
 20
127.9664175519172
 30
0.0
 11
134.9383153153922
 21
127.9609473750106
 31
0.0
  0
LINE
  5
352
330
E3
100
AcDbEntity
  8
0
  6
Continuous
100
AcDbLine
 10
134.9383153153922
 20
127.9609473750106
 30
0.0
 11
134.9148772302359
 21
127.9554771981039
 31
0.0
  0
LINE
  5
353
330
E3
100
AcDbEntity
  8
0
  6
Continuous
100
AcDbLine
 10
134.9148772302359
 20
127.9554771981039
 30
0.0
 11
134.8947355445546
 21
127.95000404342
 31
0.0
  0
LINE
  5
354
330
E3
100
AcDbEntity
  8
0
  6
Continuous
100
AcDbLine
 10
134.8947355445546
 20
127.95000404342
 30
0.0
 11
134.8780451027681
 21
127.9445338665133
 31
0.0
  0
LINE
  5
355
330
E3
100
AcDbEntity
  8
0
  6
Continuous
100
AcDbLine
 10
134.8780451027681
 20
127.9445338665133
 30
0.0
 11
134.8649279937459
 21
127.9390607118294
 31
0.0
  0
LINE
  5
356
330
E3
100
AcDbEntity
  8
0
  6
Continuous
100
AcDbLine
 10
134.8649279937459
 20
127.9390607118294
 30
0.0
 11
134.8554854619163
 21
127.9335905349228
 31
0.0
  0
LINE
  5
357
330
E3
100
AcDbEntity
  8
0
  6
Continuous
100
AcDbLine
 10
134.8554854619163
 20
127.9335905349228
 30
0.0
 11
134.8497928433983
 21
127.9281193540188
 31
0.0
  0
LINE
  5
358
330
E3
100
AcDbEntity
  8
0
  6
Continuous
100
AcDbLine
 10
134.8497928433983
 20
127.9281193540188
 30
0.0
 11
134.8478901924441
 21
127.9226479735474
 31
0.0
  0
LINE
  5
359
330
E3
100
AcDbEntity
  8
0
  6
Continuous
100
AcDbLine
 10
135.847890192444
 20
127.7256782765777
 30
0.0
 11
135.8459875414899
 21
127.7202068961064
 31
0.0
  0
LINE
  5
35A
330
E3
100
AcDbEntity
  8
0
  6
Continuous
100
AcDbLine
 10
135.8459875414899
 20
127.7202068961064
 30
0.0
 11
135.8402940689503
 21
127.7147355156349
 31
0.0
  0
LINE
  5
35B
330
E3
100
AcDbEntity
  8
0
  6
Continuous
100
AcDbLine
 10
135.8402940689503
 20
127.7147355156349
 30
0.0
 11
135.8308534399215
 21
127.709262659536
 31
0.0
  0
LINE
  5
35C
330
E3
100
AcDbEntity
  8
0
  6
Continuous
100
AcDbLine
 10
135.8308534399215
 20
127.709262659536
 30
0.0
 11
135.8177363308993
 21
127.7037924826294
 31
0.0
  0
LINE
  5
35D
330
E3
100
AcDbEntity
  8
0
  6
Continuous
100
AcDbLine
 10
135.8177363308993
 20
127.7037924826294
 30
0.0
 11
135.8010429113355
 21
127.6983223057227
 31
0.0
  0
LINE
  5
35E
330
E3
100
AcDbEntity
  8
0
  6
Continuous
100
AcDbLine
 10
135.8010429113355
 20
127.6983223057227
 30
0.0
 11
135.7809042034315
 21
127.6928491510388
 31
0.0
  0
LINE
  5
35F
330
E3
100
AcDbEntity
  8
0
  6
Continuous
100
AcDbLine
 10
135.7809042034315
 20
127.6928491510388
 30
0.0
 11
135.7574661182751
 21
127.6873789741321
 31
0.0
  0
LINE
  5
360
330
E3
100
AcDbEntity
  8
0
  6
Continuous
100
AcDbLine
 10
135.7574661182751
 20
127.6873789741321
 30
0.0
 11
135.7309132780593
 21
127.6819058194482
 31
0.0
  0
LINE
  5
361
330
E3
100
AcDbEntity
  8
0
  6
Continuous
100
AcDbLine
 10
135.7309132780593
 20
127.6819058194482
 30
0.0
 11
135.7014422160859
 21
127.6764356425415
 31
0.0
  0
LINE
  5
362
330
E3
100
AcDbEntity
  8
0
  6
Continuous
100
AcDbLine
 10
135.7014422160859
 20
127.6764356425415
 30
0.0
 11
135.6692851989847
 21
127.6709654656349
 31
0.0
  0
LINE
  5
363
330
E3
100
AcDbEntity
  8
0
  6
Continuous
100
AcDbLine
 10
135.6692851989847
 20
127.6709654656349
 30
0.0
 11
135.6346774711627
 21
127.6654923109509
 31
0.0
  0
LINE
  5
364
330
E3
100
AcDbEntity
  8
0
  6
Continuous
100
AcDbLine
 10
135.6346774711627
 20
127.6654923109509
 30
0.0
 11
135.5978900103544
 21
127.6600221340443
 31
0.0
  0
LINE
  5
365
330
E3
100
AcDbEntity
  8
0
  6
Continuous
100
AcDbLine
 10
135.5978900103544
 20
127.6600221340443
 30
0.0
 11
135.5591997498492
 21
127.6545489793603
 31
0.0
  0
LINE
  5
366
330
E3
100
AcDbEntity
  8
0
  6
Continuous
100
AcDbLine
 10
135.5591997498492
 20
127.6545489793603
 30
0.0
 11
135.5189014896001
 21
127.6490788024537
 31
0.0
  0
LINE
  5
367
330
E3
100
AcDbEntity
  8
0
  6
Continuous
100
AcDbLine
 10
135.5189014896001
 20
127.6490788024537
 30
0.0
 11
135.477298962892
 21
127.643608625547
 31
0.0
  0
LINE
  5
368
330
E3
100
AcDbEntity
  8
0
  6
Continuous
100
AcDbLine
 10
135.477298962892
 20
127.643608625547
 30
0.0
 11
135.4347137696737
 21
127.6381354708631
 31
0.0
  0
LINE
  5
369
330
E3
100
AcDbEntity
  8
0
  6
Continuous
100
AcDbLine
 10
135.4347137696737
 20
127.6381354708631
 30
0.0
 11
135.3914675098941
 21
127.6326652939564
 31
0.0
  0
LINE
  5
36A
330
E3
100
AcDbEntity
  8
0
  6
Continuous
100
AcDbLine
 10
135.3914675098941
 20
127.6326652939564
 30
0.0
 11
135.3478907168337
 21
127.6271921392725
 31
0.0
  0
LINE
  5
36B
330
E3
100
AcDbEntity
  8
0
  6
Continuous
100
AcDbLine
 10
135.3478907168337
 20
127.6271921392725
 30
0.0
 11
135.304310945996
 21
127.6217219623658
 31
0.0
  0
LINE
  5
36C
330
E3
100
AcDbEntity
  8
0
  6
Continuous
100
AcDbLine
 10
135.304310945996
 20
127.6217219623658
 30
0.0
 11
135.2610646862164
 21
127.6162517854592
 31
0.0
  0
LINE
  5
36D
330
E3
100
AcDbEntity
  8
0
  6
Continuous
100
AcDbLine
 10
135.2610646862164
 20
127.6162517854592
 30
0.0
 11
135.2184794929981
 21
127.6107786307752
 31
0.0
  0
LINE
  5
36E
330
E3
100
AcDbEntity
  8
0
  6
Continuous
100
AcDbLine
 10
135.2184794929981
 20
127.6107786307752
 30
0.0
 11
135.1768799440673
 21
127.6053084538686
 31
0.0
  0
LINE
  5
36F
330
E3
100
AcDbEntity
  8
0
  6
Continuous
100
AcDbLine
 10
135.1768799440673
 20
127.6053084538686
 30
0.0
 11
135.1365816838182
 21
127.5998352991846
 31
0.0
  0
LINE
  5
370
330
E3
100
AcDbEntity
  8
0
  6
Continuous
100
AcDbLine
 10
135.1365816838182
 20
127.5998352991846
 30
0.0
 11
135.097891423313
 21
127.594365122278
 31
0.0
  0
LINE
  5
371
330
E3
100
AcDbEntity
  8
0
  6
Continuous
100
AcDbLine
 10
135.097891423313
 20
127.594365122278
 30
0.0
 11
135.0611009847274
 21
127.5888949453714
 31
0.0
  0
LINE
  5
372
330
E3
100
AcDbEntity
  8
0
  6
Continuous
100
AcDbLine
 10
135.0611009847274
 20
127.5888949453714
 30
0.0
 11
135.0264962346827
 21
127.5834217906874
 31
0.0
  0
LINE
  5
373
330
E3
100
AcDbEntity
  8
0
  6
Continuous
100
AcDbLine
 10
135.0264962346827
 20
127.5834217906874
 30
0.0
 11
134.9943362398042
 21
127.5779516137807
 31
0.0
  0
LINE
  5
374
330
E3
100
AcDbEntity
  8
0
  6
Continuous
100
AcDbLine
 10
134.9943362398042
 20
127.5779516137807
 30
0.0
 11
134.9648681556081
 21
127.5724784590968
 31
0.0
  0
LINE
  5
375
330
E3
100
AcDbEntity
  8
0
  6
Continuous
100
AcDbLine
 10
134.9648681556081
 20
127.5724784590968
 30
0.0
 11
134.9383153153922
 21
127.5670082821901
 31
0.0
  0
LINE
  5
376
330
E3
100
AcDbEntity
  8
0
  6
Continuous
100
AcDbLine
 10
134.9383153153922
 20
127.5670082821901
 30
0.0
 11
134.9148772302359
 21
127.5615381052835
 31
0.0
  0
LINE
  5
377
330
E3
100
AcDbEntity
  8
0
  6
Continuous
100
AcDbLine
 10
134.9148772302359
 20
127.5615381052835
 30
0.0
 11
134.8947355445546
 21
127.5560649505995
 31
0.0
  0
LINE
  5
378
330
E3
100
AcDbEntity
  8
0
  6
Continuous
100
AcDbLine
 10
134.8947355445546
 20
127.5560649505995
 30
0.0
 11
134.8780451027681
 21
127.5505947736929
 31
0.0
  0
LINE
  5
379
330
E3
100
AcDbEntity
  8
0
  6
Continuous
100
AcDbLine
 10
134.8780451027681
 20
127.5505947736929
 30
0.0
 11
134.8649279937459
 21
127.5451216190089
 31
0.0
  0
LINE
  5
37A
330
E3
100
AcDbEntity
  8
0
  6
Continuous
100
AcDbLine
 10
134.8649279937459
 20
127.5451216190089
 30
0.0
 11
134.8554854619163
 21
127.5396514421023
 31
0.0
  0
LINE
  5
37B
330
E3
100
AcDbEntity
  8
0
  6
Continuous
100
AcDbLine
 10
134.8554854619163
 20
127.5396514421023
 30
0.0
 11
134.8497928433983
 21
127.5341799600794
 31
0.0
  0
LINE
  5
37C
330
E3
100
AcDbEntity
  8
0
  6
Continuous
100
AcDbLine
 10
134.8497928433983
 20
127.5341799600794
 30
0.0
 11
134.8478901924441
 21
127.528708579608
 31
0.0
  0
LINE
  5
37D
330
E3
100
AcDbEntity
  8
0
  6
Continuous
100
AcDbLine
 10
135.847890192444
 20
127.3317388826383
 30
0.0
 11
135.8459875414899
 21
127.326267502167
 31
0.0
  0
LINE
  5
37E
330
E3
100
AcDbEntity
  8
0
  6
Continuous
100
AcDbLine
 10
135.8459875414899
 20
127.326267502167
 30
0.0
 11
135.8402940689503
 21
127.3207961216956
 31
0.0
  0
LINE
  5
37F
330
E3
100
AcDbEntity
  8
0
  6
Continuous
100
AcDbLine
 10
135.8402940689503
 20
127.3207961216956
 30
0.0
 11
135.8308534399215
 21
127.3153235667156
 31
0.0
  0
LINE
  5
380
330
E3
100
AcDbEntity
  8
0
  6
Continuous
100
AcDbLine
 10
135.8308534399215
 20
127.3153235667156
 30
0.0
 11
135.8177363308993
 21
127.3098533898089
 31
0.0
  0
LINE
  5
381
330
E3
100
AcDbEntity
  8
0
  6
Continuous
100
AcDbLine
 10
135.8177363308993
 20
127.3098533898089
 30
0.0
 11
135.8010429113355
 21
127.3043832129023
 31
0.0
  0
LINE
  5
382
330
E3
100
AcDbEntity
  8
0
  6
Continuous
100
AcDbLine
 10
135.8010429113355
 20
127.3043832129023
 30
0.0
 11
135.7809042034315
 21
127.2989100582184
 31
0.0
  0
LINE
  5
383
330
E3
100
AcDbEntity
  8
0
  6
Continuous
100
AcDbLine
 10
135.7809042034315
 20
127.2989100582184
 30
0.0
 11
135.7574661182751
 21
127.2934398813117
 31
0.0
  0
LINE
  5
384
330
E3
100
AcDbEntity
  8
0
  6
Continuous
100
AcDbLine
 10
135.7574661182751
 20
127.2934398813117
 30
0.0
 11
135.7309132780593
 21
127.2879667266277
 31
0.0
  0
LINE
  5
385
330
E3
100
AcDbEntity
  8
0
  6
Continuous
100
AcDbLine
 10
135.7309132780593
 20
127.2879667266277
 30
0.0
 11
135.7014422160859
 21
127.2824965497211
 31
0.0
  0
LINE
  5
386
330
E3
100
AcDbEntity
  8
0
  6
Continuous
100
AcDbLine
 10
135.7014422160859
 20
127.2824965497211
 30
0.0
 11
135.6692851989847
 21
127.2770263728145
 31
0.0
  0
LINE
  5
387
330
E3
100
AcDbEntity
  8
0
  6
Continuous
100
AcDbLine
 10
135.6692851989847
 20
127.2770263728145
 30
0.0
 11
135.6346774711627
 21
127.2715532181305
 31
0.0
  0
LINE
  5
388
330
E3
100
AcDbEntity
  8
0
  6
Continuous
100
AcDbLine
 10
135.6346774711627
 20
127.2715532181305
 30
0.0
 11
135.5978900103544
 21
127.2660830412238
 31
0.0
  0
LINE
  5
389
330
E3
100
AcDbEntity
  8
0
  6
Continuous
100
AcDbLine
 10
135.5978900103544
 20
127.2660830412238
 30
0.0
 11
135.5591997498492
 21
127.2606098865399
 31
0.0
  0
LINE
  5
38A
330
E3
100
AcDbEntity
  8
0
  6
Continuous
100
AcDbLine
 10
135.5591997498492
 20
127.2606098865399
 30
0.0
 11
135.5189014896001
 21
127.2551397096333
 31
0.0
  0
LINE
  5
38B
330
E3
100
AcDbEntity
  8
0
  6
Continuous
100
AcDbLine
 10
135.5189014896001
 20
127.2551397096333
 30
0.0
 11
135.477298962892
 21
127.2496695327266
 31
0.0
  0
LINE
  5
38C
330
E3
100
AcDbEntity
  8
0
  6
Continuous
100
AcDbLine
 10
135.477298962892
 20
127.2496695327266
 30
0.0
 11
135.4347137696737
 21
127.2441963780426
 31
0.0
  0
LINE
  5
38D
330
E3
100
AcDbEntity
  8
0
  6
Continuous
100
AcDbLine
 10
135.4347137696737
 20
127.2441963780426
 30
0.0
 11
135.3914675098941
 21
127.238726201136
 31
0.0
  0
LINE
  5
38E
330
E3
100
AcDbEntity
  8
0
  6
Continuous
100
AcDbLine
 10
135.3914675098941
 20
127.238726201136
 30
0.0
 11
135.3478907168337
 21
127.233253046452
 31
0.0
  0
LINE
  5
38F
330
E3
100
AcDbEntity
  8
0
  6
Continuous
100
AcDbLine
 10
135.3478907168337
 20
127.233253046452
 30
0.0
 11
135.304310945996
 21
127.2277828695454
 31
0.0
  0
LINE
  5
390
330
E3
100
AcDbEntity
  8
0
  6
Continuous
100
AcDbLine
 10
135.304310945996
 20
127.2277828695454
 30
0.0
 11
135.2610646862164
 21
127.2223126926387
 31
0.0
  0
LINE
  5
391
330
E3
100
AcDbEntity
  8
0
  6
Continuous
100
AcDbLine
 10
135.2610646862164
 20
127.2223126926387
 30
0.0
 11
135.2184794929981
 21
127.2168395379548
 31
0.0
  0
LINE
  5
392
330
E3
100
AcDbEntity
  8
0
  6
Continuous
100
AcDbLine
 10
135.2184794929981
 20
127.2168395379548
 30
0.0
 11
135.1768799440673
 21
127.2113693610482
 31
0.0
  0
LINE
  5
393
330
E3
100
AcDbEntity
  8
0
  6
Continuous
100
AcDbLine
 10
135.1768799440673
 20
127.2113693610482
 30
0.0
 11
135.1365816838182
 21
127.2058962063642
 31
0.0
  0
LINE
  5
394
330
E3
100
AcDbEntity
  8
0
  6
Continuous
100
AcDbLine
 10
135.1365816838182
 20
127.2058962063642
 30
0.0
 11
135.097891423313
 21
127.2004260294576
 31
0.0
  0
LINE
  5
395
330
E3
100
AcDbEntity
  8
0
  6
Continuous
100
AcDbLine
 10
135.097891423313
 20
127.2004260294576
 30
0.0
 11
135.0611009847274
 21
127.1949558525509
 31
0.0
  0
LINE
  5
396
330
E3
100
AcDbEntity
  8
0
  6
Continuous
100
AcDbLine
 10
135.0611009847274
 20
127.1949558525509
 30
0.0
 11
135.0264962346827
 21
127.1894826978669
 31
0.0
  0
LINE
  5
397
330
E3
100
AcDbEntity
  8
0
  6
Continuous
100
AcDbLine
 10
135.0264962346827
 20
127.1894826978669
 30
0.0
 11
134.9943362398042
 21
127.1840125209603
 31
0.0
  0
LINE
  5
398
330
E3
100
AcDbEntity
  8
0
  6
Continuous
100
AcDbLine
 10
134.9943362398042
 20
127.1840125209603
 30
0.0
 11
134.9648681556081
 21
127.1785393662764
 31
0.0
  0
LINE
  5
399
330
E3
100
AcDbEntity
  8
0
  6
Continuous
100
AcDbLine
 10
134.9648681556081
 20
127.1785393662764
 30
0.0
 11
134.9383153153922
 21
127.1730691893697
 31
0.0
  0
LINE
  5
39A
330
E3
100
AcDbEntity
  8
0
  6
Continuous
100
AcDbLine
 10
134.9383153153922
 20
127.1730691893697
 30
0.0
 11
134.9148772302359
 21
127.1675960346857
 31
0.0
  0
LINE
  5
39B
330
E3
100
AcDbEntity
  8
0
  6
Continuous
100
AcDbLine
 10
134.9148772302359
 20
127.1675960346857
 30
0.0
 11
134.8947355445546
 21
127.1621258577791
 31
0.0
  0
LINE
  5
39C
330
E3
100
AcDbEntity
  8
0
  6
Continuous
100
AcDbLine
 10
134.8947355445546
 20
127.1621258577791
 30
0.0
 11
134.8780451027681
 21
127.1566556808725
 31
0.0
  0
LINE
  5
39D
330
E3
100
AcDbEntity
  8
0
  6
Continuous
100
AcDbLine
 10
134.8780451027681
 20
127.1566556808725
 30
0.0
 11
134.8649279937459
 21
127.1511825261885
 31
0.0
  0
LINE
  5
39E
330
E3
100
AcDbEntity
  8
0
  6
Continuous
100
AcDbLine
 10
134.8649279937459
 20
127.1511825261885
 30
0.0
 11
134.8554854619163
 21
127.1457123492819
 31
0.0
  0
LINE
  5
39F
330
E3
100
AcDbEntity
  8
0
  6
Continuous
100
AcDbLine
 10
134.8554854619163
 20
127.1457123492819
 30
0.0
 11
134.8497928433983
 21
127.14024056614
 31
0.0
  0
LINE
  5
3A0
330
E3
100
AcDbEntity
  8
0
  6
Continuous
100
AcDbLine
 10
134.8497928433983
 20
127.14024056614
 30
0.0
 11
134.8478901924441
 21
127.1347691856686
 31
0.0
  0
LINE
  5
3A1
330
E3
100
AcDbEntity
  8
0
  6
Continuous
100
AcDbLine
 10
135.847890192444
 20
126.9377994886989
 30
0.0
 11
135.8459875414899
 21
126.9323281082275
 31
0.0
  0
LINE
  5
3A2
330
E3
100
AcDbEntity
  8
0
  6
Continuous
100
AcDbLine
 10
135.8459875414899
 20
126.9323281082275
 30
0.0
 11
135.8402940689503
 21
126.9268567277562
 31
0.0
  0
LINE
  5
3A3
330
E3
100
AcDbEntity
  8
0
  6
Continuous
100
AcDbLine
 10
135.8402940689503
 20
126.9268567277562
 30
0.0
 11
135.8308534399215
 21
126.9213844738951
 31
0.0
  0
LINE
  5
3A4
330
E3
100
AcDbEntity
  8
0
  6
Continuous
100
AcDbLine
 10
135.8308534399215
 20
126.9213844738951
 30
0.0
 11
135.8177363308993
 21
126.9159142969885
 31
0.0
  0
LINE
  5
3A5
330
E3
100
AcDbEntity
  8
0
  6
Continuous
100
AcDbLine
 10
135.8177363308993
 20
126.9159142969885
 30
0.0
 11
135.8010429113355
 21
126.9104411423045
 31
0.0
  0
LINE
  5
3A6
330
E3
100
AcDbEntity
  8
0
  6
Continuous
100
AcDbLine
 10
135.8010429113355
 20
126.9104411423045
 30
0.0
 11
135.7809042034315
 21
126.9049709653979
 31
0.0
  0
LINE
  5
3A7
330
E3
100
AcDbEntity
  8
0
  6
Continuous
100
AcDbLine
 10
135.7809042034315
 20
126.9049709653979
 30
0.0
 11
135.7574661182751
 21
126.8995007884912
 31
0.0
  0
LINE
  5
3A8
330
E3
100
AcDbEntity
  8
0
  6
Continuous
100
AcDbLine
 10
135.7574661182751
 20
126.8995007884912
 30
0.0
 11
135.7309132780593
 21
126.8940276338073
 31
0.0
  0
LINE
  5
3A9
330
E3
100
AcDbEntity
  8
0
  6
Continuous
100
AcDbLine
 10
135.7309132780593
 20
126.8940276338073
 30
0.0
 11
135.7014422160859
 21
126.8885574569006
 31
0.0
  0
LINE
  5
3AA
330
E3
100
AcDbEntity
  8
0
  6
Continuous
100
AcDbLine
 10
135.7014422160859
 20
126.8885574569006
 30
0.0
 11
135.6692851989847
 21
126.8830843022167
 31
0.0
  0
LINE
  5
3AB
330
E3
100
AcDbEntity
  8
0
  6
Continuous
100
AcDbLine
 10
135.6692851989847
 20
126.8830843022167
 30
0.0
 11
135.6346774711627
 21
126.87761412531
 31
0.0
  0
LINE
  5
3AC
330
E3
100
AcDbEntity
  8
0
  6
Continuous
100
AcDbLine
 10
135.6346774711627
 20
126.87761412531
 30
0.0
 11
135.5978900103544
 21
126.8721439484034
 31
0.0
  0
LINE
  5
3AD
330
E3
100
AcDbEntity
  8
0
  6
Continuous
100
AcDbLine
 10
135.5978900103544
 20
126.8721439484034
 30
0.0
 11
135.5591997498492
 21
126.8666707937194
 31
0.0
  0
LINE
  5
3AE
330
E3
100
AcDbEntity
  8
0
  6
Continuous
100
AcDbLine
 10
135.5591997498492
 20
126.8666707937194
 30
0.0
 11
135.5189014896001
 21
126.8612006168128
 31
0.0
  0
LINE
  5
3AF
330
E3
100
AcDbEntity
  8
0
  6
Continuous
100
AcDbLine
 10
135.5189014896001
 20
126.8612006168128
 30
0.0
 11
135.477298962892
 21
126.8557274621289
 31
0.0
  0
LINE
  5
3B0
330
E3
100
AcDbEntity
  8
0
  6
Continuous
100
AcDbLine
 10
135.477298962892
 20
126.8557274621289
 30
0.0
 11
135.4347137696737
 21
126.8502572852222
 31
0.0
  0
LINE
  5
3B1
330
E3
100
AcDbEntity
  8
0
  6
Continuous
100
AcDbLine
 10
135.4347137696737
 20
126.8502572852222
 30
0.0
 11
135.3914675098941
 21
126.8447871083156
 31
0.0
  0
LINE
  5
3B2
330
E3
100
AcDbEntity
  8
0
  6
Continuous
100
AcDbLine
 10
135.3914675098941
 20
126.8447871083156
 30
0.0
 11
135.3478907168337
 21
126.8393139536316
 31
0.0
  0
LINE
  5
3B3
330
E3
100
AcDbEntity
  8
0
  6
Continuous
100
AcDbLine
 10
135.3478907168337
 20
126.8393139536316
 30
0.0
 11
135.304310945996
 21
126.833843776725
 31
0.0
  0
LINE
  5
3B4
330
E3
100
AcDbEntity
  8
0
  6
Continuous
100
AcDbLine
 10
135.304310945996
 20
126.833843776725
 30
0.0
 11
135.2610646862164
 21
126.828370622041
 31
0.0
  0
LINE
  5
3B5
330
E3
100
AcDbEntity
  8
0
  6
Continuous
100
AcDbLine
 10
135.2610646862164
 20
126.828370622041
 30
0.0
 11
135.2184794929981
 21
126.8229004451344
 31
0.0
  0
LINE
  5
3B6
330
E3
100
AcDbEntity
  8
0
  6
Continuous
100
AcDbLine
 10
135.2184794929981
 20
126.8229004451344
 30
0.0
 11
135.1768799440673
 21
126.8174302682277
 31
0.0
  0
LINE
  5
3B7
330
E3
100
AcDbEntity
  8
0
  6
Continuous
100
AcDbLine
 10
135.1768799440673
 20
126.8174302682277
 30
0.0
 11
135.1365816838182
 21
126.8119571135438
 31
0.0
  0
LINE
  5
3B8
330
E3
100
AcDbEntity
  8
0
  6
Continuous
100
AcDbLine
 10
135.1365816838182
 20
126.8119571135438
 30
0.0
 11
135.097891423313
 21
126.8064869366371
 31
0.0
  0
LINE
  5
3B9
330
E3
100
AcDbEntity
  8
0
  6
Continuous
100
AcDbLine
 10
135.097891423313
 20
126.8064869366371
 30
0.0
 11
135.0611009847274
 21
126.8010137819532
 31
0.0
  0
LINE
  5
3BA
330
E3
100
AcDbEntity
  8
0
  6
Continuous
100
AcDbLine
 10
135.0611009847274
 20
126.8010137819532
 30
0.0
 11
135.0264962346827
 21
126.7955436050465
 31
0.0
  0
LINE
  5
3BB
330
E3
100
AcDbEntity
  8
0
  6
Continuous
100
AcDbLine
 10
135.0264962346827
 20
126.7955436050465
 30
0.0
 11
134.9943362398042
 21
126.7900734281399
 31
0.0
  0
LINE
  5
3BC
330
E3
100
AcDbEntity
  8
0
  6
Continuous
100
AcDbLine
 10
134.9943362398042
 20
126.7900734281399
 30
0.0
 11
134.9648681556081
 21
126.7846002734559
 31
0.0
  0
LINE
  5
3BD
330
E3
100
AcDbEntity
  8
0
  6
Continuous
100
AcDbLine
 10
134.9648681556081
 20
126.7846002734559
 30
0.0
 11
134.9383153153922
 21
126.7791300965493
 31
0.0
  0
LINE
  5
3BE
330
E3
100
AcDbEntity
  8
0
  6
Continuous
100
AcDbLine
 10
134.9383153153922
 20
126.7791300965493
 30
0.0
 11
134.9148772302359
 21
126.7736569418653
 31
0.0
  0
LINE
  5
3BF
330
E3
100
AcDbEntity
  8
0
  6
Continuous
100
AcDbLine
 10
134.9148772302359
 20
126.7736569418653
 30
0.0
 11
134.8947355445546
 21
126.7681867649587
 31
0.0
  0
LINE
  5
3C0
330
E3
100
AcDbEntity
  8
0
  6
Continuous
100
AcDbLine
 10
134.8947355445546
 20
126.7681867649587
 30
0.0
 11
134.8780451027681
 21
126.762716588052
 31
0.0
  0
LINE
  5
3C1
330
E3
100
AcDbEntity
  8
0
  6
Continuous
100
AcDbLine
 10
134.8780451027681
 20
126.762716588052
 30
0.0
 11
134.8649279937459
 21
126.7572434333681
 31
0.0
  0
LINE
  5
3C2
330
E3
100
AcDbEntity
  8
0
  6
Continuous
100
AcDbLine
 10
134.8649279937459
 20
126.7572434333681
 30
0.0
 11
134.8554854619163
 21
126.7517732564614
 31
0.0
  0
LINE
  5
3C3
330
E3
100
AcDbEntity
  8
0
  6
Continuous
100
AcDbLine
 10
134.8554854619163
 20
126.7517732564614
 30
0.0
 11
134.8497928433983
 21
126.7463011722006
 31
0.0
  0
LINE
  5
3C4
330
E3
100
AcDbEntity
  8
0
  6
Continuous
100
AcDbLine
 10
134.8497928433983
 20
126.7463011722006
 30
0.0
 11
134.8478901924441
 21
126.7408297917292
 31
0.0
  0
LINE
  5
3C5
330
E3
100
AcDbEntity
  8
0
  6
Continuous
100
AcDbLine
 10
135.847890192444
 20
126.5438600947595
 30
0.0
 11
135.8459875414899
 21
126.5383887142881
 31
0.0
  0
LINE
  5
3C6
330
E3
100
AcDbEntity
  8
0
  6
Continuous
100
AcDbLine
 10
135.8459875414899
 20
126.5383887142881
 30
0.0
 11
135.8402940689503
 21
126.5329173338168
 31
0.0
  0
LINE
  5
3C7
330
E3
100
AcDbEntity
  8
0
  6
Continuous
100
AcDbLine
 10
135.8402940689503
 20
126.5329173338168
 30
0.0
 11
135.8308534399215
 21
126.5274453810747
 31
0.0
  0
LINE
  5
3C8
330
E3
100
AcDbEntity
  8
0
  6
Continuous
100
AcDbLine
 10
135.8308534399215
 20
126.5274453810747
 30
0.0
 11
135.8177363308993
 21
126.5219752041681
 31
0.0
  0
LINE
  5
3C9
330
E3
100
AcDbEntity
  8
0
  6
Continuous
100
AcDbLine
 10
135.8177363308993
 20
126.5219752041681
 30
0.0
 11
135.8010429113355
 21
126.5165020494841
 31
0.0
  0
LINE
  5
3CA
330
E3
100
AcDbEntity
  8
0
  6
Continuous
100
AcDbLine
 10
135.8010429113355
 20
126.5165020494841
 30
0.0
 11
135.7809042034315
 21
126.5110318725774
 31
0.0
  0
LINE
  5
3CB
330
E3
100
AcDbEntity
  8
0
  6
Continuous
100
AcDbLine
 10
135.7809042034315
 20
126.5110318725774
 30
0.0
 11
135.7574661182751
 21
126.5055616956708
 31
0.0
  0
LINE
  5
3CC
330
E3
100
AcDbEntity
  8
0
  6
Continuous
100
AcDbLine
 10
135.7574661182751
 20
126.5055616956708
 30
0.0
 11
135.7309132780593
 21
126.5000885409869
 31
0.0
  0
LINE
  5
3CD
330
E3
100
AcDbEntity
  8
0
  6
Continuous
100
AcDbLine
 10
135.7309132780593
 20
126.5000885409869
 30
0.0
 11
135.7014422160859
 21
126.4946183640802
 31
0.0
  0
LINE
  5
3CE
330
E3
100
AcDbEntity
  8
0
  6
Continuous
100
AcDbLine
 10
135.7014422160859
 20
126.4946183640802
 30
0.0
 11
135.6692851989847
 21
126.4891452093962
 31
0.0
  0
LINE
  5
3CF
330
E3
100
AcDbEntity
  8
0
  6
Continuous
100
AcDbLine
 10
135.6692851989847
 20
126.4891452093962
 30
0.0
 11
135.6346774711627
 21
126.4836750324896
 31
0.0
  0
LINE
  5
3D0
330
E3
100
AcDbEntity
  8
0
  6
Continuous
100
AcDbLine
 10
135.6346774711627
 20
126.4836750324896
 30
0.0
 11
135.5978900103544
 21
126.478204855583
 31
0.0
  0
LINE
  5
3D1
330
E3
100
AcDbEntity
  8
0
  6
Continuous
100
AcDbLine
 10
135.5978900103544
 20
126.478204855583
 30
0.0
 11
135.5591997498492
 21
126.472731700899
 31
0.0
  0
LINE
  5
3D2
330
E3
100
AcDbEntity
  8
0
  6
Continuous
100
AcDbLine
 10
135.5591997498492
 20
126.472731700899
 30
0.0
 11
135.5189014896001
 21
126.4672615239923
 31
0.0
  0
LINE
  5
3D3
330
E3
100
AcDbEntity
  8
0
  6
Continuous
100
AcDbLine
 10
135.5189014896001
 20
126.4672615239923
 30
0.0
 11
135.477298962892
 21
126.4617883693084
 31
0.0
  0
LINE
  5
3D4
330
E3
100
AcDbEntity
  8
0
  6
Continuous
100
AcDbLine
 10
135.477298962892
 20
126.4617883693084
 30
0.0
 11
135.4347137696737
 21
126.4563181924018
 31
0.0
  0
LINE
  5
3D5
330
E3
100
AcDbEntity
  8
0
  6
Continuous
100
AcDbLine
 10
135.4347137696737
 20
126.4563181924018
 30
0.0
 11
135.3914675098941
 21
126.4508480154951
 31
0.0
  0
LINE
  5
3D6
330
E3
100
AcDbEntity
  8
0
  6
Continuous
100
AcDbLine
 10
135.3914675098941
 20
126.4508480154951
 30
0.0
 11
135.3478907168337
 21
126.4453748608112
 31
0.0
  0
LINE
  5
3D7
330
E3
100
AcDbEntity
  8
0
  6
Continuous
100
AcDbLine
 10
135.3478907168337
 20
126.4453748608112
 30
0.0
 11
135.304310945996
 21
126.4399046839045
 31
0.0
  0
LINE
  5
3D8
330
E3
100
AcDbEntity
  8
0
  6
Continuous
100
AcDbLine
 10
135.304310945996
 20
126.4399046839045
 30
0.0
 11
135.2610646862164
 21
126.4344315292206
 31
0.0
  0
LINE
  5
3D9
330
E3
100
AcDbEntity
  8
0
  6
Continuous
100
AcDbLine
 10
135.2610646862164
 20
126.4344315292206
 30
0.0
 11
135.2184794929981
 21
126.4289613523139
 31
0.0
  0
LINE
  5
3DA
330
E3
100
AcDbEntity
  8
0
  6
Continuous
100
AcDbLine
 10
135.2184794929981
 20
126.4289613523139
 30
0.0
 11
135.1768799440673
 21
126.4234911754073
 31
0.0
  0
LINE
  5
3DB
330
E3
100
AcDbEntity
  8
0
  6
Continuous
100
AcDbLine
 10
135.1768799440673
 20
126.4234911754073
 30
0.0
 11
135.1365816838182
 21
126.4180180207233
 31
0.0
  0
LINE
  5
3DC
330
E3
100
AcDbEntity
  8
0
  6
Continuous
100
AcDbLine
 10
135.1365816838182
 20
126.4180180207233
 30
0.0
 11
135.097891423313
 21
126.4125478438167
 31
0.0
  0
LINE
  5
3DD
330
E3
100
AcDbEntity
  8
0
  6
Continuous
100
AcDbLine
 10
135.097891423313
 20
126.4125478438167
 30
0.0
 11
135.0611009847274
 21
126.4070746891327
 31
0.0
  0
LINE
  5
3DE
330
E3
100
AcDbEntity
  8
0
  6
Continuous
100
AcDbLine
 10
135.0611009847274
 20
126.4070746891327
 30
0.0
 11
135.0264962346827
 21
126.4016045122261
 31
0.0
  0
LINE
  5
3DF
330
E3
100
AcDbEntity
  8
0
  6
Continuous
100
AcDbLine
 10
135.0264962346827
 20
126.4016045122261
 30
0.0
 11
134.9943362398042
 21
126.3961313575421
 31
0.0
  0
LINE
  5
3E0
330
E3
100
AcDbEntity
  8
0
  6
Continuous
100
AcDbLine
 10
134.9943362398042
 20
126.3961313575421
 30
0.0
 11
134.9648681556081
 21
126.3906611806355
 31
0.0
  0
LINE
  5
3E1
330
E3
100
AcDbEntity
  8
0
  6
Continuous
100
AcDbLine
 10
134.9648681556081
 20
126.3906611806355
 30
0.0
 11
134.9383153153922
 21
126.3851910037288
 31
0.0
  0
LINE
  5
3E2
330
E3
100
AcDbEntity
  8
0
  6
Continuous
100
AcDbLine
 10
134.9383153153922
 20
126.3851910037288
 30
0.0
 11
134.9148772302359
 21
126.3797178490449
 31
0.0
  0
LINE
  5
3E3
330
E3
100
AcDbEntity
  8
0
  6
Continuous
100
AcDbLine
 10
134.9148772302359
 20
126.3797178490449
 30
0.0
 11
134.8947355445546
 21
126.3742476721382
 31
0.0
  0
LINE
  5
3E4
330
E3
100
AcDbEntity
  8
0
  6
Continuous
100
AcDbLine
 10
134.8947355445546
 20
126.3742476721382
 30
0.0
 11
134.8780451027681
 21
126.3687745174543
 31
0.0
  0
LINE
  5
3E5
330
E3
100
AcDbEntity
  8
0
  6
Continuous
100
AcDbLine
 10
134.8780451027681
 20
126.3687745174543
 30
0.0
 11
134.8649279937459
 21
126.3633043405476
 31
0.0
  0
LINE
  5
3E6
330
E3
100
AcDbEntity
  8
0
  6
Continuous
100
AcDbLine
 10
134.8649279937459
 20
126.3633043405476
 30
0.0
 11
134.8554854619163
 21
126.357834163641
 31
0.0
  0
LINE
  5
3E7
330
E3
100
AcDbEntity
  8
0
  6
Continuous
100
AcDbLine
 10
134.8554854619163
 20
126.357834163641
 30
0.0
 11
134.8497928433983
 21
126.3523617782612
 31
0.0
  0
LINE
  5
3E8
330
E3
100
AcDbEntity
  8
0
  6
Continuous
100
AcDbLine
 10
134.8497928433983
 20
126.3523617782612
 30
0.0
 11
134.8478901924441
 21
126.3468903977898
 31
0.0
  0
LINE
  5
3E9
330
E3
100
AcDbEntity
  8
0
  6
Continuous
100
AcDbLine
 10
135.847890192444
 20
126.1499207008201
 30
0.0
 11
135.8459875414899
 21
126.1444493203487
 31
0.0
  0
LINE
  5
3EA
330
E3
100
AcDbEntity
  8
0
  6
Continuous
100
AcDbLine
 10
135.8459875414899
 20
126.1444493203487
 30
0.0
 11
135.8402940689503
 21
126.1389779398774
 31
0.0
  0
LINE
  5
3EB
330
E3
100
AcDbEntity
  8
0
  6
Continuous
100
AcDbLine
 10
135.8402940689503
 20
126.1389779398774
 30
0.0
 11
135.8308534399215
 21
126.1335062882543
 31
0.0
  0
LINE
  5
3EC
330
E3
100
AcDbEntity
  8
0
  6
Continuous
100
AcDbLine
 10
135.8308534399215
 20
126.1335062882543
 30
0.0
 11
135.8177363308993
 21
126.1280361113477
 31
0.0
  0
LINE
  5
3ED
330
E3
100
AcDbEntity
  8
0
  6
Continuous
100
AcDbLine
 10
135.8177363308993
 20
126.1280361113477
 30
0.0
 11
135.8010429113355
 21
126.1225629566637
 31
0.0
  0
LINE
  5
3EE
330
E3
100
AcDbEntity
  8
0
  6
Continuous
100
AcDbLine
 10
135.8010429113355
 20
126.1225629566637
 30
0.0
 11
135.7809042034315
 21
126.117092779757
 31
0.0
  0
LINE
  5
3EF
330
E3
100
AcDbEntity
  8
0
  6
Continuous
100
AcDbLine
 10
135.7809042034315
 20
126.117092779757
 30
0.0
 11
135.7574661182751
 21
126.1116196250731
 31
0.0
  0
LINE
  5
3F0
330
E3
100
AcDbEntity
  8
0
  6
Continuous
100
AcDbLine
 10
135.7574661182751
 20
126.1116196250731
 30
0.0
 11
135.7309132780593
 21
126.1061494481664
 31
0.0
  0
LINE
  5
3F1
330
E3
100
AcDbEntity
  8
0
  6
Continuous
100
AcDbLine
 10
135.7309132780593
 20
126.1061494481664
 30
0.0
 11
135.7014422160859
 21
126.1006792712598
 31
0.0
  0
LINE
  5
3F2
330
E3
100
AcDbEntity
  8
0
  6
Continuous
100
AcDbLine
 10
135.7014422160859
 20
126.1006792712598
 30
0.0
 11
135.6692851989847
 21
126.0952061165758
 31
0.0
  0
LINE
  5
3F3
330
E3
100
AcDbEntity
  8
0
  6
Continuous
100
AcDbLine
 10
135.6692851989847
 20
126.0952061165758
 30
0.0
 11
135.6346774711627
 21
126.0897359396692
 31
0.0
  0
LINE
  5
3F4
330
E3
100
AcDbEntity
  8
0
  6
Continuous
100
AcDbLine
 10
135.6346774711627
 20
126.0897359396692
 30
0.0
 11
135.5978900103544
 21
126.0842627849852
 31
0.0
  0
LINE
  5
3F5
330
E3
100
AcDbEntity
  8
0
  6
Continuous
100
AcDbLine
 10
135.5978900103544
 20
126.0842627849852
 30
0.0
 11
135.5591997498492
 21
126.0787926080786
 31
0.0
  0
LINE
  5
3F6
330
E3
100
AcDbEntity
  8
0
  6
Continuous
100
AcDbLine
 10
135.5591997498492
 20
126.0787926080786
 30
0.0
 11
135.5189014896001
 21
126.0733224311719
 31
0.0
  0
LINE
  5
3F7
330
E3
100
AcDbEntity
  8
0
  6
Continuous
100
AcDbLine
 10
135.5189014896001
 20
126.0733224311719
 30
0.0
 11
135.477298962892
 21
126.067849276488
 31
0.0
  0
LINE
  5
3F8
330
E3
100
AcDbEntity
  8
0
  6
Continuous
100
AcDbLine
 10
135.477298962892
 20
126.067849276488
 30
0.0
 11
135.4347137696737
 21
126.0623790995813
 31
0.0
  0
LINE
  5
3F9
330
E3
100
AcDbEntity
  8
0
  6
Continuous
100
AcDbLine
 10
135.4347137696737
 20
126.0623790995813
 30
0.0
 11
135.3914675098941
 21
126.0569059448974
 31
0.0
  0
LINE
  5
3FA
330
E3
100
AcDbEntity
  8
0
  6
Continuous
100
AcDbLine
 10
135.3914675098941
 20
126.0569059448974
 30
0.0
 11
135.3478907168337
 21
126.0514357679907
 31
0.0
  0
LINE
  5
3FB
330
E3
100
AcDbEntity
  8
0
  6
Continuous
100
AcDbLine
 10
135.3478907168337
 20
126.0514357679907
 30
0.0
 11
135.304310945996
 21
126.0459655910841
 31
0.0
  0
LINE
  5
3FC
330
E3
100
AcDbEntity
  8
0
  6
Continuous
100
AcDbLine
 10
135.304310945996
 20
126.0459655910841
 30
0.0
 11
135.2610646862164
 21
126.0404924364001
 31
0.0
  0
LINE
  5
3FD
330
E3
100
AcDbEntity
  8
0
  6
Continuous
100
AcDbLine
 10
135.2610646862164
 20
126.0404924364001
 30
0.0
 11
135.2184794929981
 21
126.0350222594935
 31
0.0
  0
LINE
  5
3FE
330
E3
100
AcDbEntity
  8
0
  6
Continuous
100
AcDbLine
 10
135.2184794929981
 20
126.0350222594935
 30
0.0
 11
135.1768799440673
 21
126.0295491048096
 31
0.0
  0
LINE
  5
3FF
330
E3
100
AcDbEntity
  8
0
  6
Continuous
100
AcDbLine
 10
135.1768799440673
 20
126.0295491048096
 30
0.0
 11
135.1365816838182
 21
126.0240789279029
 31
0.0
  0
LINE
  5
400
330
E3
100
AcDbEntity
  8
0
  6
Continuous
100
AcDbLine
 10
135.1365816838182
 20
126.0240789279029
 30
0.0
 11
135.097891423313
 21
126.0186087509962
 31
0.0
  0
LINE
  5
401
330
E3
100
AcDbEntity
  8
0
  6
Continuous
100
AcDbLine
 10
135.097891423313
 20
126.0186087509962
 30
0.0
 11
135.0611009847274
 21
126.0131355963123
 31
0.0
  0
LINE
  5
402
330
E3
100
AcDbEntity
  8
0
  6
Continuous
100
AcDbLine
 10
135.0611009847274
 20
126.0131355963123
 30
0.0
 11
135.0264962346827
 21
126.0076654194057
 31
0.0
  0
LINE
  5
403
330
E3
100
AcDbEntity
  8
0
  6
Continuous
100
AcDbLine
 10
135.0264962346827
 20
126.0076654194057
 30
0.0
 11
134.9943362398042
 21
126.0021922647217
 31
0.0
  0
LINE
  5
404
330
E3
100
AcDbEntity
  8
0
  6
Continuous
100
AcDbLine
 10
134.9943362398042
 20
126.0021922647217
 30
0.0
 11
134.9648681556081
 21
125.996722087815
 31
0.0
  0
LINE
  5
405
330
E3
100
AcDbEntity
  8
0
  6
Continuous
100
AcDbLine
 10
134.9648681556081
 20
125.996722087815
 30
0.0
 11
134.9383153153922
 21
125.9912519109084
 31
0.0
  0
LINE
  5
406
330
E3
100
AcDbEntity
  8
0
  6
Continuous
100
AcDbLine
 10
134.9383153153922
 20
125.9912519109084
 30
0.0
 11
134.9148772302359
 21
125.9857787562245
 31
0.0
  0
LINE
  5
407
330
E3
100
AcDbEntity
  8
0
  6
Continuous
100
AcDbLine
 10
134.9148772302359
 20
125.9857787562245
 30
0.0
 11
134.8947355445546
 21
125.9803085793178
 31
0.0
  0
LINE
  5
408
330
E3
100
AcDbEntity
  8
0
  6
Continuous
100
AcDbLine
 10
134.8947355445546
 20
125.9803085793178
 30
0.0
 11
134.8780451027681
 21
125.9748354246338
 31
0.0
  0
LINE
  5
409
330
E3
100
AcDbEntity
  8
0
  6
Continuous
100
AcDbLine
 10
134.8780451027681
 20
125.9748354246338
 30
0.0
 11
134.8649279937459
 21
125.9693652477272
 31
0.0
  0
LINE
  5
40A
330
E3
100
AcDbEntity
  8
0
  6
Continuous
100
AcDbLine
 10
134.8649279937459
 20
125.9693652477272
 30
0.0
 11
134.8554854619163
 21
125.9638950708206
 31
0.0
  0
LINE
  5
40B
330
E3
100
AcDbEntity
  8
0
  6
Continuous
100
AcDbLine
 10
134.8554854619163
 20
125.9638950708206
 30
0.0
 11
134.8497928433983
 21
125.9584223843218
 31
0.0
  0
LINE
  5
40C
330
E3
100
AcDbEntity
  8
0
  6
Continuous
100
AcDbLine
 10
134.8497928433983
 20
125.9584223843218
 30
0.0
 11
134.8478901924441
 21
125.9529510038505
 31
0.0
  0
LINE
  5
40D
330
E3
100
AcDbEntity
  8
0
  6
Continuous
100
AcDbLine
 10
135.847890192444
 20
125.7559813068808
 30
0.0
 11
135.8459875414899
 21
125.7505099264094
 31
0.0
  0
LINE
  5
40E
330
E3
100
AcDbEntity
  8
0
  6
Continuous
100
AcDbLine
 10
135.8459875414899
 20
125.7505099264094
 30
0.0
 11
135.8402940689503
 21
125.745038545938
 31
0.0
  0
LINE
  5
40F
330
E3
100
AcDbEntity
  8
0
  6
Continuous
100
AcDbLine
 10
135.8402940689503
 20
125.745038545938
 30
0.0
 11
135.8308534399215
 21
125.7395671954338
 31
0.0
  0
LINE
  5
410
330
E3
100
AcDbEntity
  8
0
  6
Continuous
100
AcDbLine
 10
135.8308534399215
 20
125.7395671954338
 30
0.0
 11
135.8177363308993
 21
125.7340970185272
 31
0.0
  0
LINE
  5
411
330
E3
100
AcDbEntity
  8
0
  6
Continuous
100
AcDbLine
 10
135.8177363308993
 20
125.7340970185272
 30
0.0
 11
135.8010429113355
 21
125.7286238638432
 31
0.0
  0
LINE
  5
412
330
E3
100
AcDbEntity
  8
0
  6
Continuous
100
AcDbLine
 10
135.8010429113355
 20
125.7286238638432
 30
0.0
 11
135.7809042034315
 21
125.7231536869366
 31
0.0
  0
LINE
  5
413
330
E3
100
AcDbEntity
  8
0
  6
Continuous
100
AcDbLine
 10
135.7809042034315
 20
125.7231536869366
 30
0.0
 11
135.7574661182751
 21
125.7176805322526
 31
0.0
  0
LINE
  5
414
330
E3
100
AcDbEntity
  8
0
  6
Continuous
100
AcDbLine
 10
135.7574661182751
 20
125.7176805322526
 30
0.0
 11
135.7309132780593
 21
125.712210355346
 31
0.0
  0
LINE
  5
415
330
E3
100
AcDbEntity
  8
0
  6
Continuous
100
AcDbLine
 10
135.7309132780593
 20
125.712210355346
 30
0.0
 11
135.7014422160859
 21
125.7067401784394
 31
0.0
  0
LINE
  5
416
330
E3
100
AcDbEntity
  8
0
  6
Continuous
100
AcDbLine
 10
135.7014422160859
 20
125.7067401784394
 30
0.0
 11
135.6692851989847
 21
125.7012670237554
 31
0.0
  0
LINE
  5
417
330
E3
100
AcDbEntity
  8
0
  6
Continuous
100
AcDbLine
 10
135.6692851989847
 20
125.7012670237554
 30
0.0
 11
135.6346774711627
 21
125.6957968468487
 31
0.0
  0
LINE
  5
418
330
E3
100
AcDbEntity
  8
0
  6
Continuous
100
AcDbLine
 10
135.6346774711627
 20
125.6957968468487
 30
0.0
 11
135.5978900103544
 21
125.6903236921648
 31
0.0
  0
LINE
  5
419
330
E3
100
AcDbEntity
  8
0
  6
Continuous
100
AcDbLine
 10
135.5978900103544
 20
125.6903236921648
 30
0.0
 11
135.5591997498492
 21
125.6848535152582
 31
0.0
  0
LINE
  5
41A
330
E3
100
AcDbEntity
  8
0
  6
Continuous
100
AcDbLine
 10
135.5591997498492
 20
125.6848535152582
 30
0.0
 11
135.5189014896001
 21
125.6793833383515
 31
0.0
  0
LINE
  5
41B
330
E3
100
AcDbEntity
  8
0
  6
Continuous
100
AcDbLine
 10
135.5189014896001
 20
125.6793833383515
 30
0.0
 11
135.477298962892
 21
125.6739101836676
 31
0.0
  0
LINE
  5
41C
330
E3
100
AcDbEntity
  8
0
  6
Continuous
100
AcDbLine
 10
135.477298962892
 20
125.6739101836676
 30
0.0
 11
135.4347137696737
 21
125.6684400067609
 31
0.0
  0
LINE
  5
41D
330
E3
100
AcDbEntity
  8
0
  6
Continuous
100
AcDbLine
 10
135.4347137696737
 20
125.6684400067609
 30
0.0
 11
135.3914675098941
 21
125.6629668520769
 31
0.0
  0
LINE
  5
41E
330
E3
100
AcDbEntity
  8
0
  6
Continuous
100
AcDbLine
 10
135.3914675098941
 20
125.6629668520769
 30
0.0
 11
135.3478907168337
 21
125.6574966751703
 31
0.0
  0
LINE
  5
41F
330
E3
100
AcDbEntity
  8
0
  6
Continuous
100
AcDbLine
 10
135.3478907168337
 20
125.6574966751703
 30
0.0
 11
135.304310945996
 21
125.6520264982637
 31
0.0
  0
LINE
  5
420
330
E3
100
AcDbEntity
  8
0
  6
Continuous
100
AcDbLine
 10
135.304310945996
 20
125.6520264982637
 30
0.0
 11
135.2610646862164
 21
125.6465533435797
 31
0.0
  0
LINE
  5
421
330
E3
100
AcDbEntity
  8
0
  6
Continuous
100
AcDbLine
 10
135.2610646862164
 20
125.6465533435797
 30
0.0
 11
135.2184794929981
 21
125.6410831666731
 31
0.0
  0
LINE
  5
422
330
E3
100
AcDbEntity
  8
0
  6
Continuous
100
AcDbLine
 10
135.2184794929981
 20
125.6410831666731
 30
0.0
 11
135.1768799440673
 21
125.6356100119891
 31
0.0
  0
LINE
  5
423
330
E3
100
AcDbEntity
  8
0
  6
Continuous
100
AcDbLine
 10
135.1768799440673
 20
125.6356100119891
 30
0.0
 11
135.1365816838182
 21
125.6301398350824
 31
0.0
  0
LINE
  5
424
330
E3
100
AcDbEntity
  8
0
  6
Continuous
100
AcDbLine
 10
135.1365816838182
 20
125.6301398350824
 30
0.0
 11
135.097891423313
 21
125.6246696581758
 31
0.0
  0
LINE
  5
425
330
E3
100
AcDbEntity
  8
0
  6
Continuous
100
AcDbLine
 10
135.097891423313
 20
125.6246696581758
 30
0.0
 11
135.0611009847274
 21
125.6191965034918
 31
0.0
  0
LINE
  5
426
330
E3
100
AcDbEntity
  8
0
  6
Continuous
100
AcDbLine
 10
135.0611009847274
 20
125.6191965034918
 30
0.0
 11
135.0264962346827
 21
125.6137263265852
 31
0.0
  0
LINE
  5
427
330
E3
100
AcDbEntity
  8
0
  6
Continuous
100
AcDbLine
 10
135.0264962346827
 20
125.6137263265852
 30
0.0
 11
134.9943362398042
 21
125.6082531719012
 31
0.0
  0
LINE
  5
428
330
E3
100
AcDbEntity
  8
0
  6
Continuous
100
AcDbLine
 10
134.9943362398042
 20
125.6082531719012
 30
0.0
 11
134.9648681556081
 21
125.6027829949946
 31
0.0
  0
LINE
  5
429
330
E3
100
AcDbEntity
  8
0
  6
Continuous
100
AcDbLine
 10
134.9648681556081
 20
125.6027829949946
 30
0.0
 11
134.9383153153922
 21
125.5973098403106
 31
0.0
  0
LINE
  5
42A
330
E3
100
AcDbEntity
  8
0
  6
Continuous
100
AcDbLine
 10
134.9383153153922
 20
125.5973098403106
 30
0.0
 11
134.9148772302359
 21
125.591839663404
 31
0.0
  0
LINE
  5
42B
330
E3
100
AcDbEntity
  8
0
  6
Continuous
100
AcDbLine
 10
134.9148772302359
 20
125.591839663404
 30
0.0
 11
134.8947355445546
 21
125.5863694864974
 31
0.0
  0
LINE
  5
42C
330
E3
100
AcDbEntity
  8
0
  6
Continuous
100
AcDbLine
 10
134.8947355445546
 20
125.5863694864974
 30
0.0
 11
134.8780451027681
 21
125.5808963318134
 31
0.0
  0
LINE
  5
42D
330
E3
100
AcDbEntity
  8
0
  6
Continuous
100
AcDbLine
 10
134.8780451027681
 20
125.5808963318134
 30
0.0
 11
134.8649279937459
 21
125.5754261549068
 31
0.0
  0
LINE
  5
42E
330
E3
100
AcDbEntity
  8
0
  6
Continuous
100
AcDbLine
 10
134.8649279937459
 20
125.5754261549068
 30
0.0
 11
134.8554854619163
 21
125.5699530002228
 31
0.0
  0
LINE
  5
42F
330
E3
100
AcDbEntity
  8
0
  6
Continuous
100
AcDbLine
 10
134.8554854619163
 20
125.5699530002228
 30
0.0
 11
134.8497928433983
 21
125.5644829903824
 31
0.0
  0
LINE
  5
430
330
E3
100
AcDbEntity
  8
0
  6
Continuous
100
AcDbLine
 10
134.8497928433983
 20
125.5644829903824
 30
0.0
 11
134.8478901924441
 21
125.5590116099111
 31
0.0
  0
LINE
  5
431
330
E3
100
AcDbEntity
  8
0
  6
Continuous
100
AcDbLine
 10
135.847890192444
 20
125.3620419129414
 30
0.0
 11
135.8459875414899
 21
125.35657053247
 31
0.0
  0
LINE
  5
432
330
E3
100
AcDbEntity
  8
0
  6
Continuous
100
AcDbLine
 10
135.8459875414899
 20
125.35657053247
 30
0.0
 11
135.8402940689503
 21
125.3510991519986
 31
0.0
  0
LINE
  5
433
330
E3
100
AcDbEntity
  8
0
  6
Continuous
100
AcDbLine
 10
135.8402940689503
 20
125.3510991519986
 30
0.0
 11
135.8308534399215
 21
125.3456281026134
 31
0.0
  0
LINE
  5
434
330
E3
100
AcDbEntity
  8
0
  6
Continuous
100
AcDbLine
 10
135.8308534399215
 20
125.3456281026134
 30
0.0
 11
135.8177363308993
 21
125.3401549479294
 31
0.0
  0
LINE
  5
435
330
E3
100
AcDbEntity
  8
0
  6
Continuous
100
AcDbLine
 10
135.8177363308993
 20
125.3401549479294
 30
0.0
 11
135.8010429113355
 21
125.3346847710228
 31
0.0
  0
LINE
  5
436
330
E3
100
AcDbEntity
  8
0
  6
Continuous
100
AcDbLine
 10
135.8010429113355
 20
125.3346847710228
 30
0.0
 11
135.7809042034315
 21
125.3292145941162
 31
0.0
  0
LINE
  5
437
330
E3
100
AcDbEntity
  8
0
  6
Continuous
100
AcDbLine
 10
135.7809042034315
 20
125.3292145941162
 30
0.0
 11
135.7574661182751
 21
125.3237414394322
 31
0.0
  0
LINE
  5
438
330
E3
100
AcDbEntity
  8
0
  6
Continuous
100
AcDbLine
 10
135.7574661182751
 20
125.3237414394322
 30
0.0
 11
135.7309132780593
 21
125.3182712625255
 31
0.0
  0
LINE
  5
439
330
E3
100
AcDbEntity
  8
0
  6
Continuous
100
AcDbLine
 10
135.7309132780593
 20
125.3182712625255
 30
0.0
 11
135.7014422160859
 21
125.3127981078416
 31
0.0
  0
LINE
  5
43A
330
E3
100
AcDbEntity
  8
0
  6
Continuous
100
AcDbLine
 10
135.7014422160859
 20
125.3127981078416
 30
0.0
 11
135.6692851989847
 21
125.307327930935
 31
0.0
  0
LINE
  5
43B
330
E3
100
AcDbEntity
  8
0
  6
Continuous
100
AcDbLine
 10
135.6692851989847
 20
125.307327930935
 30
0.0
 11
135.6346774711627
 21
125.3018577540283
 31
0.0
  0
LINE
  5
43C
330
E3
100
AcDbEntity
  8
0
  6
Continuous
100
AcDbLine
 10
135.6346774711627
 20
125.3018577540283
 30
0.0
 11
135.5978900103544
 21
125.2963845993443
 31
0.0
  0
LINE
  5
43D
330
E3
100
AcDbEntity
  8
0
  6
Continuous
100
AcDbLine
 10
135.5978900103544
 20
125.2963845993443
 30
0.0
 11
135.5591997498492
 21
125.2909144224377
 31
0.0
  0
LINE
  5
43E
330
E3
100
AcDbEntity
  8
0
  6
Continuous
100
AcDbLine
 10
135.5591997498492
 20
125.2909144224377
 30
0.0
 11
135.5189014896001
 21
125.2854412677538
 31
0.0
  0
LINE
  5
43F
330
E3
100
AcDbEntity
  8
0
  6
Continuous
100
AcDbLine
 10
135.5189014896001
 20
125.2854412677538
 30
0.0
 11
135.477298962892
 21
125.2799710908471
 31
0.0
  0
LINE
  5
440
330
E3
100
AcDbEntity
  8
0
  6
Continuous
100
AcDbLine
 10
135.477298962892
 20
125.2799710908471
 30
0.0
 11
135.4347137696737
 21
125.2745009139405
 31
0.0
  0
LINE
  5
441
330
E3
100
AcDbEntity
  8
0
  6
Continuous
100
AcDbLine
 10
135.4347137696737
 20
125.2745009139405
 30
0.0
 11
135.3914675098941
 21
125.2690277592565
 31
0.0
  0
LINE
  5
442
330
E3
100
AcDbEntity
  8
0
  6
Continuous
100
AcDbLine
 10
135.3914675098941
 20
125.2690277592565
 30
0.0
 11
135.3478907168337
 21
125.2635575823499
 31
0.0
  0
LINE
  5
443
330
E3
100
AcDbEntity
  8
0
  6
Continuous
100
AcDbLine
 10
135.3478907168337
 20
125.2635575823499
 30
0.0
 11
135.304310945996
 21
125.2580844276659
 31
0.0
  0
LINE
  5
444
330
E3
100
AcDbEntity
  8
0
  6
Continuous
100
AcDbLine
 10
135.304310945996
 20
125.2580844276659
 30
0.0
 11
135.2610646862164
 21
125.2526142507593
 31
0.0
  0
LINE
  5
445
330
E3
100
AcDbEntity
  8
0
  6
Continuous
100
AcDbLine
 10
135.2610646862164
 20
125.2526142507593
 30
0.0
 11
135.2184794929981
 21
125.2471440738526
 31
0.0
  0
LINE
  5
446
330
E3
100
AcDbEntity
  8
0
  6
Continuous
100
AcDbLine
 10
135.2184794929981
 20
125.2471440738526
 30
0.0
 11
135.1768799440673
 21
125.2416709191687
 31
0.0
  0
LINE
  5
447
330
E3
100
AcDbEntity
  8
0
  6
Continuous
100
AcDbLine
 10
135.1768799440673
 20
125.2416709191687
 30
0.0
 11
135.1365816838182
 21
125.236200742262
 31
0.0
  0
LINE
  5
448
330
E3
100
AcDbEntity
  8
0
  6
Continuous
100
AcDbLine
 10
135.1365816838182
 20
125.236200742262
 30
0.0
 11
135.097891423313
 21
125.2307275875781
 31
0.0
  0
LINE
  5
449
330
E3
100
AcDbEntity
  8
0
  6
Continuous
100
AcDbLine
 10
135.097891423313
 20
125.2307275875781
 30
0.0
 11
135.0611009847274
 21
125.2252574106714
 31
0.0
  0
LINE
  5
44A
330
E3
100
AcDbEntity
  8
0
  6
Continuous
100
AcDbLine
 10
135.0611009847274
 20
125.2252574106714
 30
0.0
 11
135.0264962346827
 21
125.2197872337648
 31
0.0
  0
LINE
  5
44B
330
E3
100
AcDbEntity
  8
0
  6
Continuous
100
AcDbLine
 10
135.0264962346827
 20
125.2197872337648
 30
0.0
 11
134.9943362398042
 21
125.2143140790808
 31
0.0
  0
LINE
  5
44C
330
E3
100
AcDbEntity
  8
0
  6
Continuous
100
AcDbLine
 10
134.9943362398042
 20
125.2143140790808
 30
0.0
 11
134.9648681556081
 21
125.2088439021742
 31
0.0
  0
LINE
  5
44D
330
E3
100
AcDbEntity
  8
0
  6
Continuous
100
AcDbLine
 10
134.9648681556081
 20
125.2088439021742
 30
0.0
 11
134.9383153153922
 21
125.2033707474902
 31
0.0
  0
LINE
  5
44E
330
E3
100
AcDbEntity
  8
0
  6
Continuous
100
AcDbLine
 10
134.9383153153922
 20
125.2033707474902
 30
0.0
 11
134.9148772302359
 21
125.1979005705836
 31
0.0
  0
LINE
  5
44F
330
E3
100
AcDbEntity
  8
0
  6
Continuous
100
AcDbLine
 10
134.9148772302359
 20
125.1979005705836
 30
0.0
 11
134.8947355445546
 21
125.1924303936769
 31
0.0
  0
LINE
  5
450
330
E3
100
AcDbEntity
  8
0
  6
Continuous
100
AcDbLine
 10
134.8947355445546
 20
125.1924303936769
 30
0.0
 11
134.8780451027681
 21
125.186957238993
 31
0.0
  0
LINE
  5
451
330
E3
100
AcDbEntity
  8
0
  6
Continuous
100
AcDbLine
 10
134.8780451027681
 20
125.186957238993
 30
0.0
 11
134.8649279937459
 21
125.1814870620863
 31
0.0
  0
LINE
  5
452
330
E3
100
AcDbEntity
  8
0
  6
Continuous
100
AcDbLine
 10
134.8649279937459
 20
125.1814870620863
 30
0.0
 11
134.8554854619163
 21
125.1760139074024
 31
0.0
  0
LINE
  5
453
330
E3
100
AcDbEntity
  8
0
  6
Continuous
100
AcDbLine
 10
134.8554854619163
 20
125.1760139074024
 30
0.0
 11
134.8497928433983
 21
125.170543596443
 31
0.0
  0
LINE
  5
454
330
E3
100
AcDbEntity
  8
0
  6
Continuous
100
AcDbLine
 10
134.8497928433983
 20
125.170543596443
 30
0.0
 11
134.8478901924441
 21
125.1650722159717
 31
0.0
  0
LINE
  5
455
330
E3
100
AcDbEntity
  8
0
  6
Continuous
100
AcDbLine
 10
135.847890192444
 20
124.968102519002
 30
0.0
 11
135.8459875414899
 21
124.9626311385306
 31
0.0
  0
LINE
  5
456
330
E3
100
AcDbEntity
  8
0
  6
Continuous
100
AcDbLine
 10
135.8459875414899
 20
124.9626311385306
 30
0.0
 11
135.8402940689503
 21
124.9571597580592
 31
0.0
  0
LINE
  5
457
330
E3
100
AcDbEntity
  8
0
  6
Continuous
100
AcDbLine
 10
135.8402940689503
 20
124.9571597580592
 30
0.0
 11
135.8308534399215
 21
124.951689009793
 31
0.0
  0
LINE
  5
458
330
E3
100
AcDbEntity
  8
0
  6
Continuous
100
AcDbLine
 10
135.8308534399215
 20
124.951689009793
 30
0.0
 11
135.8177363308993
 21
124.946215855109
 31
0.0
  0
LINE
  5
459
330
E3
100
AcDbEntity
  8
0
  6
Continuous
100
AcDbLine
 10
135.8177363308993
 20
124.946215855109
 30
0.0
 11
135.8010429113355
 21
124.9407456782024
 31
0.0
  0
LINE
  5
45A
330
E3
100
AcDbEntity
  8
0
  6
Continuous
100
AcDbLine
 10
135.8010429113355
 20
124.9407456782024
 30
0.0
 11
135.7809042034315
 21
124.9352755012957
 31
0.0
  0
LINE
  5
45B
330
E3
100
AcDbEntity
  8
0
  6
Continuous
100
AcDbLine
 10
135.7809042034315
 20
124.9352755012957
 30
0.0
 11
135.7574661182751
 21
124.9298023466118
 31
0.0
  0
LINE
  5
45C
330
E3
100
AcDbEntity
  8
0
  6
Continuous
100
AcDbLine
 10
135.7574661182751
 20
124.9298023466118
 30
0.0
 11
135.7309132780593
 21
124.9243321697051
 31
0.0
  0
LINE
  5
45D
330
E3
100
AcDbEntity
  8
0
  6
Continuous
100
AcDbLine
 10
135.7309132780593
 20
124.9243321697051
 30
0.0
 11
135.7014422160859
 21
124.9188590150212
 31
0.0
  0
LINE
  5
45E
330
E3
100
AcDbEntity
  8
0
  6
Continuous
100
AcDbLine
 10
135.7014422160859
 20
124.9188590150212
 30
0.0
 11
135.6692851989847
 21
124.9133888381145
 31
0.0
  0
LINE
  5
45F
330
E3
100
AcDbEntity
  8
0
  6
Continuous
100
AcDbLine
 10
135.6692851989847
 20
124.9133888381145
 30
0.0
 11
135.6346774711627
 21
124.9079186612079
 31
0.0
  0
LINE
  5
460
330
E3
100
AcDbEntity
  8
0
  6
Continuous
100
AcDbLine
 10
135.6346774711627
 20
124.9079186612079
 30
0.0
 11
135.5978900103544
 21
124.9024455065239
 31
0.0
  0
LINE
  5
461
330
E3
100
AcDbEntity
  8
0
  6
Continuous
100
AcDbLine
 10
135.5978900103544
 20
124.9024455065239
 30
0.0
 11
135.5591997498492
 21
124.8969753296173
 31
0.0
  0
LINE
  5
462
330
E3
100
AcDbEntity
  8
0
  6
Continuous
100
AcDbLine
 10
135.5591997498492
 20
124.8969753296173
 30
0.0
 11
135.5189014896001
 21
124.8915021749333
 31
0.0
  0
LINE
  5
463
330
E3
100
AcDbEntity
  8
0
  6
Continuous
100
AcDbLine
 10
135.5189014896001
 20
124.8915021749333
 30
0.0
 11
135.477298962892
 21
124.8860319980267
 31
0.0
  0
LINE
  5
464
330
E3
100
AcDbEntity
  8
0
  6
Continuous
100
AcDbLine
 10
135.477298962892
 20
124.8860319980267
 30
0.0
 11
135.4347137696737
 21
124.88056182112
 31
0.0
  0
LINE
  5
465
330
E3
100
AcDbEntity
  8
0
  6
Continuous
100
AcDbLine
 10
135.4347137696737
 20
124.88056182112
 30
0.0
 11
135.3914675098941
 21
124.8750886664361
 31
0.0
  0
LINE
  5
466
330
E3
100
AcDbEntity
  8
0
  6
Continuous
100
AcDbLine
 10
135.3914675098941
 20
124.8750886664361
 30
0.0
 11
135.3478907168337
 21
124.8696184895294
 31
0.0
  0
LINE
  5
467
330
E3
100
AcDbEntity
  8
0
  6
Continuous
100
AcDbLine
 10
135.3478907168337
 20
124.8696184895294
 30
0.0
 11
135.304310945996
 21
124.8641453348455
 31
0.0
  0
LINE
  5
468
330
E3
100
AcDbEntity
  8
0
  6
Continuous
100
AcDbLine
 10
135.304310945996
 20
124.8641453348455
 30
0.0
 11
135.2610646862164
 21
124.8586751579388
 31
0.0
  0
LINE
  5
469
330
E3
100
AcDbEntity
  8
0
  6
Continuous
100
AcDbLine
 10
135.2610646862164
 20
124.8586751579388
 30
0.0
 11
135.2184794929981
 21
124.8532049810322
 31
0.0
  0
LINE
  5
46A
330
E3
100
AcDbEntity
  8
0
  6
Continuous
100
AcDbLine
 10
135.2184794929981
 20
124.8532049810322
 30
0.0
 11
135.1768799440673
 21
124.8477318263482
 31
0.0
  0
LINE
  5
46B
330
E3
100
AcDbEntity
  8
0
  6
Continuous
100
AcDbLine
 10
135.1768799440673
 20
124.8477318263482
 30
0.0
 11
135.1365816838182
 21
124.8422616494416
 31
0.0
  0
LINE
  5
46C
330
E3
100
AcDbEntity
  8
0
  6
Continuous
100
AcDbLine
 10
135.1365816838182
 20
124.8422616494416
 30
0.0
 11
135.097891423313
 21
124.8367884947576
 31
0.0
  0
LINE
  5
46D
330
E3
100
AcDbEntity
  8
0
  6
Continuous
100
AcDbLine
 10
135.097891423313
 20
124.8367884947576
 30
0.0
 11
135.0611009847274
 21
124.831318317851
 31
0.0
  0
LINE
  5
46E
330
E3
100
AcDbEntity
  8
0
  6
Continuous
100
AcDbLine
 10
135.0611009847274
 20
124.831318317851
 30
0.0
 11
135.0264962346827
 21
124.825845163167
 31
0.0
  0
LINE
  5
46F
330
E3
100
AcDbEntity
  8
0
  6
Continuous
100
AcDbLine
 10
135.0264962346827
 20
124.825845163167
 30
0.0
 11
134.9943362398042
 21
124.8203749862604
 31
0.0
  0
LINE
  5
470
330
E3
100
AcDbEntity
  8
0
  6
Continuous
100
AcDbLine
 10
134.9943362398042
 20
124.8203749862604
 30
0.0
 11
134.9648681556081
 21
124.8149048093537
 31
0.0
  0
LINE
  5
471
330
E3
100
AcDbEntity
  8
0
  6
Continuous
100
AcDbLine
 10
134.9648681556081
 20
124.8149048093537
 30
0.0
 11
134.9383153153922
 21
124.8094316546698
 31
0.0
  0
LINE
  5
472
330
E3
100
AcDbEntity
  8
0
  6
Continuous
100
AcDbLine
 10
134.9383153153922
 20
124.8094316546698
 30
0.0
 11
134.9148772302359
 21
124.8039614777631
 31
0.0
  0
LINE
  5
473
330
E3
100
AcDbEntity
  8
0
  6
Continuous
100
AcDbLine
 10
134.9148772302359
 20
124.8039614777631
 30
0.0
 11
134.8947355445546
 21
124.7984883230792
 31
0.0
  0
LINE
  5
474
330
E3
100
AcDbEntity
  8
0
  6
Continuous
100
AcDbLine
 10
134.8947355445546
 20
124.7984883230792
 30
0.0
 11
134.8780451027681
 21
124.7930181461726
 31
0.0
  0
LINE
  5
475
330
E3
100
AcDbEntity
  8
0
  6
Continuous
100
AcDbLine
 10
134.8780451027681
 20
124.7930181461726
 30
0.0
 11
134.8649279937459
 21
124.7875479692659
 31
0.0
  0
LINE
  5
476
330
E3
100
AcDbEntity
  8
0
  6
Continuous
100
AcDbLine
 10
134.8649279937459
 20
124.7875479692659
 30
0.0
 11
134.8554854619163
 21
124.7820748145819
 31
0.0
  0
LINE
  5
477
330
E3
100
AcDbEntity
  8
0
  6
Continuous
100
AcDbLine
 10
134.8554854619163
 20
124.7820748145819
 30
0.0
 11
134.8497928433983
 21
124.7766042025036
 31
0.0
  0
LINE
  5
478
330
E3
100
AcDbEntity
  8
0
  6
Continuous
100
AcDbLine
 10
134.8497928433983
 20
124.7766042025036
 30
0.0
 11
134.8478901924441
 21
124.7711328220323
 31
0.0
  0
LINE
  5
479
330
E3
100
AcDbEntity
  8
0
  6
Continuous
100
AcDbLine
 10
135.847890192444
 20
124.5741631250626
 30
0.0
 11
135.8459875414899
 21
124.5686917445912
 31
0.0
  0
LINE
  5
47A
330
E3
100
AcDbEntity
  8
0
  6
Continuous
100
AcDbLine
 10
135.8459875414899
 20
124.5686917445912
 30
0.0
 11
135.8402940689503
 21
124.5632203641198
 31
0.0
  0
LINE
  5
47B
330
E3
100
AcDbEntity
  8
0
  6
Continuous
100
AcDbLine
 10
135.8402940689503
 20
124.5632203641198
 30
0.0
 11
135.8308534399215
 21
124.5577499169725
 31
0.0
  0
LINE
  5
47C
330
E3
100
AcDbEntity
  8
0
  6
Continuous
100
AcDbLine
 10
135.8308534399215
 20
124.5577499169725
 30
0.0
 11
135.8177363308993
 21
124.5522767622886
 31
0.0
  0
LINE
  5
47D
330
E3
100
AcDbEntity
  8
0
  6
Continuous
100
AcDbLine
 10
135.8177363308993
 20
124.5522767622886
 30
0.0
 11
135.8010429113355
 21
124.5468065853819
 31
0.0
  0
LINE
  5
47E
330
E3
100
AcDbEntity
  8
0
  6
Continuous
100
AcDbLine
 10
135.8010429113355
 20
124.5468065853819
 30
0.0
 11
135.7809042034315
 21
124.541333430698
 31
0.0
  0
LINE
  5
47F
330
E3
100
AcDbEntity
  8
0
  6
Continuous
100
AcDbLine
 10
135.7809042034315
 20
124.541333430698
 30
0.0
 11
135.7574661182751
 21
124.5358632537913
 31
0.0
  0
LINE
  5
480
330
E3
100
AcDbEntity
  8
0
  6
Continuous
100
AcDbLine
 10
135.7574661182751
 20
124.5358632537913
 30
0.0
 11
135.7309132780593
 21
124.5303930768847
 31
0.0
  0
LINE
  5
481
330
E3
100
AcDbEntity
  8
0
  6
Continuous
100
AcDbLine
 10
135.7309132780593
 20
124.5303930768847
 30
0.0
 11
135.7014422160859
 21
124.5249199222007
 31
0.0
  0
LINE
  5
482
330
E3
100
AcDbEntity
  8
0
  6
Continuous
100
AcDbLine
 10
135.7014422160859
 20
124.5249199222007
 30
0.0
 11
135.6692851989847
 21
124.5194497452941
 31
0.0
  0
LINE
  5
483
330
E3
100
AcDbEntity
  8
0
  6
Continuous
100
AcDbLine
 10
135.6692851989847
 20
124.5194497452941
 30
0.0
 11
135.6346774711627
 21
124.5139765906101
 31
0.0
  0
LINE
  5
484
330
E3
100
AcDbEntity
  8
0
  6
Continuous
100
AcDbLine
 10
135.6346774711627
 20
124.5139765906101
 30
0.0
 11
135.5978900103544
 21
124.5085064137035
 31
0.0
  0
LINE
  5
485
330
E3
100
AcDbEntity
  8
0
  6
Continuous
100
AcDbLine
 10
135.5978900103544
 20
124.5085064137035
 30
0.0
 11
135.5591997498492
 21
124.5030362367968
 31
0.0
  0
LINE
  5
486
330
E3
100
AcDbEntity
  8
0
  6
Continuous
100
AcDbLine
 10
135.5591997498492
 20
124.5030362367968
 30
0.0
 11
135.5189014896001
 21
124.4975630821129
 31
0.0
  0
LINE
  5
487
330
E3
100
AcDbEntity
  8
0
  6
Continuous
100
AcDbLine
 10
135.5189014896001
 20
124.4975630821129
 30
0.0
 11
135.477298962892
 21
124.4920929052062
 31
0.0
  0
LINE
  5
488
330
E3
100
AcDbEntity
  8
0
  6
Continuous
100
AcDbLine
 10
135.477298962892
 20
124.4920929052062
 30
0.0
 11
135.4347137696737
 21
124.4866197505223
 31
0.0
  0
LINE
  5
489
330
E3
100
AcDbEntity
  8
0
  6
Continuous
100
AcDbLine
 10
135.4347137696737
 20
124.4866197505223
 30
0.0
 11
135.3914675098941
 21
124.4811495736156
 31
0.0
  0
LINE
  5
48A
330
E3
100
AcDbEntity
  8
0
  6
Continuous
100
AcDbLine
 10
135.3914675098941
 20
124.4811495736156
 30
0.0
 11
135.3478907168337
 21
124.475679396709
 31
0.0
  0
LINE
  5
48B
330
E3
100
AcDbEntity
  8
0
  6
Continuous
100
AcDbLine
 10
135.3478907168337
 20
124.475679396709
 30
0.0
 11
135.304310945996
 21
124.4702062420251
 31
0.0
  0
LINE
  5
48C
330
E3
100
AcDbEntity
  8
0
  6
Continuous
100
AcDbLine
 10
135.304310945996
 20
124.4702062420251
 30
0.0
 11
135.2610646862164
 21
124.4647360651184
 31
0.0
  0
LINE
  5
48D
330
E3
100
AcDbEntity
  8
0
  6
Continuous
100
AcDbLine
 10
135.2610646862164
 20
124.4647360651184
 30
0.0
 11
135.2184794929981
 21
124.4592629104344
 31
0.0
  0
LINE
  5
48E
330
E3
100
AcDbEntity
  8
0
  6
Continuous
100
AcDbLine
 10
135.2184794929981
 20
124.4592629104344
 30
0.0
 11
135.1768799440673
 21
124.4537927335278
 31
0.0
  0
LINE
  5
48F
330
E3
100
AcDbEntity
  8
0
  6
Continuous
100
AcDbLine
 10
135.1768799440673
 20
124.4537927335278
 30
0.0
 11
135.1365816838182
 21
124.4483225566212
 31
0.0
  0
LINE
  5
490
330
E3
100
AcDbEntity
  8
0
  6
Continuous
100
AcDbLine
 10
135.1365816838182
 20
124.4483225566212
 30
0.0
 11
135.097891423313
 21
124.4428494019372
 31
0.0
  0
LINE
  5
491
330
E3
100
AcDbEntity
  8
0
  6
Continuous
100
AcDbLine
 10
135.097891423313
 20
124.4428494019372
 30
0.0
 11
135.0611009847274
 21
124.4373792250306
 31
0.0
  0
LINE
  5
492
330
E3
100
AcDbEntity
  8
0
  6
Continuous
100
AcDbLine
 10
135.0611009847274
 20
124.4373792250306
 30
0.0
 11
135.0264962346827
 21
124.4319060703466
 31
0.0
  0
LINE
  5
493
330
E3
100
AcDbEntity
  8
0
  6
Continuous
100
AcDbLine
 10
135.0264962346827
 20
124.4319060703466
 30
0.0
 11
134.9943362398042
 21
124.42643589344
 31
0.0
  0
LINE
  5
494
330
E3
100
AcDbEntity
  8
0
  6
Continuous
100
AcDbLine
 10
134.9943362398042
 20
124.42643589344
 30
0.0
 11
134.9648681556081
 21
124.4209657165333
 31
0.0
  0
LINE
  5
495
330
E3
100
AcDbEntity
  8
0
  6
Continuous
100
AcDbLine
 10
134.9648681556081
 20
124.4209657165333
 30
0.0
 11
134.9383153153922
 21
124.4154925618493
 31
0.0
  0
LINE
  5
496
330
E3
100
AcDbEntity
  8
0
  6
Continuous
100
AcDbLine
 10
134.9383153153922
 20
124.4154925618493
 30
0.0
 11
134.9148772302359
 21
124.4100223849427
 31
0.0
  0
LINE
  5
497
330
E3
100
AcDbEntity
  8
0
  6
Continuous
100
AcDbLine
 10
134.9148772302359
 20
124.4100223849427
 30
0.0
 11
134.8947355445546
 21
124.4045492302588
 31
0.0
  0
LINE
  5
498
330
E3
100
AcDbEntity
  8
0
  6
Continuous
100
AcDbLine
 10
134.8947355445546
 20
124.4045492302588
 30
0.0
 11
134.8780451027681
 21
124.3990790533521
 31
0.0
  0
LINE
  5
499
330
E3
100
AcDbEntity
  8
0
  6
Continuous
100
AcDbLine
 10
134.8780451027681
 20
124.3990790533521
 30
0.0
 11
134.8649279937459
 21
124.3936088764454
 31
0.0
  0
LINE
  5
49A
330
E3
100
AcDbEntity
  8
0
  6
Continuous
100
AcDbLine
 10
134.8649279937459
 20
124.3936088764454
 30
0.0
 11
134.8554854619163
 21
124.3881357217615
 31
0.0
  0
LINE
  5
49B
330
E3
100
AcDbEntity
  8
0
  6
Continuous
100
AcDbLine
 10
134.8554854619163
 20
124.3881357217615
 30
0.0
 11
134.8497928433983
 21
124.3826648085642
 31
0.0
  0
LINE
  5
49C
330
E3
100
AcDbEntity
  8
0
  6
Continuous
100
AcDbLine
 10
134.8497928433983
 20
124.3826648085642
 30
0.0
 11
134.8478901924441
 21
124.3771934280929
 31
0.0
  0
LINE
  5
49D
330
E3
100
AcDbEntity
  8
0
  6
Continuous
100
AcDbLine
 10
135.847890192444
 20
124.1802237311232
 30
0.0
 11
135.8459875414899
 21
124.1747523506518
 31
0.0
  0
LINE
  5
49E
330
E3
100
AcDbEntity
  8
0
  6
Continuous
100
AcDbLine
 10
135.8459875414899
 20
124.1747523506518
 30
0.0
 11
135.8402940689503
 21
124.1692809701804
 31
0.0
  0
LINE
  5
49F
330
E3
100
AcDbEntity
  8
0
  6
Continuous
100
AcDbLine
 10
135.8402940689503
 20
124.1692809701804
 30
0.0
 11
135.8308534399215
 21
124.1638108241521
 31
0.0
  0
LINE
  5
4A0
330
E3
100
AcDbEntity
  8
0
  6
Continuous
100
AcDbLine
 10
135.8308534399215
 20
124.1638108241521
 30
0.0
 11
135.8177363308993
 21
124.1583376694682
 31
0.0
  0
LINE
  5
4A1
330
E3
100
AcDbEntity
  8
0
  6
Continuous
100
AcDbLine
 10
135.8177363308993
 20
124.1583376694682
 30
0.0
 11
135.8010429113355
 21
124.1528674925615
 31
0.0
  0
LINE
  5
4A2
330
E3
100
AcDbEntity
  8
0
  6
Continuous
100
AcDbLine
 10
135.8010429113355
 20
124.1528674925615
 30
0.0
 11
135.7809042034315
 21
124.1473943378775
 31
0.0
  0
LINE
  5
4A3
330
E3
100
AcDbEntity
  8
0
  6
Continuous
100
AcDbLine
 10
135.7809042034315
 20
124.1473943378775
 30
0.0
 11
135.7574661182751
 21
124.1419241609709
 31
0.0
  0
LINE
  5
4A4
330
E3
100
AcDbEntity
  8
0
  6
Continuous
100
AcDbLine
 10
135.7574661182751
 20
124.1419241609709
 30
0.0
 11
135.7309132780593
 21
124.1364539840643
 31
0.0
  0
LINE
  5
4A5
330
E3
100
AcDbEntity
  8
0
  6
Continuous
100
AcDbLine
 10
135.7309132780593
 20
124.1364539840643
 30
0.0
 11
135.7014422160859
 21
124.1309808293803
 31
0.0
  0
LINE
  5
4A6
330
E3
100
AcDbEntity
  8
0
  6
Continuous
100
AcDbLine
 10
135.7014422160859
 20
124.1309808293803
 30
0.0
 11
135.6692851989847
 21
124.1255106524736
 31
0.0
  0
LINE
  5
4A7
330
E3
100
AcDbEntity
  8
0
  6
Continuous
100
AcDbLine
 10
135.6692851989847
 20
124.1255106524736
 30
0.0
 11
135.6346774711627
 21
124.1200374977897
 31
0.0
  0
LINE
  5
4A8
330
E3
100
AcDbEntity
  8
0
  6
Continuous
100
AcDbLine
 10
135.6346774711627
 20
124.1200374977897
 30
0.0
 11
135.5978900103544
 21
124.1145673208831
 31
0.0
  0
LINE
  5
4A9
330
E3
100
AcDbEntity
  8
0
  6
Continuous
100
AcDbLine
 10
135.5978900103544
 20
124.1145673208831
 30
0.0
 11
135.5591997498492
 21
124.1090971439764
 31
0.0
  0
LINE
  5
4AA
330
E3
100
AcDbEntity
  8
0
  6
Continuous
100
AcDbLine
 10
135.5591997498492
 20
124.1090971439764
 30
0.0
 11
135.5189014896001
 21
124.1036239892925
 31
0.0
  0
LINE
  5
4AB
330
E3
100
AcDbEntity
  8
0
  6
Continuous
100
AcDbLine
 10
135.5189014896001
 20
124.1036239892925
 30
0.0
 11
135.477298962892
 21
124.0981538123858
 31
0.0
  0
LINE
  5
4AC
330
E3
100
AcDbEntity
  8
0
  6
Continuous
100
AcDbLine
 10
135.477298962892
 20
124.0981538123858
 30
0.0
 11
135.4347137696737
 21
124.0926806577018
 31
0.0
  0
LINE
  5
4AD
330
E3
100
AcDbEntity
  8
0
  6
Continuous
100
AcDbLine
 10
135.4347137696737
 20
124.0926806577018
 30
0.0
 11
135.3914675098941
 21
124.0872104807952
 31
0.0
  0
LINE
  5
4AE
330
E3
100
AcDbEntity
  8
0
  6
Continuous
100
AcDbLine
 10
135.3914675098941
 20
124.0872104807952
 30
0.0
 11
135.3478907168337
 21
124.0817403038886
 31
0.0
  0
LINE
  5
4AF
330
E3
100
AcDbEntity
  8
0
  6
Continuous
100
AcDbLine
 10
135.3478907168337
 20
124.0817403038886
 30
0.0
 11
135.304310945996
 21
124.0762671492046
 31
0.0
  0
LINE
  5
4B0
330
E3
100
AcDbEntity
  8
0
  6
Continuous
100
AcDbLine
 10
135.304310945996
 20
124.0762671492046
 30
0.0
 11
135.2610646862164
 21
124.070796972298
 31
0.0
  0
LINE
  5
4B1
330
E3
100
AcDbEntity
  8
0
  6
Continuous
100
AcDbLine
 10
135.2610646862164
 20
124.070796972298
 30
0.0
 11
135.2184794929981
 21
124.065323817614
 31
0.0
  0
LINE
  5
4B2
330
E3
100
AcDbEntity
  8
0
  6
Continuous
100
AcDbLine
 10
135.2184794929981
 20
124.065323817614
 30
0.0
 11
135.1768799440673
 21
124.0598536407074
 31
0.0
  0
LINE
  5
4B3
330
E3
100
AcDbEntity
  8
0
  6
Continuous
100
AcDbLine
 10
135.1768799440673
 20
124.0598536407074
 30
0.0
 11
135.1365816838182
 21
124.0543834638007
 31
0.0
  0
LINE
  5
4B4
330
E3
100
AcDbEntity
  8
0
  6
Continuous
100
AcDbLine
 10
135.1365816838182
 20
124.0543834638007
 30
0.0
 11
135.097891423313
 21
124.0489103091168
 31
0.0
  0
LINE
  5
4B5
330
E3
100
AcDbEntity
  8
0
  6
Continuous
100
AcDbLine
 10
135.097891423313
 20
124.0489103091168
 30
0.0
 11
135.0611009847274
 21
124.0434401322101
 31
0.0
  0
LINE
  5
4B6
330
E3
100
AcDbEntity
  8
0
  6
Continuous
100
AcDbLine
 10
135.0611009847274
 20
124.0434401322101
 30
0.0
 11
135.0264962346827
 21
124.0379669775262
 31
0.0
  0
LINE
  5
4B7
330
E3
100
AcDbEntity
  8
0
  6
Continuous
100
AcDbLine
 10
135.0264962346827
 20
124.0379669775262
 30
0.0
 11
134.9943362398042
 21
124.0324968006195
 31
0.0
  0
LINE
  5
4B8
330
E3
100
AcDbEntity
  8
0
  6
Continuous
100
AcDbLine
 10
134.9943362398042
 20
124.0324968006195
 30
0.0
 11
134.9648681556081
 21
124.0270236459356
 31
0.0
  0
LINE
  5
4B9
330
E3
100
AcDbEntity
  8
0
  6
Continuous
100
AcDbLine
 10
134.9648681556081
 20
124.0270236459356
 30
0.0
 11
134.9383153153922
 21
124.0215534690289
 31
0.0
  0
LINE
  5
4BA
330
E3
100
AcDbEntity
  8
0
  6
Continuous
100
AcDbLine
 10
134.9383153153922
 20
124.0215534690289
 30
0.0
 11
134.9148772302359
 21
124.0160832921223
 31
0.0
  0
LINE
  5
4BB
330
E3
100
AcDbEntity
  8
0
  6
Continuous
100
AcDbLine
 10
134.9148772302359
 20
124.0160832921223
 30
0.0
 11
134.8947355445546
 21
124.0106101374383
 31
0.0
  0
LINE
  5
4BC
330
E3
100
AcDbEntity
  8
0
  6
Continuous
100
AcDbLine
 10
134.8947355445546
 20
124.0106101374383
 30
0.0
 11
134.8780451027681
 21
124.0051399605317
 31
0.0
  0
LINE
  5
4BD
330
E3
100
AcDbEntity
  8
0
  6
Continuous
100
AcDbLine
 10
134.8780451027681
 20
124.0051399605317
 30
0.0
 11
134.8649279937459
 21
123.9996668058477
 31
0.0
  0
LINE
  5
4BE
330
E3
100
AcDbEntity
  8
0
  6
Continuous
100
AcDbLine
 10
134.8649279937459
 20
123.9996668058477
 30
0.0
 11
134.8554854619163
 21
123.9941966289411
 31
0.0
  0
LINE
  5
4BF
330
E3
100
AcDbEntity
  8
0
  6
Continuous
100
AcDbLine
 10
134.8554854619163
 20
123.9941966289411
 30
0.0
 11
134.8497928433983
 21
123.9887254146249
 31
0.0
  0
LINE
  5
4C0
330
E3
100
AcDbEntity
  8
0
  6
Continuous
100
AcDbLine
 10
134.8497928433983
 20
123.9887254146249
 30
0.0
 11
134.8478901924441
 21
123.9832540341535
 31
0.0
  0
LINE
  5
4C1
330
E3
100
AcDbEntity
  8
0
  6
Continuous
100
AcDbLine
 10
135.847890192444
 20
123.7862843371838
 30
0.0
 11
135.8459875414899
 21
123.7808129567124
 31
0.0
  0
LINE
  5
4C2
330
E3
100
AcDbEntity
  8
0
  6
Continuous
100
AcDbLine
 10
135.8459875414899
 20
123.7808129567124
 30
0.0
 11
135.8402940689503
 21
123.775341576241
 31
0.0
  0
LINE
  5
4C3
330
E3
100
AcDbEntity
  8
0
  6
Continuous
100
AcDbLine
 10
135.8402940689503
 20
123.775341576241
 30
0.0
 11
135.8308534399215
 21
123.7698687535544
 31
0.0
  0
LINE
  5
4C4
330
E3
100
AcDbEntity
  8
0
  6
Continuous
100
AcDbLine
 10
135.8308534399215
 20
123.7698687535544
 30
0.0
 11
135.8177363308993
 21
123.7643985766477
 31
0.0
  0
LINE
  5
4C5
330
E3
100
AcDbEntity
  8
0
  6
Continuous
100
AcDbLine
 10
135.8177363308993
 20
123.7643985766477
 30
0.0
 11
135.8010429113355
 21
123.7589283997411
 31
0.0
  0
LINE
  5
4C6
330
E3
100
AcDbEntity
  8
0
  6
Continuous
100
AcDbLine
 10
135.8010429113355
 20
123.7589283997411
 30
0.0
 11
135.7809042034315
 21
123.7534552450571
 31
0.0
  0
LINE
  5
4C7
330
E3
100
AcDbEntity
  8
0
  6
Continuous
100
AcDbLine
 10
135.7809042034315
 20
123.7534552450571
 30
0.0
 11
135.7574661182751
 21
123.7479850681505
 31
0.0
  0
LINE
  5
4C8
330
E3
100
AcDbEntity
  8
0
  6
Continuous
100
AcDbLine
 10
135.7574661182751
 20
123.7479850681505
 30
0.0
 11
135.7309132780593
 21
123.7425119134665
 31
0.0
  0
LINE
  5
4C9
330
E3
100
AcDbEntity
  8
0
  6
Continuous
100
AcDbLine
 10
135.7309132780593
 20
123.7425119134665
 30
0.0
 11
135.7014422160859
 21
123.7370417365599
 31
0.0
  0
LINE
  5
4CA
330
E3
100
AcDbEntity
  8
0
  6
Continuous
100
AcDbLine
 10
135.7014422160859
 20
123.7370417365599
 30
0.0
 11
135.6692851989847
 21
123.7315715596532
 31
0.0
  0
LINE
  5
4CB
330
E3
100
AcDbEntity
  8
0
  6
Continuous
100
AcDbLine
 10
135.6692851989847
 20
123.7315715596532
 30
0.0
 11
135.6346774711627
 21
123.7260984049693
 31
0.0
  0
LINE
  5
4CC
330
E3
100
AcDbEntity
  8
0
  6
Continuous
100
AcDbLine
 10
135.6346774711627
 20
123.7260984049693
 30
0.0
 11
135.5978900103544
 21
123.7206282280626
 31
0.0
  0
LINE
  5
4CD
330
E3
100
AcDbEntity
  8
0
  6
Continuous
100
AcDbLine
 10
135.5978900103544
 20
123.7206282280626
 30
0.0
 11
135.5591997498492
 21
123.7151550733787
 31
0.0
  0
LINE
  5
4CE
330
E3
100
AcDbEntity
  8
0
  6
Continuous
100
AcDbLine
 10
135.5591997498492
 20
123.7151550733787
 30
0.0
 11
135.5189014896001
 21
123.709684896472
 31
0.0
  0
LINE
  5
4CF
330
E3
100
AcDbEntity
  8
0
  6
Continuous
100
AcDbLine
 10
135.5189014896001
 20
123.709684896472
 30
0.0
 11
135.477298962892
 21
123.7042147195654
 31
0.0
  0
LINE
  5
4D0
330
E3
100
AcDbEntity
  8
0
  6
Continuous
100
AcDbLine
 10
135.477298962892
 20
123.7042147195654
 30
0.0
 11
135.4347137696737
 21
123.6987415648814
 31
0.0
  0
LINE
  5
4D1
330
E3
100
AcDbEntity
  8
0
  6
Continuous
100
AcDbLine
 10
135.4347137696737
 20
123.6987415648814
 30
0.0
 11
135.3914675098941
 21
123.6932713879748
 31
0.0
  0
LINE
  5
4D2
330
E3
100
AcDbEntity
  8
0
  6
Continuous
100
AcDbLine
 10
135.3914675098941
 20
123.6932713879748
 30
0.0
 11
135.3478907168337
 21
123.6877982332908
 31
0.0
  0
LINE
  5
4D3
330
E3
100
AcDbEntity
  8
0
  6
Continuous
100
AcDbLine
 10
135.3478907168337
 20
123.6877982332908
 30
0.0
 11
135.304310945996
 21
123.6823280563842
 31
0.0
  0
LINE
  5
4D4
330
E3
100
AcDbEntity
  8
0
  6
Continuous
100
AcDbLine
 10
135.304310945996
 20
123.6823280563842
 30
0.0
 11
135.2610646862164
 21
123.6768578794775
 31
0.0
  0
LINE
  5
4D5
330
E3
100
AcDbEntity
  8
0
  6
Continuous
100
AcDbLine
 10
135.2610646862164
 20
123.6768578794775
 30
0.0
 11
135.2184794929981
 21
123.6713847247936
 31
0.0
  0
LINE
  5
4D6
330
E3
100
AcDbEntity
  8
0
  6
Continuous
100
AcDbLine
 10
135.2184794929981
 20
123.6713847247936
 30
0.0
 11
135.1768799440673
 21
123.6659145478869
 31
0.0
  0
LINE
  5
4D7
330
E3
100
AcDbEntity
  8
0
  6
Continuous
100
AcDbLine
 10
135.1768799440673
 20
123.6659145478869
 30
0.0
 11
135.1365816838182
 21
123.660441393203
 31
0.0
  0
LINE
  5
4D8
330
E3
100
AcDbEntity
  8
0
  6
Continuous
100
AcDbLine
 10
135.1365816838182
 20
123.660441393203
 30
0.0
 11
135.097891423313
 21
123.6549712162963
 31
0.0
  0
LINE
  5
4D9
330
E3
100
AcDbEntity
  8
0
  6
Continuous
100
AcDbLine
 10
135.097891423313
 20
123.6549712162963
 30
0.0
 11
135.0611009847274
 21
123.6495010393897
 31
0.0
  0
LINE
  5
4DA
330
E3
100
AcDbEntity
  8
0
  6
Continuous
100
AcDbLine
 10
135.0611009847274
 20
123.6495010393897
 30
0.0
 11
135.0264962346827
 21
123.6440278847057
 31
0.0
  0
LINE
  5
4DB
330
E3
100
AcDbEntity
  8
0
  6
Continuous
100
AcDbLine
 10
135.0264962346827
 20
123.6440278847057
 30
0.0
 11
134.9943362398042
 21
123.6385577077991
 31
0.0
  0
LINE
  5
4DC
330
E3
100
AcDbEntity
  8
0
  6
Continuous
100
AcDbLine
 10
134.9943362398042
 20
123.6385577077991
 30
0.0
 11
134.9648681556081
 21
123.6330845531151
 31
0.0
  0
LINE
  5
4DD
330
E3
100
AcDbEntity
  8
0
  6
Continuous
100
AcDbLine
 10
134.9648681556081
 20
123.6330845531151
 30
0.0
 11
134.9383153153922
 21
123.6276143762085
 31
0.0
  0
LINE
  5
4DE
330
E3
100
AcDbEntity
  8
0
  6
Continuous
100
AcDbLine
 10
134.9383153153922
 20
123.6276143762085
 30
0.0
 11
134.9148772302359
 21
123.6221441993018
 31
0.0
  0
LINE
  5
4DF
330
E3
100
AcDbEntity
  8
0
  6
Continuous
100
AcDbLine
 10
134.9148772302359
 20
123.6221441993018
 30
0.0
 11
134.8947355445546
 21
123.6166710446179
 31
0.0
  0
LINE
  5
4E0
330
E3
100
AcDbEntity
  8
0
  6
Continuous
100
AcDbLine
 10
134.8947355445546
 20
123.6166710446179
 30
0.0
 11
134.8780451027681
 21
123.6112008677112
 31
0.0
  0
LINE
  5
4E1
330
E3
100
AcDbEntity
  8
0
  6
Continuous
100
AcDbLine
 10
134.8780451027681
 20
123.6112008677112
 30
0.0
 11
134.8649279937459
 21
123.6057277130273
 31
0.0
  0
LINE
  5
4E2
330
E3
100
AcDbEntity
  8
0
  6
Continuous
100
AcDbLine
 10
134.8649279937459
 20
123.6057277130273
 30
0.0
 11
134.8554854619163
 21
123.6002575361206
 31
0.0
  0
LINE
  5
4E3
330
E3
100
AcDbEntity
  8
0
  6
Continuous
100
AcDbLine
 10
134.8554854619163
 20
123.6002575361206
 30
0.0
 11
134.8497928433983
 21
123.5947860206855
 31
0.0
  0
LINE
  5
4E4
330
E3
100
AcDbEntity
  8
0
  6
Continuous
100
AcDbLine
 10
134.8497928433983
 20
123.5947860206855
 30
0.0
 11
134.8478901924441
 21
123.5893146402141
 31
0.0
  0
LINE
  5
4E5
330
E3
100
AcDbEntity
  8
0
  6
Continuous
100
AcDbLine
 10
135.847890192444
 20
123.3923449432444
 30
0.0
 11
135.8459875414899
 21
123.386873562773
 31
0.0
  0
LINE
  5
4E6
330
E3
100
AcDbEntity
  8
0
  6
Continuous
100
AcDbLine
 10
135.8459875414899
 20
123.386873562773
 30
0.0
 11
135.8402940689503
 21
123.3814021823016
 31
0.0
  0
LINE
  5
4E7
330
E3
100
AcDbEntity
  8
0
  6
Continuous
100
AcDbLine
 10
135.8402940689503
 20
123.3814021823016
 30
0.0
 11
135.8308534399215
 21
123.3759296607339
 31
0.0
  0
LINE
  5
4E8
330
E3
100
AcDbEntity
  8
0
  6
Continuous
100
AcDbLine
 10
135.8308534399215
 20
123.3759296607339
 30
0.0
 11
135.8177363308993
 21
123.3704594838273
 31
0.0
  0
LINE
  5
4E9
330
E3
100
AcDbEntity
  8
0
  6
Continuous
100
AcDbLine
 10
135.8177363308993
 20
123.3704594838273
 30
0.0
 11
135.8010429113355
 21
123.3649893069206
 31
0.0
  0
LINE
  5
4EA
330
E3
100
AcDbEntity
  8
0
  6
Continuous
100
AcDbLine
 10
135.8010429113355
 20
123.3649893069206
 30
0.0
 11
135.7809042034315
 21
123.3595161522367
 31
0.0
  0
LINE
  5
4EB
330
E3
100
AcDbEntity
  8
0
  6
Continuous
100
AcDbLine
 10
135.7809042034315
 20
123.3595161522367
 30
0.0
 11
135.7574661182751
 21
123.35404597533
 31
0.0
  0
LINE
  5
4EC
330
E3
100
AcDbEntity
  8
0
  6
Continuous
100
AcDbLine
 10
135.7574661182751
 20
123.35404597533
 30
0.0
 11
135.7309132780593
 21
123.3485728206461
 31
0.0
  0
LINE
  5
4ED
330
E3
100
AcDbEntity
  8
0
  6
Continuous
100
AcDbLine
 10
135.7309132780593
 20
123.3485728206461
 30
0.0
 11
135.7014422160859
 21
123.3431026437394
 31
0.0
  0
LINE
  5
4EE
330
E3
100
AcDbEntity
  8
0
  6
Continuous
100
AcDbLine
 10
135.7014422160859
 20
123.3431026437394
 30
0.0
 11
135.6692851989847
 21
123.3376324668328
 31
0.0
  0
LINE
  5
4EF
330
E3
100
AcDbEntity
  8
0
  6
Continuous
100
AcDbLine
 10
135.6692851989847
 20
123.3376324668328
 30
0.0
 11
135.6346774711627
 21
123.3321593121488
 31
0.0
  0
LINE
  5
4F0
330
E3
100
AcDbEntity
  8
0
  6
Continuous
100
AcDbLine
 10
135.6346774711627
 20
123.3321593121488
 30
0.0
 11
135.5978900103544
 21
123.3266891352422
 31
0.0
  0
LINE
  5
4F1
330
E3
100
AcDbEntity
  8
0
  6
Continuous
100
AcDbLine
 10
135.5978900103544
 20
123.3266891352422
 30
0.0
 11
135.5591997498492
 21
123.3212159805582
 31
0.0
  0
LINE
  5
4F2
330
E3
100
AcDbEntity
  8
0
  6
Continuous
100
AcDbLine
 10
135.5591997498492
 20
123.3212159805582
 30
0.0
 11
135.5189014896001
 21
123.3157458036516
 31
0.0
  0
LINE
  5
4F3
330
E3
100
AcDbEntity
  8
0
  6
Continuous
100
AcDbLine
 10
135.5189014896001
 20
123.3157458036516
 30
0.0
 11
135.477298962892
 21
123.3102756267449
 31
0.0
  0
LINE
  5
4F4
330
E3
100
AcDbEntity
  8
0
  6
Continuous
100
AcDbLine
 10
135.477298962892
 20
123.3102756267449
 30
0.0
 11
135.4347137696737
 21
123.304802472061
 31
0.0
  0
LINE
  5
4F5
330
E3
100
AcDbEntity
  8
0
  6
Continuous
100
AcDbLine
 10
135.4347137696737
 20
123.304802472061
 30
0.0
 11
135.3914675098941
 21
123.2993322951543
 31
0.0
  0
LINE
  5
4F6
330
E3
100
AcDbEntity
  8
0
  6
Continuous
100
AcDbLine
 10
135.3914675098941
 20
123.2993322951543
 30
0.0
 11
135.3478907168337
 21
123.2938591404704
 31
0.0
  0
LINE
  5
4F7
330
E3
100
AcDbEntity
  8
0
  6
Continuous
100
AcDbLine
 10
135.3478907168337
 20
123.2938591404704
 30
0.0
 11
135.304310945996
 21
123.2883889635637
 31
0.0
  0
LINE
  5
4F8
330
E3
100
AcDbEntity
  8
0
  6
Continuous
100
AcDbLine
 10
135.304310945996
 20
123.2883889635637
 30
0.0
 11
135.2610646862164
 21
123.2829187866571
 31
0.0
  0
LINE
  5
4F9
330
E3
100
AcDbEntity
  8
0
  6
Continuous
100
AcDbLine
 10
135.2610646862164
 20
123.2829187866571
 30
0.0
 11
135.2184794929981
 21
123.2774456319731
 31
0.0
  0
LINE
  5
4FA
330
E3
100
AcDbEntity
  8
0
  6
Continuous
100
AcDbLine
 10
135.2184794929981
 20
123.2774456319731
 30
0.0
 11
135.1768799440673
 21
123.2719754550665
 31
0.0
  0
LINE
  5
4FB
330
E3
100
AcDbEntity
  8
0
  6
Continuous
100
AcDbLine
 10
135.1768799440673
 20
123.2719754550665
 30
0.0
 11
135.1365816838182
 21
123.2665023003825
 31
0.0
  0
LINE
  5
4FC
330
E3
100
AcDbEntity
  8
0
  6
Continuous
100
AcDbLine
 10
135.1365816838182
 20
123.2665023003825
 30
0.0
 11
135.097891423313
 21
123.2610321234759
 31
0.0
  0
LINE
  5
4FD
330
E3
100
AcDbEntity
  8
0
  6
Continuous
100
AcDbLine
 10
135.097891423313
 20
123.2610321234759
 30
0.0
 11
135.0611009847274
 21
123.2555589687919
 31
0.0
  0
LINE
  5
4FE
330
E3
100
AcDbEntity
  8
0
  6
Continuous
100
AcDbLine
 10
135.0611009847274
 20
123.2555589687919
 30
0.0
 11
135.0264962346827
 21
123.2500887918853
 31
0.0
  0
LINE
  5
4FF
330
E3
100
AcDbEntity
  8
0
  6
Continuous
100
AcDbLine
 10
135.0264962346827
 20
123.2500887918853
 30
0.0
 11
134.9943362398042
 21
123.2446186149786
 31
0.0
  0
LINE
  5
500
330
E3
100
AcDbEntity
  8
0
  6
Continuous
100
AcDbLine
 10
134.9943362398042
 20
123.2446186149786
 30
0.0
 11
134.9648681556081
 21
123.2391454602947
 31
0.0
  0
LINE
  5
501
330
E3
100
AcDbEntity
  8
0
  6
Continuous
100
AcDbLine
 10
134.9648681556081
 20
123.2391454602947
 30
0.0
 11
134.9383153153922
 21
123.2336752833881
 31
0.0
  0
LINE
  5
502
330
E3
100
AcDbEntity
  8
0
  6
Continuous
100
AcDbLine
 10
134.9383153153922
 20
123.2336752833881
 30
0.0
 11
134.9148772302359
 21
123.2282021287041
 31
0.0
  0
LINE
  5
503
330
E3
100
AcDbEntity
  8
0
  6
Continuous
100
AcDbLine
 10
134.9148772302359
 20
123.2282021287041
 30
0.0
 11
134.8947355445546
 21
123.2227319517974
 31
0.0
  0
LINE
  5
504
330
E3
100
AcDbEntity
  8
0
  6
Continuous
100
AcDbLine
 10
134.8947355445546
 20
123.2227319517974
 30
0.0
 11
134.8780451027681
 21
123.2172617748908
 31
0.0
  0
LINE
  5
505
330
E3
100
AcDbEntity
  8
0
  6
Continuous
100
AcDbLine
 10
134.8780451027681
 20
123.2172617748908
 30
0.0
 11
134.8649279937459
 21
123.2117886202068
 31
0.0
  0
LINE
  5
506
330
E3
100
AcDbEntity
  8
0
  6
Continuous
100
AcDbLine
 10
134.8649279937459
 20
123.2117886202068
 30
0.0
 11
134.8554854619163
 21
123.2063184433002
 31
0.0
  0
LINE
  5
507
330
E3
100
AcDbEntity
  8
0
  6
Continuous
100
AcDbLine
 10
134.8554854619163
 20
123.2063184433002
 30
0.0
 11
134.8497928433983
 21
123.2008466267461
 31
0.0
  0
LINE
  5
508
330
E3
100
AcDbEntity
  8
0
  6
Continuous
100
AcDbLine
 10
134.8497928433983
 20
123.2008466267461
 30
0.0
 11
134.8478901924441
 21
123.1953752462747
 31
0.0
  0
LINE
  5
509
330
E3
100
AcDbEntity
  8
0
  6
Continuous
100
AcDbLine
 10
135.847890192444
 20
122.998405549305
 30
0.0
 11
135.8459875414899
 21
122.9929341688336
 31
0.0
  0
LINE
  5
50A
330
E3
100
AcDbEntity
  8
0
  6
Continuous
100
AcDbLine
 10
135.8459875414899
 20
122.9929341688336
 30
0.0
 11
135.8402940689503
 21
122.9874627883622
 31
0.0
  0
LINE
  5
50B
330
E3
100
AcDbEntity
  8
0
  6
Continuous
100
AcDbLine
 10
135.8402940689503
 20
122.9874627883622
 30
0.0
 11
135.8308534399215
 21
122.9819905679135
 31
0.0
  0
LINE
  5
50C
330
E3
100
AcDbEntity
  8
0
  6
Continuous
100
AcDbLine
 10
135.8308534399215
 20
122.9819905679135
 30
0.0
 11
135.8177363308993
 21
122.9765203910068
 31
0.0
  0
LINE
  5
50D
330
E3
100
AcDbEntity
  8
0
  6
Continuous
100
AcDbLine
 10
135.8177363308993
 20
122.9765203910068
 30
0.0
 11
135.8010429113355
 21
122.9710472363229
 31
0.0
  0
LINE
  5
50E
330
E3
100
AcDbEntity
  8
0
  6
Continuous
100
AcDbLine
 10
135.8010429113355
 20
122.9710472363229
 30
0.0
 11
135.7809042034315
 21
122.9655770594162
 31
0.0
  0
LINE
  5
50F
330
E3
100
AcDbEntity
  8
0
  6
Continuous
100
AcDbLine
 10
135.7809042034315
 20
122.9655770594162
 30
0.0
 11
135.7574661182751
 21
122.9601068825096
 31
0.0
  0
LINE
  5
510
330
E3
100
AcDbEntity
  8
0
  6
Continuous
100
AcDbLine
 10
135.7574661182751
 20
122.9601068825096
 30
0.0
 11
135.7309132780593
 21
122.9546337278256
 31
0.0
  0
LINE
  5
511
330
E3
100
AcDbEntity
  8
0
  6
Continuous
100
AcDbLine
 10
135.7309132780593
 20
122.9546337278256
 30
0.0
 11
135.7014422160859
 21
122.949163550919
 31
0.0
  0
LINE
  5
512
330
E3
100
AcDbEntity
  8
0
  6
Continuous
100
AcDbLine
 10
135.7014422160859
 20
122.949163550919
 30
0.0
 11
135.6692851989847
 21
122.943690396235
 31
0.0
  0
LINE
  5
513
330
E3
100
AcDbEntity
  8
0
  6
Continuous
100
AcDbLine
 10
135.6692851989847
 20
122.943690396235
 30
0.0
 11
135.6346774711627
 21
122.9382202193284
 31
0.0
  0
LINE
  5
514
330
E3
100
AcDbEntity
  8
0
  6
Continuous
100
AcDbLine
 10
135.6346774711627
 20
122.9382202193284
 30
0.0
 11
135.5978900103544
 21
122.9327500424217
 31
0.0
  0
LINE
  5
515
330
E3
100
AcDbEntity
  8
0
  6
Continuous
100
AcDbLine
 10
135.5978900103544
 20
122.9327500424217
 30
0.0
 11
135.5591997498492
 21
122.9272768877378
 31
0.0
  0
LINE
  5
516
330
E3
100
AcDbEntity
  8
0
  6
Continuous
100
AcDbLine
 10
135.5591997498492
 20
122.9272768877378
 30
0.0
 11
135.5189014896001
 21
122.9218067108311
 31
0.0
  0
LINE
  5
517
330
E3
100
AcDbEntity
  8
0
  6
Continuous
100
AcDbLine
 10
135.5189014896001
 20
122.9218067108311
 30
0.0
 11
135.477298962892
 21
122.9163335561472
 31
0.0
  0
LINE
  5
518
330
E3
100
AcDbEntity
  8
0
  6
Continuous
100
AcDbLine
 10
135.477298962892
 20
122.9163335561472
 30
0.0
 11
135.4347137696737
 21
122.9108633792406
 31
0.0
  0
LINE
  5
519
330
E3
100
AcDbEntity
  8
0
  6
Continuous
100
AcDbLine
 10
135.4347137696737
 20
122.9108633792406
 30
0.0
 11
135.3914675098941
 21
122.9053932023339
 31
0.0
  0
LINE
  5
51A
330
E3
100
AcDbEntity
  8
0
  6
Continuous
100
AcDbLine
 10
135.3914675098941
 20
122.9053932023339
 30
0.0
 11
135.3478907168337
 21
122.8999200476499
 31
0.0
  0
LINE
  5
51B
330
E3
100
AcDbEntity
  8
0
  6
Continuous
100
AcDbLine
 10
135.3478907168337
 20
122.8999200476499
 30
0.0
 11
135.304310945996
 21
122.8944498707433
 31
0.0
  0
LINE
  5
51C
330
E3
100
AcDbEntity
  8
0
  6
Continuous
100
AcDbLine
 10
135.304310945996
 20
122.8944498707433
 30
0.0
 11
135.2610646862164
 21
122.8889767160594
 31
0.0
  0
LINE
  5
51D
330
E3
100
AcDbEntity
  8
0
  6
Continuous
100
AcDbLine
 10
135.2610646862164
 20
122.8889767160594
 30
0.0
 11
135.2184794929981
 21
122.8835065391527
 31
0.0
  0
LINE
  5
51E
330
E3
100
AcDbEntity
  8
0
  6
Continuous
100
AcDbLine
 10
135.2184794929981
 20
122.8835065391527
 30
0.0
 11
135.1768799440673
 21
122.8780363622461
 31
0.0
  0
LINE
  5
51F
330
E3
100
AcDbEntity
  8
0
  6
Continuous
100
AcDbLine
 10
135.1768799440673
 20
122.8780363622461
 30
0.0
 11
135.1365816838182
 21
122.8725632075621
 31
0.0
  0
LINE
  5
520
330
E3
100
AcDbEntity
  8
0
  6
Continuous
100
AcDbLine
 10
135.1365816838182
 20
122.8725632075621
 30
0.0
 11
135.097891423313
 21
122.8670930306555
 31
0.0
  0
LINE
  5
521
330
E3
100
AcDbEntity
  8
0
  6
Continuous
100
AcDbLine
 10
135.097891423313
 20
122.8670930306555
 30
0.0
 11
135.0611009847274
 21
122.8616198759715
 31
0.0
  0
LINE
  5
522
330
E3
100
AcDbEntity
  8
0
  6
Continuous
100
AcDbLine
 10
135.0611009847274
 20
122.8616198759715
 30
0.0
 11
135.0264962346827
 21
122.8561496990649
 31
0.0
  0
LINE
  5
523
330
E3
100
AcDbEntity
  8
0
  6
Continuous
100
AcDbLine
 10
135.0264962346827
 20
122.8561496990649
 30
0.0
 11
134.9943362398042
 21
122.8506795221582
 31
0.0
  0
LINE
  5
524
330
E3
100
AcDbEntity
  8
0
  6
Continuous
100
AcDbLine
 10
134.9943362398042
 20
122.8506795221582
 30
0.0
 11
134.9648681556081
 21
122.8452063674743
 31
0.0
  0
LINE
  5
525
330
E3
100
AcDbEntity
  8
0
  6
Continuous
100
AcDbLine
 10
134.9648681556081
 20
122.8452063674743
 30
0.0
 11
134.9383153153922
 21
122.8397361905676
 31
0.0
  0
LINE
  5
526
330
E3
100
AcDbEntity
  8
0
  6
Continuous
100
AcDbLine
 10
134.9383153153922
 20
122.8397361905676
 30
0.0
 11
134.9148772302359
 21
122.8342630358837
 31
0.0
  0
LINE
  5
527
330
E3
100
AcDbEntity
  8
0
  6
Continuous
100
AcDbLine
 10
134.9148772302359
 20
122.8342630358837
 30
0.0
 11
134.8947355445546
 21
122.828792858977
 31
0.0
  0
LINE
  5
528
330
E3
100
AcDbEntity
  8
0
  6
Continuous
100
AcDbLine
 10
134.8947355445546
 20
122.828792858977
 30
0.0
 11
134.8780451027681
 21
122.8233226820704
 31
0.0
  0
LINE
  5
529
330
E3
100
AcDbEntity
  8
0
  6
Continuous
100
AcDbLine
 10
134.8780451027681
 20
122.8233226820704
 30
0.0
 11
134.8649279937459
 21
122.8178495273864
 31
0.0
  0
LINE
  5
52A
330
E3
100
AcDbEntity
  8
0
  6
Continuous
100
AcDbLine
 10
134.8649279937459
 20
122.8178495273864
 30
0.0
 11
134.8554854619163
 21
122.8123793504798
 31
0.0
  0
LINE
  5
52B
330
E3
100
AcDbEntity
  8
0
  6
Continuous
100
AcDbLine
 10
134.8554854619163
 20
122.8123793504798
 30
0.0
 11
134.8497928433983
 21
122.8069072328067
 31
0.0
  0
LINE
  5
52C
330
E3
100
AcDbEntity
  8
0
  6
Continuous
100
AcDbLine
 10
134.8497928433983
 20
122.8069072328067
 30
0.0
 11
134.8478901924441
 21
122.8014358523353
 31
0.0
  0
LINE
  5
52D
330
E3
100
AcDbEntity
  8
0
  6
Continuous
100
AcDbLine
 10
135.847890192444
 20
122.6044661553656
 30
0.0
 11
135.8459875414899
 21
122.5989947748942
 31
0.0
  0
LINE
  5
52E
330
E3
100
AcDbEntity
  8
0
  6
Continuous
100
AcDbLine
 10
135.8459875414899
 20
122.5989947748942
 30
0.0
 11
135.8402940689503
 21
122.5935233944228
 31
0.0
  0
LINE
  5
52F
330
E3
100
AcDbEntity
  8
0
  6
Continuous
100
AcDbLine
 10
135.8402940689503
 20
122.5935233944228
 30
0.0
 11
135.8308534399215
 21
122.5880514750931
 31
0.0
  0
LINE
  5
530
330
E3
100
AcDbEntity
  8
0
  6
Continuous
100
AcDbLine
 10
135.8308534399215
 20
122.5880514750931
 30
0.0
 11
135.8177363308993
 21
122.5825812981864
 31
0.0
  0
LINE
  5
531
330
E3
100
AcDbEntity
  8
0
  6
Continuous
100
AcDbLine
 10
135.8177363308993
 20
122.5825812981864
 30
0.0
 11
135.8010429113355
 21
122.5771081435025
 31
0.0
  0
LINE
  5
532
330
E3
100
AcDbEntity
  8
0
  6
Continuous
100
AcDbLine
 10
135.8010429113355
 20
122.5771081435025
 30
0.0
 11
135.7809042034315
 21
122.5716379665958
 31
0.0
  0
LINE
  5
533
330
E3
100
AcDbEntity
  8
0
  6
Continuous
100
AcDbLine
 10
135.7809042034315
 20
122.5716379665958
 30
0.0
 11
135.7574661182751
 21
122.5661677896891
 31
0.0
  0
LINE
  5
534
330
E3
100
AcDbEntity
  8
0
  6
Continuous
100
AcDbLine
 10
135.7574661182751
 20
122.5661677896891
 30
0.0
 11
135.7309132780593
 21
122.5606946350052
 31
0.0
  0
LINE
  5
535
330
E3
100
AcDbEntity
  8
0
  6
Continuous
100
AcDbLine
 10
135.7309132780593
 20
122.5606946350052
 30
0.0
 11
135.7014422160859
 21
122.5552244580986
 31
0.0
  0
LINE
  5
536
330
E3
100
AcDbEntity
  8
0
  6
Continuous
100
AcDbLine
 10
135.7014422160859
 20
122.5552244580986
 30
0.0
 11
135.6692851989847
 21
122.5497513034146
 31
0.0
  0
LINE
  5
537
330
E3
100
AcDbEntity
  8
0
  6
Continuous
100
AcDbLine
 10
135.6692851989847
 20
122.5497513034146
 30
0.0
 11
135.6346774711627
 21
122.544281126508
 31
0.0
  0
LINE
  5
538
330
E3
100
AcDbEntity
  8
0
  6
Continuous
100
AcDbLine
 10
135.6346774711627
 20
122.544281126508
 30
0.0
 11
135.5978900103544
 21
122.5388109496013
 31
0.0
  0
LINE
  5
539
330
E3
100
AcDbEntity
  8
0
  6
Continuous
100
AcDbLine
 10
135.5978900103544
 20
122.5388109496013
 30
0.0
 11
135.5591997498492
 21
122.5333377949174
 31
0.0
  0
LINE
  5
53A
330
E3
100
AcDbEntity
  8
0
  6
Continuous
100
AcDbLine
 10
135.5591997498492
 20
122.5333377949174
 30
0.0
 11
135.5189014896001
 21
122.5278676180107
 31
0.0
  0
LINE
  5
53B
330
E3
100
AcDbEntity
  8
0
  6
Continuous
100
AcDbLine
 10
135.5189014896001
 20
122.5278676180107
 30
0.0
 11
135.477298962892
 21
122.5223944633268
 31
0.0
  0
LINE
  5
53C
330
E3
100
AcDbEntity
  8
0
  6
Continuous
100
AcDbLine
 10
135.477298962892
 20
122.5223944633268
 30
0.0
 11
135.4347137696737
 21
122.5169242864201
 31
0.0
  0
LINE
  5
53D
330
E3
100
AcDbEntity
  8
0
  6
Continuous
100
AcDbLine
 10
135.4347137696737
 20
122.5169242864201
 30
0.0
 11
135.3914675098941
 21
122.5114541095135
 31
0.0
  0
LINE
  5
53E
330
E3
100
AcDbEntity
  8
0
  6
Continuous
100
AcDbLine
 10
135.3914675098941
 20
122.5114541095135
 30
0.0
 11
135.3478907168337
 21
122.5059809548295
 31
0.0
  0
LINE
  5
53F
330
E3
100
AcDbEntity
  8
0
  6
Continuous
100
AcDbLine
 10
135.3478907168337
 20
122.5059809548295
 30
0.0
 11
135.304310945996
 21
122.5005107779229
 31
0.0
  0
LINE
  5
540
330
E3
100
AcDbEntity
  8
0
  6
Continuous
100
AcDbLine
 10
135.304310945996
 20
122.5005107779229
 30
0.0
 11
135.2610646862164
 21
122.4950376232389
 31
0.0
  0
LINE
  5
541
330
E3
100
AcDbEntity
  8
0
  6
Continuous
100
AcDbLine
 10
135.2610646862164
 20
122.4950376232389
 30
0.0
 11
135.2184794929981
 21
122.4895674463323
 31
0.0
  0
LINE
  5
542
330
E3
100
AcDbEntity
  8
0
  6
Continuous
100
AcDbLine
 10
135.2184794929981
 20
122.4895674463323
 30
0.0
 11
135.1768799440673
 21
122.4840972694256
 31
0.0
  0
LINE
  5
543
330
E3
100
AcDbEntity
  8
0
  6
Continuous
100
AcDbLine
 10
135.1768799440673
 20
122.4840972694256
 30
0.0
 11
135.1365816838182
 21
122.4786241147417
 31
0.0
  0
LINE
  5
544
330
E3
100
AcDbEntity
  8
0
  6
Continuous
100
AcDbLine
 10
135.1365816838182
 20
122.4786241147417
 30
0.0
 11
135.097891423313
 21
122.473153937835
 31
0.0
  0
LINE
  5
545
330
E3
100
AcDbEntity
  8
0
  6
Continuous
100
AcDbLine
 10
135.097891423313
 20
122.473153937835
 30
0.0
 11
135.0611009847274
 21
122.4676807831511
 31
0.0
  0
LINE
  5
546
330
E3
100
AcDbEntity
  8
0
  6
Continuous
100
AcDbLine
 10
135.0611009847274
 20
122.4676807831511
 30
0.0
 11
135.0264962346827
 21
122.4622106062444
 31
0.0
  0
LINE
  5
547
330
E3
100
AcDbEntity
  8
0
  6
Continuous
100
AcDbLine
 10
135.0264962346827
 20
122.4622106062444
 30
0.0
 11
134.9943362398042
 21
122.4567374515605
 31
0.0
  0
LINE
  5
548
330
E3
100
AcDbEntity
  8
0
  6
Continuous
100
AcDbLine
 10
134.9943362398042
 20
122.4567374515605
 30
0.0
 11
134.9648681556081
 21
122.4512672746538
 31
0.0
  0
LINE
  5
549
330
E3
100
AcDbEntity
  8
0
  6
Continuous
100
AcDbLine
 10
134.9648681556081
 20
122.4512672746538
 30
0.0
 11
134.9383153153922
 21
122.4457970977472
 31
0.0
  0
LINE
  5
54A
330
E3
100
AcDbEntity
  8
0
  6
Continuous
100
AcDbLine
 10
134.9383153153922
 20
122.4457970977472
 30
0.0
 11
134.9148772302359
 21
122.4403239430632
 31
0.0
  0
LINE
  5
54B
330
E3
100
AcDbEntity
  8
0
  6
Continuous
100
AcDbLine
 10
134.9148772302359
 20
122.4403239430632
 30
0.0
 11
134.8947355445546
 21
122.4348537661566
 31
0.0
  0
LINE
  5
54C
330
E3
100
AcDbEntity
  8
0
  6
Continuous
100
AcDbLine
 10
134.8947355445546
 20
122.4348537661566
 30
0.0
 11
134.8780451027681
 21
122.4293806114726
 31
0.0
  0
LINE
  5
54D
330
E3
100
AcDbEntity
  8
0
  6
Continuous
100
AcDbLine
 10
134.8780451027681
 20
122.4293806114726
 30
0.0
 11
134.8649279937459
 21
122.423910434566
 31
0.0
  0
LINE
  5
54E
330
E3
100
AcDbEntity
  8
0
  6
Continuous
100
AcDbLine
 10
134.8649279937459
 20
122.423910434566
 30
0.0
 11
134.8554854619163
 21
122.4184402576593
 31
0.0
  0
LINE
  5
54F
330
E3
100
AcDbEntity
  8
0
  6
Continuous
100
AcDbLine
 10
134.8554854619163
 20
122.4184402576593
 30
0.0
 11
134.8497928433983
 21
122.4129678388673
 31
0.0
  0
LINE
  5
550
330
E3
100
AcDbEntity
  8
0
  6
Continuous
100
AcDbLine
 10
134.8497928433983
 20
122.4129678388673
 30
0.0
 11
134.8478901924441
 21
122.4074964583959
 31
0.0
  0
LINE
  5
551
330
E3
100
AcDbEntity
  8
0
  6
Continuous
100
AcDbLine
 10
135.847890192444
 20
122.2105267614262
 30
0.0
 11
135.8459875414899
 21
122.2050553809548
 31
0.0
  0
LINE
  5
552
330
E3
100
AcDbEntity
  8
0
  6
Continuous
100
AcDbLine
 10
135.8459875414899
 20
122.2050553809548
 30
0.0
 11
135.8402940689503
 21
122.1995840004834
 31
0.0
  0
LINE
  5
553
330
E3
100
AcDbEntity
  8
0
  6
Continuous
100
AcDbLine
 10
135.8402940689503
 20
122.1995840004834
 30
0.0
 11
135.8308534399215
 21
122.1941123822726
 31
0.0
  0
LINE
  5
554
330
E3
100
AcDbEntity
  8
0
  6
Continuous
100
AcDbLine
 10
135.8308534399215
 20
122.1941123822726
 30
0.0
 11
135.8177363308993
 21
122.188642205366
 31
0.0
  0
LINE
  5
555
330
E3
100
AcDbEntity
  8
0
  6
Continuous
100
AcDbLine
 10
135.8177363308993
 20
122.188642205366
 30
0.0
 11
135.8010429113355
 21
122.183169050682
 31
0.0
  0
LINE
  5
556
330
E3
100
AcDbEntity
  8
0
  6
Continuous
100
AcDbLine
 10
135.8010429113355
 20
122.183169050682
 30
0.0
 11
135.7809042034315
 21
122.1776988737754
 31
0.0
  0
LINE
  5
557
330
E3
100
AcDbEntity
  8
0
  6
Continuous
100
AcDbLine
 10
135.7809042034315
 20
122.1776988737754
 30
0.0
 11
135.7574661182751
 21
122.1722257190914
 31
0.0
  0
LINE
  5
558
330
E3
100
AcDbEntity
  8
0
  6
Continuous
100
AcDbLine
 10
135.7574661182751
 20
122.1722257190914
 30
0.0
 11
135.7309132780593
 21
122.1667555421848
 31
0.0
  0
LINE
  5
559
330
E3
100
AcDbEntity
  8
0
  6
Continuous
100
AcDbLine
 10
135.7309132780593
 20
122.1667555421848
 30
0.0
 11
135.7014422160859
 21
122.1612853652781
 31
0.0
  0
LINE
  5
55A
330
E3
100
AcDbEntity
  8
0
  6
Continuous
100
AcDbLine
 10
135.7014422160859
 20
122.1612853652781
 30
0.0
 11
135.6692851989847
 21
122.1558122105942
 31
0.0
  0
LINE
  5
55B
330
E3
100
AcDbEntity
  8
0
  6
Continuous
100
AcDbLine
 10
135.6692851989847
 20
122.1558122105942
 30
0.0
 11
135.6346774711627
 21
122.1503420336875
 31
0.0
  0
LINE
  5
55C
330
E3
100
AcDbEntity
  8
0
  6
Continuous
100
AcDbLine
 10
135.6346774711627
 20
122.1503420336875
 30
0.0
 11
135.5978900103544
 21
122.1448688790036
 31
0.0
  0
LINE
  5
55D
330
E3
100
AcDbEntity
  8
0
  6
Continuous
100
AcDbLine
 10
135.5978900103544
 20
122.1448688790036
 30
0.0
 11
135.5591997498492
 21
122.1393987020969
 31
0.0
  0
LINE
  5
55E
330
E3
100
AcDbEntity
  8
0
  6
Continuous
100
AcDbLine
 10
135.5591997498492
 20
122.1393987020969
 30
0.0
 11
135.5189014896001
 21
122.1339285251903
 31
0.0
  0
LINE
  5
55F
330
E3
100
AcDbEntity
  8
0
  6
Continuous
100
AcDbLine
 10
135.5189014896001
 20
122.1339285251903
 30
0.0
 11
135.477298962892
 21
122.1284553705063
 31
0.0
  0
LINE
  5
560
330
E3
100
AcDbEntity
  8
0
  6
Continuous
100
AcDbLine
 10
135.477298962892
 20
122.1284553705063
 30
0.0
 11
135.4347137696737
 21
122.1229851935997
 31
0.0
  0
LINE
  5
561
330
E3
100
AcDbEntity
  8
0
  6
Continuous
100
AcDbLine
 10
135.4347137696737
 20
122.1229851935997
 30
0.0
 11
135.3914675098941
 21
122.1175120389157
 31
0.0
  0
LINE
  5
562
330
E3
100
AcDbEntity
  8
0
  6
Continuous
100
AcDbLine
 10
135.3914675098941
 20
122.1175120389157
 30
0.0
 11
135.3478907168337
 21
122.1120418620091
 31
0.0
  0
LINE
  5
563
330
E3
100
AcDbEntity
  8
0
  6
Continuous
100
AcDbLine
 10
135.3478907168337
 20
122.1120418620091
 30
0.0
 11
135.304310945996
 21
122.1065716851024
 31
0.0
  0
LINE
  5
564
330
E3
100
AcDbEntity
  8
0
  6
Continuous
100
AcDbLine
 10
135.304310945996
 20
122.1065716851024
 30
0.0
 11
135.2610646862164
 21
122.1010985304185
 31
0.0
  0
LINE
  5
565
330
E3
100
AcDbEntity
  8
0
  6
Continuous
100
AcDbLine
 10
135.2610646862164
 20
122.1010985304185
 30
0.0
 11
135.2184794929981
 21
122.0956283535118
 31
0.0
  0
LINE
  5
566
330
E3
100
AcDbEntity
  8
0
  6
Continuous
100
AcDbLine
 10
135.2184794929981
 20
122.0956283535118
 30
0.0
 11
135.1768799440673
 21
122.0901551988279
 31
0.0
  0
LINE
  5
567
330
E3
100
AcDbEntity
  8
0
  6
Continuous
100
AcDbLine
 10
135.1768799440673
 20
122.0901551988279
 30
0.0
 11
135.1365816838182
 21
122.0846850219212
 31
0.0
  0
LINE
  5
568
330
E3
100
AcDbEntity
  8
0
  6
Continuous
100
AcDbLine
 10
135.1365816838182
 20
122.0846850219212
 30
0.0
 11
135.097891423313
 21
122.0792148450146
 31
0.0
  0
LINE
  5
569
330
E3
100
AcDbEntity
  8
0
  6
Continuous
100
AcDbLine
 10
135.097891423313
 20
122.0792148450146
 30
0.0
 11
135.0611009847274
 21
122.0737416903306
 31
0.0
  0
LINE
  5
56A
330
E3
100
AcDbEntity
  8
0
  6
Continuous
100
AcDbLine
 10
135.0611009847274
 20
122.0737416903306
 30
0.0
 11
135.0264962346827
 21
122.068271513424
 31
0.0
  0
LINE
  5
56B
330
E3
100
AcDbEntity
  8
0
  6
Continuous
100
AcDbLine
 10
135.0264962346827
 20
122.068271513424
 30
0.0
 11
134.9943362398042
 21
122.06279835874
 31
0.0
  0
LINE
  5
56C
330
E3
100
AcDbEntity
  8
0
  6
Continuous
100
AcDbLine
 10
134.9943362398042
 20
122.06279835874
 30
0.0
 11
134.9648681556081
 21
122.0573281818334
 31
0.0
  0
LINE
  5
56D
330
E3
100
AcDbEntity
  8
0
  6
Continuous
100
AcDbLine
 10
134.9648681556081
 20
122.0573281818334
 30
0.0
 11
134.9383153153922
 21
122.0518580049267
 31
0.0
  0
LINE
  5
56E
330
E3
100
AcDbEntity
  8
0
  6
Continuous
100
AcDbLine
 10
134.9383153153922
 20
122.0518580049267
 30
0.0
 11
134.9148772302359
 21
122.0463848502428
 31
0.0
  0
LINE
  5
56F
330
E3
100
AcDbEntity
  8
0
  6
Continuous
100
AcDbLine
 10
134.9148772302359
 20
122.0463848502428
 30
0.0
 11
134.8947355445546
 21
122.0409146733361
 31
0.0
  0
LINE
  5
570
330
E3
100
AcDbEntity
  8
0
  6
Continuous
100
AcDbLine
 10
134.8947355445546
 20
122.0409146733361
 30
0.0
 11
134.8780451027681
 21
122.0354415186522
 31
0.0
  0
LINE
  5
571
330
E3
100
AcDbEntity
  8
0
  6
Continuous
100
AcDbLine
 10
134.8780451027681
 20
122.0354415186522
 30
0.0
 11
134.8649279937459
 21
122.0299713417455
 31
0.0
  0
LINE
  5
572
330
E3
100
AcDbEntity
  8
0
  6
Continuous
100
AcDbLine
 10
134.8649279937459
 20
122.0299713417455
 30
0.0
 11
134.8554854619163
 21
122.0245011648389
 31
0.0
  0
LINE
  5
573
330
E3
100
AcDbEntity
  8
0
  6
Continuous
100
AcDbLine
 10
134.8554854619163
 20
122.0245011648389
 30
0.0
 11
134.8497928433983
 21
122.0190284449279
 31
0.0
  0
LINE
  5
574
330
E3
100
AcDbEntity
  8
0
  6
Continuous
100
AcDbLine
 10
134.8497928433983
 20
122.0190284449279
 30
0.0
 11
134.8478901924441
 21
122.0135570644565
 31
0.0
  0
LINE
  5
575
330
E3
100
AcDbEntity
  8
0
  6
Continuous
100
AcDbLine
 10
135.847890192444
 20
121.8165873674868
 30
0.0
 11
135.8459875414899
 21
121.8111159870154
 31
0.0
  0
LINE
  5
576
330
E3
100
AcDbEntity
  8
0
  6
Continuous
100
AcDbLine
 10
135.8459875414899
 20
121.8111159870154
 30
0.0
 11
135.8402940689503
 21
121.805644606544
 31
0.0
  0
LINE
  5
577
330
E3
100
AcDbEntity
  8
0
  6
Continuous
100
AcDbLine
 10
135.8402940689503
 20
121.805644606544
 30
0.0
 11
135.8308534399215
 21
121.8001732894522
 31
0.0
  0
LINE
  5
578
330
E3
100
AcDbEntity
  8
0
  6
Continuous
100
AcDbLine
 10
135.8308534399215
 20
121.8001732894522
 30
0.0
 11
135.8177363308993
 21
121.7947031125455
 31
0.0
  0
LINE
  5
579
330
E3
100
AcDbEntity
  8
0
  6
Continuous
100
AcDbLine
 10
135.8177363308993
 20
121.7947031125455
 30
0.0
 11
135.8010429113355
 21
121.7892299578616
 31
0.0
  0
LINE
  5
57A
330
E3
100
AcDbEntity
  8
0
  6
Continuous
100
AcDbLine
 10
135.8010429113355
 20
121.7892299578616
 30
0.0
 11
135.7809042034315
 21
121.7837597809549
 31
0.0
  0
LINE
  5
57B
330
E3
100
AcDbEntity
  8
0
  6
Continuous
100
AcDbLine
 10
135.7809042034315
 20
121.7837597809549
 30
0.0
 11
135.7574661182751
 21
121.778286626271
 31
0.0
  0
LINE
  5
57C
330
E3
100
AcDbEntity
  8
0
  6
Continuous
100
AcDbLine
 10
135.7574661182751
 20
121.778286626271
 30
0.0
 11
135.7309132780593
 21
121.7728164493643
 31
0.0
  0
LINE
  5
57D
330
E3
100
AcDbEntity
  8
0
  6
Continuous
100
AcDbLine
 10
135.7309132780593
 20
121.7728164493643
 30
0.0
 11
135.7014422160859
 21
121.7673462724577
 31
0.0
  0
LINE
  5
57E
330
E3
100
AcDbEntity
  8
0
  6
Continuous
100
AcDbLine
 10
135.7014422160859
 20
121.7673462724577
 30
0.0
 11
135.6692851989847
 21
121.7618731177737
 31
0.0
  0
LINE
  5
57F
330
E3
100
AcDbEntity
  8
0
  6
Continuous
100
AcDbLine
 10
135.6692851989847
 20
121.7618731177737
 30
0.0
 11
135.6346774711627
 21
121.7564029408671
 31
0.0
  0
LINE
  5
580
330
E3
100
AcDbEntity
  8
0
  6
Continuous
100
AcDbLine
 10
135.6346774711627
 20
121.7564029408671
 30
0.0
 11
135.5978900103544
 21
121.7509297861831
 31
0.0
  0
LINE
  5
581
330
E3
100
AcDbEntity
  8
0
  6
Continuous
100
AcDbLine
 10
135.5978900103544
 20
121.7509297861831
 30
0.0
 11
135.5591997498492
 21
121.7454596092765
 31
0.0
  0
LINE
  5
582
330
E3
100
AcDbEntity
  8
0
  6
Continuous
100
AcDbLine
 10
135.5591997498492
 20
121.7454596092765
 30
0.0
 11
135.5189014896001
 21
121.7399894323698
 31
0.0
  0
LINE
  5
583
330
E3
100
AcDbEntity
  8
0
  6
Continuous
100
AcDbLine
 10
135.5189014896001
 20
121.7399894323698
 30
0.0
 11
135.477298962892
 21
121.7345162776859
 31
0.0
  0
LINE
  5
584
330
E3
100
AcDbEntity
  8
0
  6
Continuous
100
AcDbLine
 10
135.477298962892
 20
121.7345162776859
 30
0.0
 11
135.4347137696737
 21
121.7290461007792
 31
0.0
  0
LINE
  5
585
330
E3
100
AcDbEntity
  8
0
  6
Continuous
100
AcDbLine
 10
135.4347137696737
 20
121.7290461007792
 30
0.0
 11
135.3914675098941
 21
121.7235729460953
 31
0.0
  0
LINE
  5
586
330
E3
100
AcDbEntity
  8
0
  6
Continuous
100
AcDbLine
 10
135.3914675098941
 20
121.7235729460953
 30
0.0
 11
135.3478907168337
 21
121.7181027691886
 31
0.0
  0
LINE
  5
587
330
E3
100
AcDbEntity
  8
0
  6
Continuous
100
AcDbLine
 10
135.3478907168337
 20
121.7181027691886
 30
0.0
 11
135.304310945996
 21
121.712632592282
 31
0.0
  0
LINE
  5
588
330
E3
100
AcDbEntity
  8
0
  6
Continuous
100
AcDbLine
 10
135.304310945996
 20
121.712632592282
 30
0.0
 11
135.2610646862164
 21
121.7071594375981
 31
0.0
  0
LINE
  5
589
330
E3
100
AcDbEntity
  8
0
  6
Continuous
100
AcDbLine
 10
135.2610646862164
 20
121.7071594375981
 30
0.0
 11
135.2184794929981
 21
121.7016892606914
 31
0.0
  0
LINE
  5
58A
330
E3
100
AcDbEntity
  8
0
  6
Continuous
100
AcDbLine
 10
135.2184794929981
 20
121.7016892606914
 30
0.0
 11
135.1768799440673
 21
121.6962161060075
 31
0.0
  0
LINE
  5
58B
330
E3
100
AcDbEntity
  8
0
  6
Continuous
100
AcDbLine
 10
135.1768799440673
 20
121.6962161060075
 30
0.0
 11
135.1365816838182
 21
121.6907459291008
 31
0.0
  0
LINE
  5
58C
330
E3
100
AcDbEntity
  8
0
  6
Continuous
100
AcDbLine
 10
135.1365816838182
 20
121.6907459291008
 30
0.0
 11
135.097891423313
 21
121.6852727744168
 31
0.0
  0
LINE
  5
58D
330
E3
100
AcDbEntity
  8
0
  6
Continuous
100
AcDbLine
 10
135.097891423313
 20
121.6852727744168
 30
0.0
 11
135.0611009847274
 21
121.6798025975102
 31
0.0
  0
LINE
  5
58E
330
E3
100
AcDbEntity
  8
0
  6
Continuous
100
AcDbLine
 10
135.0611009847274
 20
121.6798025975102
 30
0.0
 11
135.0264962346827
 21
121.6743324206035
 31
0.0
  0
LINE
  5
58F
330
E3
100
AcDbEntity
  8
0
  6
Continuous
100
AcDbLine
 10
135.0264962346827
 20
121.6743324206035
 30
0.0
 11
134.9943362398042
 21
121.6688592659196
 31
0.0
  0
LINE
  5
590
330
E3
100
AcDbEntity
  8
0
  6
Continuous
100
AcDbLine
 10
134.9943362398042
 20
121.6688592659196
 30
0.0
 11
134.9648681556081
 21
121.663389089013
 31
0.0
  0
LINE
  5
591
330
E3
100
AcDbEntity
  8
0
  6
Continuous
100
AcDbLine
 10
134.9648681556081
 20
121.663389089013
 30
0.0
 11
134.9383153153922
 21
121.657915934329
 31
0.0
  0
LINE
  5
592
330
E3
100
AcDbEntity
  8
0
  6
Continuous
100
AcDbLine
 10
134.9383153153922
 20
121.657915934329
 30
0.0
 11
134.9148772302359
 21
121.6524457574223
 31
0.0
  0
LINE
  5
593
330
E3
100
AcDbEntity
  8
0
  6
Continuous
100
AcDbLine
 10
134.9148772302359
 20
121.6524457574223
 30
0.0
 11
134.8947355445546
 21
121.6469755805157
 31
0.0
  0
LINE
  5
594
330
E3
100
AcDbEntity
  8
0
  6
Continuous
100
AcDbLine
 10
134.8947355445546
 20
121.6469755805157
 30
0.0
 11
134.8780451027681
 21
121.6415024258318
 31
0.0
  0
LINE
  5
595
330
E3
100
AcDbEntity
  8
0
  6
Continuous
100
AcDbLine
 10
134.8780451027681
 20
121.6415024258318
 30
0.0
 11
134.8649279937459
 21
121.6360322489251
 31
0.0
  0
LINE
  5
596
330
E3
100
AcDbEntity
  8
0
  6
Continuous
100
AcDbLine
 10
134.8649279937459
 20
121.6360322489251
 30
0.0
 11
134.8554854619163
 21
121.6305590942411
 31
0.0
  0
LINE
  5
597
330
E3
100
AcDbEntity
  8
0
  6
Continuous
100
AcDbLine
 10
134.8554854619163
 20
121.6305590942411
 30
0.0
 11
134.8497928433983
 21
121.6250890509885
 31
0.0
  0
LINE
  5
598
330
E3
100
AcDbEntity
  8
0
  6
Continuous
100
AcDbLine
 10
134.8497928433983
 20
121.6250890509885
 30
0.0
 11
134.8478901924441
 21
121.6196176705171
 31
0.0
  0
LINE
  5
599
330
E3
100
AcDbEntity
  8
0
  6
Continuous
100
AcDbLine
 10
135.847890192444
 20
121.4226479735474
 30
0.0
 11
135.8459875414899
 21
121.417176593076
 31
0.0
  0
LINE
  5
59A
330
E3
100
AcDbEntity
  8
0
  6
Continuous
100
AcDbLine
 10
135.8459875414899
 20
121.417176593076
 30
0.0
 11
135.8402940689503
 21
121.4117052126047
 31
0.0
  0
LINE
  5
59B
330
E3
100
AcDbEntity
  8
0
  6
Continuous
100
AcDbLine
 10
135.8402940689503
 20
121.4117052126047
 30
0.0
 11
135.8308534399215
 21
121.4062341966317
 31
0.0
  0
LINE
  5
59C
330
E3
100
AcDbEntity
  8
0
  6
Continuous
100
AcDbLine
 10
135.8308534399215
 20
121.4062341966317
 30
0.0
 11
135.8177363308993
 21
121.4007610419478
 31
0.0
  0
LINE
  5
59D
330
E3
100
AcDbEntity
  8
0
  6
Continuous
100
AcDbLine
 10
135.8177363308993
 20
121.4007610419478
 30
0.0
 11
135.8010429113355
 21
121.3952908650411
 31
0.0
  0
LINE
  5
59E
330
E3
100
AcDbEntity
  8
0
  6
Continuous
100
AcDbLine
 10
135.8010429113355
 20
121.3952908650411
 30
0.0
 11
135.7809042034315
 21
121.3898206881345
 31
0.0
  0
LINE
  5
59F
330
E3
100
AcDbEntity
  8
0
  6
Continuous
100
AcDbLine
 10
135.7809042034315
 20
121.3898206881345
 30
0.0
 11
135.7574661182751
 21
121.3843475334505
 31
0.0
  0
LINE
  5
5A0
330
E3
100
AcDbEntity
  8
0
  6
Continuous
100
AcDbLine
 10
135.7574661182751
 20
121.3843475334505
 30
0.0
 11
135.7309132780593
 21
121.3788773565439
 31
0.0
  0
LINE
  5
5A1
330
E3
100
AcDbEntity
  8
0
  6
Continuous
100
AcDbLine
 10
135.7309132780593
 20
121.3788773565439
 30
0.0
 11
135.7014422160859
 21
121.37340420186
 31
0.0
  0
LINE
  5
5A2
330
E3
100
AcDbEntity
  8
0
  6
Continuous
100
AcDbLine
 10
135.7014422160859
 20
121.37340420186
 30
0.0
 11
135.6692851989847
 21
121.3679340249533
 31
0.0
  0
LINE
  5
5A3
330
E3
100
AcDbEntity
  8
0
  6
Continuous
100
AcDbLine
 10
135.6692851989847
 20
121.3679340249533
 30
0.0
 11
135.6346774711627
 21
121.3624638480466
 31
0.0
  0
LINE
  5
5A4
330
E3
100
AcDbEntity
  8
0
  6
Continuous
100
AcDbLine
 10
135.6346774711627
 20
121.3624638480466
 30
0.0
 11
135.5978900103544
 21
121.3569906933627
 31
0.0
  0
LINE
  5
5A5
330
E3
100
AcDbEntity
  8
0
  6
Continuous
100
AcDbLine
 10
135.5978900103544
 20
121.3569906933627
 30
0.0
 11
135.5591997498492
 21
121.3515205164561
 31
0.0
  0
LINE
  5
5A6
330
E3
100
AcDbEntity
  8
0
  6
Continuous
100
AcDbLine
 10
135.5591997498492
 20
121.3515205164561
 30
0.0
 11
135.5189014896001
 21
121.3460473617721
 31
0.0
  0
LINE
  5
5A7
330
E3
100
AcDbEntity
  8
0
  6
Continuous
100
AcDbLine
 10
135.5189014896001
 20
121.3460473617721
 30
0.0
 11
135.477298962892
 21
121.3405771848655
 31
0.0
  0
LINE
  5
5A8
330
E3
100
AcDbEntity
  8
0
  6
Continuous
100
AcDbLine
 10
135.477298962892
 20
121.3405771848655
 30
0.0
 11
135.4347137696737
 21
121.3351070079588
 31
0.0
  0
LINE
  5
5A9
330
E3
100
AcDbEntity
  8
0
  6
Continuous
100
AcDbLine
 10
135.4347137696737
 20
121.3351070079588
 30
0.0
 11
135.3914675098941
 21
121.3296338532749
 31
0.0
  0
LINE
  5
5AA
330
E3
100
AcDbEntity
  8
0
  6
Continuous
100
AcDbLine
 10
135.3914675098941
 20
121.3296338532749
 30
0.0
 11
135.3478907168337
 21
121.3241636763682
 31
0.0
  0
LINE
  5
5AB
330
E3
100
AcDbEntity
  8
0
  6
Continuous
100
AcDbLine
 10
135.3478907168337
 20
121.3241636763682
 30
0.0
 11
135.304310945996
 21
121.3186905216843
 31
0.0
  0
LINE
  5
5AC
330
E3
100
AcDbEntity
  8
0
  6
Continuous
100
AcDbLine
 10
135.304310945996
 20
121.3186905216843
 30
0.0
 11
135.2610646862164
 21
121.3132203447776
 31
0.0
  0
LINE
  5
5AD
330
E3
100
AcDbEntity
  8
0
  6
Continuous
100
AcDbLine
 10
135.2610646862164
 20
121.3132203447776
 30
0.0
 11
135.2184794929981
 21
121.307750167871
 31
0.0
  0
LINE
  5
5AE
330
E3
100
AcDbEntity
  8
0
  6
Continuous
100
AcDbLine
 10
135.2184794929981
 20
121.307750167871
 30
0.0
 11
135.1768799440673
 21
121.302277013187
 31
0.0
  0
LINE
  5
5AF
330
E3
100
AcDbEntity
  8
0
  6
Continuous
100
AcDbLine
 10
135.1768799440673
 20
121.302277013187
 30
0.0
 11
135.1365816838182
 21
121.2968068362804
 31
0.0
  0
LINE
  5
5B0
330
E3
100
AcDbEntity
  8
0
  6
Continuous
100
AcDbLine
 10
135.1365816838182
 20
121.2968068362804
 30
0.0
 11
135.097891423313
 21
121.2913336815964
 31
0.0
  0
LINE
  5
5B1
330
E3
100
AcDbEntity
  8
0
  6
Continuous
100
AcDbLine
 10
135.097891423313
 20
121.2913336815964
 30
0.0
 11
135.0611009847274
 21
121.2858635046898
 31
0.0
  0
LINE
  5
5B2
330
E3
100
AcDbEntity
  8
0
  6
Continuous
100
AcDbLine
 10
135.0611009847274
 20
121.2858635046898
 30
0.0
 11
135.0264962346827
 21
121.2803933277831
 31
0.0
  0
LINE
  5
5B3
330
E3
100
AcDbEntity
  8
0
  6
Continuous
100
AcDbLine
 10
135.0264962346827
 20
121.2803933277831
 30
0.0
 11
134.9943362398042
 21
121.2749201730992
 31
0.0
  0
LINE
  5
5B4
330
E3
100
AcDbEntity
  8
0
  6
Continuous
100
AcDbLine
 10
134.9943362398042
 20
121.2749201730992
 30
0.0
 11
134.9648681556081
 21
121.2694499961925
 31
0.0
  0
LINE
  5
5B5
330
E3
100
AcDbEntity
  8
0
  6
Continuous
100
AcDbLine
 10
134.9648681556081
 20
121.2694499961925
 30
0.0
 11
134.9383153153922
 21
121.2639768415086
 31
0.0
  0
LINE
  5
5B6
330
E3
100
AcDbEntity
  8
0
  6
Continuous
100
AcDbLine
 10
134.9383153153922
 20
121.2639768415086
 30
0.0
 11
134.9148772302359
 21
121.2585066646019
 31
0.0
  0
LINE
  5
5B7
330
E3
100
AcDbEntity
  8
0
  6
Continuous
100
AcDbLine
 10
134.9148772302359
 20
121.2585066646019
 30
0.0
 11
134.8947355445546
 21
121.2530364876953
 31
0.0
  0
LINE
  5
5B8
330
E3
100
AcDbEntity
  8
0
  6
Continuous
100
AcDbLine
 10
134.8947355445546
 20
121.2530364876953
 30
0.0
 11
134.8780451027681
 21
121.2475633330113
 31
0.0
  0
LINE
  5
5B9
330
E3
100
AcDbEntity
  8
0
  6
Continuous
100
AcDbLine
 10
134.8780451027681
 20
121.2475633330113
 30
0.0
 11
134.8649279937459
 21
121.2420931561047
 31
0.0
  0
LINE
  5
5BA
330
E3
100
AcDbEntity
  8
0
  6
Continuous
100
AcDbLine
 10
134.8649279937459
 20
121.2420931561047
 30
0.0
 11
134.8554854619163
 21
121.2366200014207
 31
0.0
  0
LINE
  5
5BB
330
E3
100
AcDbEntity
  8
0
  6
Continuous
100
AcDbLine
 10
134.8554854619163
 20
121.2366200014207
 30
0.0
 11
134.8497928433983
 21
121.2311496570491
 31
0.0
  0
LINE
  5
5BC
330
E3
100
AcDbEntity
  8
0
  6
Continuous
100
AcDbLine
 10
134.8497928433983
 20
121.2311496570491
 30
0.0
 11
134.8478901924441
 21
121.2256782765777
 31
0.0
  0
LINE
  5
5BD
330
E3
100
AcDbEntity
  8
0
  6
Continuous
100
AcDbLine
 10
135.847890192444
 20
121.028708579608
 30
0.0
 11
135.8459875414899
 21
121.0232371991366
 31
0.0
  0
LINE
  5
5BE
330
E3
100
AcDbEntity
  8
0
  6
Continuous
100
AcDbLine
 10
135.8459875414899
 20
121.0232371991366
 30
0.0
 11
135.8402940689503
 21
121.0177658186653
 31
0.0
  0
LINE
  5
5BF
330
E3
100
AcDbEntity
  8
0
  6
Continuous
100
AcDbLine
 10
135.8402940689503
 20
121.0177658186653
 30
0.0
 11
135.8308534399215
 21
121.0122951038113
 31
0.0
  0
LINE
  5
5C0
330
E3
100
AcDbEntity
  8
0
  6
Continuous
100
AcDbLine
 10
135.8308534399215
 20
121.0122951038113
 30
0.0
 11
135.8177363308993
 21
121.0068219491274
 31
0.0
  0
LINE
  5
5C1
330
E3
100
AcDbEntity
  8
0
  6
Continuous
100
AcDbLine
 10
135.8177363308993
 20
121.0068219491274
 30
0.0
 11
135.8010429113355
 21
121.0013517722207
 31
0.0
  0
LINE
  5
5C2
330
E3
100
AcDbEntity
  8
0
  6
Continuous
100
AcDbLine
 10
135.8010429113355
 20
121.0013517722207
 30
0.0
 11
135.7809042034315
 21
120.9958815953141
 31
0.0
  0
LINE
  5
5C3
330
E3
100
AcDbEntity
  8
0
  6
Continuous
100
AcDbLine
 10
135.7809042034315
 20
120.9958815953141
 30
0.0
 11
135.7574661182751
 21
120.9904084406301
 31
0.0
  0
LINE
  5
5C4
330
E3
100
AcDbEntity
  8
0
  6
Continuous
100
AcDbLine
 10
135.7574661182751
 20
120.9904084406301
 30
0.0
 11
135.7309132780593
 21
120.9849382637235
 31
0.0
  0
LINE
  5
5C5
330
E3
100
AcDbEntity
  8
0
  6
Continuous
100
AcDbLine
 10
135.7309132780593
 20
120.9849382637235
 30
0.0
 11
135.7014422160859
 21
120.9794651090395
 31
0.0
  0
LINE
  5
5C6
330
E3
100
AcDbEntity
  8
0
  6
Continuous
100
AcDbLine
 10
135.7014422160859
 20
120.9794651090395
 30
0.0
 11
135.6692851989847
 21
120.9739949321329
 31
0.0
  0
LINE
  5
5C7
330
E3
100
AcDbEntity
  8
0
  6
Continuous
100
AcDbLine
 10
135.6692851989847
 20
120.9739949321329
 30
0.0
 11
135.6346774711627
 21
120.9685247552262
 31
0.0
  0
LINE
  5
5C8
330
E3
100
AcDbEntity
  8
0
  6
Continuous
100
AcDbLine
 10
135.6346774711627
 20
120.9685247552262
 30
0.0
 11
135.5978900103544
 21
120.9630516005423
 31
0.0
  0
LINE
  5
5C9
330
E3
100
AcDbEntity
  8
0
  6
Continuous
100
AcDbLine
 10
135.5978900103544
 20
120.9630516005423
 30
0.0
 11
135.5591997498492
 21
120.9575814236356
 31
0.0
  0
LINE
  5
5CA
330
E3
100
AcDbEntity
  8
0
  6
Continuous
100
AcDbLine
 10
135.5591997498492
 20
120.9575814236356
 30
0.0
 11
135.5189014896001
 21
120.9521082689517
 31
0.0
  0
LINE
  5
5CB
330
E3
100
AcDbEntity
  8
0
  6
Continuous
100
AcDbLine
 10
135.5189014896001
 20
120.9521082689517
 30
0.0
 11
135.477298962892
 21
120.946638092045
 31
0.0
  0
LINE
  5
5CC
330
E3
100
AcDbEntity
  8
0
  6
Continuous
100
AcDbLine
 10
135.477298962892
 20
120.946638092045
 30
0.0
 11
135.4347137696737
 21
120.9411679151384
 31
0.0
  0
LINE
  5
5CD
330
E3
100
AcDbEntity
  8
0
  6
Continuous
100
AcDbLine
 10
135.4347137696737
 20
120.9411679151384
 30
0.0
 11
135.3914675098941
 21
120.9356947604544
 31
0.0
  0
LINE
  5
5CE
330
E3
100
AcDbEntity
  8
0
  6
Continuous
100
AcDbLine
 10
135.3914675098941
 20
120.9356947604544
 30
0.0
 11
135.3478907168337
 21
120.9302245835478
 31
0.0
  0
LINE
  5
5CF
330
E3
100
AcDbEntity
  8
0
  6
Continuous
100
AcDbLine
 10
135.3478907168337
 20
120.9302245835478
 30
0.0
 11
135.304310945996
 21
120.9247514288638
 31
0.0
  0
LINE
  5
5D0
330
E3
100
AcDbEntity
  8
0
  6
Continuous
100
AcDbLine
 10
135.304310945996
 20
120.9247514288638
 30
0.0
 11
135.2610646862164
 21
120.9192812519572
 31
0.0
  0
LINE
  5
5D1
330
E3
100
AcDbEntity
  8
0
  6
Continuous
100
AcDbLine
 10
135.2610646862164
 20
120.9192812519572
 30
0.0
 11
135.2184794929981
 21
120.9138110750505
 31
0.0
  0
LINE
  5
5D2
330
E3
100
AcDbEntity
  8
0
  6
Continuous
100
AcDbLine
 10
135.2184794929981
 20
120.9138110750505
 30
0.0
 11
135.1768799440673
 21
120.9083379203666
 31
0.0
  0
LINE
  5
5D3
330
E3
100
AcDbEntity
  8
0
  6
Continuous
100
AcDbLine
 10
135.1768799440673
 20
120.9083379203666
 30
0.0
 11
135.1365816838182
 21
120.9028677434599
 31
0.0
  0
LINE
  5
5D4
330
E3
100
AcDbEntity
  8
0
  6
Continuous
100
AcDbLine
 10
135.1365816838182
 20
120.9028677434599
 30
0.0
 11
135.097891423313
 21
120.897394588776
 31
0.0
  0
LINE
  5
5D5
330
E3
100
AcDbEntity
  8
0
  6
Continuous
100
AcDbLine
 10
135.097891423313
 20
120.897394588776
 30
0.0
 11
135.0611009847274
 21
120.8919244118693
 31
0.0
  0
LINE
  5
5D6
330
E3
100
AcDbEntity
  8
0
  6
Continuous
100
AcDbLine
 10
135.0611009847274
 20
120.8919244118693
 30
0.0
 11
135.0264962346827
 21
120.8864512571854
 31
0.0
  0
LINE
  5
5D7
330
E3
100
AcDbEntity
  8
0
  6
Continuous
100
AcDbLine
 10
135.0264962346827
 20
120.8864512571854
 30
0.0
 11
134.9943362398042
 21
120.8809810802787
 31
0.0
  0
LINE
  5
5D8
330
E3
100
AcDbEntity
  8
0
  6
Continuous
100
AcDbLine
 10
134.9943362398042
 20
120.8809810802787
 30
0.0
 11
134.9648681556081
 21
120.8755109033721
 31
0.0
  0
LINE
  5
5D9
330
E3
100
AcDbEntity
  8
0
  6
Continuous
100
AcDbLine
 10
134.9648681556081
 20
120.8755109033721
 30
0.0
 11
134.9383153153922
 21
120.8700377486881
 31
0.0
  0
LINE
  5
5DA
330
E3
100
AcDbEntity
  8
0
  6
Continuous
100
AcDbLine
 10
134.9383153153922
 20
120.8700377486881
 30
0.0
 11
134.9148772302359
 21
120.8645675717815
 31
0.0
  0
LINE
  5
5DB
330
E3
100
AcDbEntity
  8
0
  6
Continuous
100
AcDbLine
 10
134.9148772302359
 20
120.8645675717815
 30
0.0
 11
134.8947355445546
 21
120.8590944170975
 31
0.0
  0
LINE
  5
5DC
330
E3
100
AcDbEntity
  8
0
  6
Continuous
100
AcDbLine
 10
134.8947355445546
 20
120.8590944170975
 30
0.0
 11
134.8780451027681
 21
120.8536242401909
 31
0.0
  0
LINE
  5
5DD
330
E3
100
AcDbEntity
  8
0
  6
Continuous
100
AcDbLine
 10
134.8780451027681
 20
120.8536242401909
 30
0.0
 11
134.8649279937459
 21
120.8481540632842
 31
0.0
  0
LINE
  5
5DE
330
E3
100
AcDbEntity
  8
0
  6
Continuous
100
AcDbLine
 10
134.8649279937459
 20
120.8481540632842
 30
0.0
 11
134.8554854619163
 21
120.8426809086003
 31
0.0
  0
LINE
  5
5DF
330
E3
100
AcDbEntity
  8
0
  6
Continuous
100
AcDbLine
 10
134.8554854619163
 20
120.8426809086003
 30
0.0
 11
134.8497928433983
 21
120.8372102631097
 31
0.0
  0
LINE
  5
5E0
330
E3
100
AcDbEntity
  8
0
  6
Continuous
100
AcDbLine
 10
134.8497928433983
 20
120.8372102631097
 30
0.0
 11
134.8478901924441
 21
120.8317388826383
 31
0.0
  0
LINE
  5
5E1
330
E3
100
AcDbEntity
  8
0
  6
Continuous
100
AcDbLine
 10
135.847890192444
 20
120.6347691856686
 30
0.0
 11
135.8459875414899
 21
120.6292978051972
 31
0.0
  0
LINE
  5
5E2
330
E3
100
AcDbEntity
  8
0
  6
Continuous
100
AcDbLine
 10
135.8459875414899
 20
120.6292978051972
 30
0.0
 11
135.8402940689503
 21
120.6238264247259
 31
0.0
  0
LINE
  5
5E3
330
E3
100
AcDbEntity
  8
0
  6
Continuous
100
AcDbLine
 10
135.8402940689503
 20
120.6238264247259
 30
0.0
 11
135.8308534399215
 21
120.6183560109909
 31
0.0
  0
LINE
  5
5E4
330
E3
100
AcDbEntity
  8
0
  6
Continuous
100
AcDbLine
 10
135.8308534399215
 20
120.6183560109909
 30
0.0
 11
135.8177363308993
 21
120.6128828563069
 31
0.0
  0
LINE
  5
5E5
330
E3
100
AcDbEntity
  8
0
  6
Continuous
100
AcDbLine
 10
135.8177363308993
 20
120.6128828563069
 30
0.0
 11
135.8010429113355
 21
120.6074126794003
 31
0.0
  0
LINE
  5
5E6
330
E3
100
AcDbEntity
  8
0
  6
Continuous
100
AcDbLine
 10
135.8010429113355
 20
120.6074126794003
 30
0.0
 11
135.7809042034315
 21
120.6019395247163
 31
0.0
  0
LINE
  5
5E7
330
E3
100
AcDbEntity
  8
0
  6
Continuous
100
AcDbLine
 10
135.7809042034315
 20
120.6019395247163
 30
0.0
 11
135.7574661182751
 21
120.5964693478097
 31
0.0
  0
LINE
  5
5E8
330
E3
100
AcDbEntity
  8
0
  6
Continuous
100
AcDbLine
 10
135.7574661182751
 20
120.5964693478097
 30
0.0
 11
135.7309132780593
 21
120.590999170903
 31
0.0
  0
LINE
  5
5E9
330
E3
100
AcDbEntity
  8
0
  6
Continuous
100
AcDbLine
 10
135.7309132780593
 20
120.590999170903
 30
0.0
 11
135.7014422160859
 21
120.5855260162191
 31
0.0
  0
LINE
  5
5EA
330
E3
100
AcDbEntity
  8
0
  6
Continuous
100
AcDbLine
 10
135.7014422160859
 20
120.5855260162191
 30
0.0
 11
135.6692851989847
 21
120.5800558393124
 31
0.0
  0
LINE
  5
5EB
330
E3
100
AcDbEntity
  8
0
  6
Continuous
100
AcDbLine
 10
135.6692851989847
 20
120.5800558393124
 30
0.0
 11
135.6346774711627
 21
120.5745826846285
 31
0.0
  0
LINE
  5
5EC
330
E3
100
AcDbEntity
  8
0
  6
Continuous
100
AcDbLine
 10
135.6346774711627
 20
120.5745826846285
 30
0.0
 11
135.5978900103544
 21
120.5691125077218
 31
0.0
  0
LINE
  5
5ED
330
E3
100
AcDbEntity
  8
0
  6
Continuous
100
AcDbLine
 10
135.5978900103544
 20
120.5691125077218
 30
0.0
 11
135.5591997498492
 21
120.5636423308152
 31
0.0
  0
LINE
  5
5EE
330
E3
100
AcDbEntity
  8
0
  6
Continuous
100
AcDbLine
 10
135.5591997498492
 20
120.5636423308152
 30
0.0
 11
135.5189014896001
 21
120.5581691761312
 31
0.0
  0
LINE
  5
5EF
330
E3
100
AcDbEntity
  8
0
  6
Continuous
100
AcDbLine
 10
135.5189014896001
 20
120.5581691761312
 30
0.0
 11
135.477298962892
 21
120.5526989992246
 31
0.0
  0
LINE
  5
5F0
330
E3
100
AcDbEntity
  8
0
  6
Continuous
100
AcDbLine
 10
135.477298962892
 20
120.5526989992246
 30
0.0
 11
135.4347137696737
 21
120.5472258445406
 31
0.0
  0
LINE
  5
5F1
330
E3
100
AcDbEntity
  8
0
  6
Continuous
100
AcDbLine
 10
135.4347137696737
 20
120.5472258445406
 30
0.0
 11
135.3914675098941
 21
120.541755667634
 31
0.0
  0
LINE
  5
5F2
330
E3
100
AcDbEntity
  8
0
  6
Continuous
100
AcDbLine
 10
135.3914675098941
 20
120.541755667634
 30
0.0
 11
135.3478907168337
 21
120.5362854907273
 31
0.0
  0
LINE
  5
5F3
330
E3
100
AcDbEntity
  8
0
  6
Continuous
100
AcDbLine
 10
135.3478907168337
 20
120.5362854907273
 30
0.0
 11
135.304310945996
 21
120.5308123360434
 31
0.0
  0
LINE
  5
5F4
330
E3
100
AcDbEntity
  8
0
  6
Continuous
100
AcDbLine
 10
135.304310945996
 20
120.5308123360434
 30
0.0
 11
135.2610646862164
 21
120.5253421591367
 31
0.0
  0
LINE
  5
5F5
330
E3
100
AcDbEntity
  8
0
  6
Continuous
100
AcDbLine
 10
135.2610646862164
 20
120.5253421591367
 30
0.0
 11
135.2184794929981
 21
120.5198690044528
 31
0.0
  0
LINE
  5
5F6
330
E3
100
AcDbEntity
  8
0
  6
Continuous
100
AcDbLine
 10
135.2184794929981
 20
120.5198690044528
 30
0.0
 11
135.1768799440673
 21
120.5143988275461
 31
0.0
  0
LINE
  5
5F7
330
E3
100
AcDbEntity
  8
0
  6
Continuous
100
AcDbLine
 10
135.1768799440673
 20
120.5143988275461
 30
0.0
 11
135.1365816838182
 21
120.5089286506395
 31
0.0
  0
LINE
  5
5F8
330
E3
100
AcDbEntity
  8
0
  6
Continuous
100
AcDbLine
 10
135.1365816838182
 20
120.5089286506395
 30
0.0
 11
135.097891423313
 21
120.5034554959555
 31
0.0
  0
LINE
  5
5F9
330
E3
100
AcDbEntity
  8
0
  6
Continuous
100
AcDbLine
 10
135.097891423313
 20
120.5034554959555
 30
0.0
 11
135.0611009847274
 21
120.4979853190489
 31
0.0
  0
LINE
  5
5FA
330
E3
100
AcDbEntity
  8
0
  6
Continuous
100
AcDbLine
 10
135.0611009847274
 20
120.4979853190489
 30
0.0
 11
135.0264962346827
 21
120.4925121643649
 31
0.0
  0
LINE
  5
5FB
330
E3
100
AcDbEntity
  8
0
  6
Continuous
100
AcDbLine
 10
135.0264962346827
 20
120.4925121643649
 30
0.0
 11
134.9943362398042
 21
120.4870419874583
 31
0.0
  0
LINE
  5
5FC
330
E3
100
AcDbEntity
  8
0
  6
Continuous
100
AcDbLine
 10
134.9943362398042
 20
120.4870419874583
 30
0.0
 11
134.9648681556081
 21
120.4815718105516
 31
0.0
  0
LINE
  5
5FD
330
E3
100
AcDbEntity
  8
0
  6
Continuous
100
AcDbLine
 10
134.9648681556081
 20
120.4815718105516
 30
0.0
 11
134.9383153153922
 21
120.4760986558677
 31
0.0
  0
LINE
  5
5FE
330
E3
100
AcDbEntity
  8
0
  6
Continuous
100
AcDbLine
 10
134.9383153153922
 20
120.4760986558677
 30
0.0
 11
134.9148772302359
 21
120.470628478961
 31
0.0
  0
LINE
  5
5FF
330
E3
100
AcDbEntity
  8
0
  6
Continuous
100
AcDbLine
 10
134.9148772302359
 20
120.470628478961
 30
0.0
 11
134.8947355445546
 21
120.4651553242771
 31
0.0
  0
LINE
  5
600
330
E3
100
AcDbEntity
  8
0
  6
Continuous
100
AcDbLine
 10
134.8947355445546
 20
120.4651553242771
 30
0.0
 11
134.8780451027681
 21
120.4596851473705
 31
0.0
  0
LINE
  5
601
330
E3
100
AcDbEntity
  8
0
  6
Continuous
100
AcDbLine
 10
134.8780451027681
 20
120.4596851473705
 30
0.0
 11
134.8649279937459
 21
120.4542149704638
 31
0.0
  0
LINE
  5
602
330
E3
100
AcDbEntity
  8
0
  6
Continuous
100
AcDbLine
 10
134.8649279937459
 20
120.4542149704638
 30
0.0
 11
134.8554854619163
 21
120.4487418157799
 31
0.0
  0
LINE
  5
603
330
E3
100
AcDbEntity
  8
0
  6
Continuous
100
AcDbLine
 10
134.8554854619163
 20
120.4487418157799
 30
0.0
 11
134.8497928433983
 21
120.4432708691703
 31
0.0
  0
LINE
  5
604
330
E3
100
AcDbEntity
  8
0
  6
Continuous
100
AcDbLine
 10
134.8497928433983
 20
120.4432708691703
 30
0.0
 11
134.8478901924441
 21
120.4377994886989
 31
0.0
  0
LINE
  5
605
330
E3
100
AcDbEntity
  8
0
  6
Continuous
100
AcDbLine
 10
135.847890192444
 20
120.2408297917292
 30
0.0
 11
135.8459875414899
 21
120.2353584112578
 31
0.0
  0
LINE
  5
606
330
E3
100
AcDbEntity
  8
0
  6
Continuous
100
AcDbLine
 10
135.8459875414899
 20
120.2353584112578
 30
0.0
 11
135.8402940689503
 21
120.2298870307865
 31
0.0
  0
LINE
  5
607
330
E3
100
AcDbEntity
  8
0
  6
Continuous
100
AcDbLine
 10
135.8402940689503
 20
120.2298870307865
 30
0.0
 11
135.8308534399215
 21
120.2244169181704
 31
0.0
  0
LINE
  5
608
330
E3
100
AcDbEntity
  8
0
  6
Continuous
100
AcDbLine
 10
135.8308534399215
 20
120.2244169181704
 30
0.0
 11
135.8177363308993
 21
120.2189437634865
 31
0.0
  0
LINE
  5
609
330
E3
100
AcDbEntity
  8
0
  6
Continuous
100
AcDbLine
 10
135.8177363308993
 20
120.2189437634865
 30
0.0
 11
135.8010429113355
 21
120.2134735865798
 31
0.0
  0
LINE
  5
60A
330
E3
100
AcDbEntity
  8
0
  6
Continuous
100
AcDbLine
 10
135.8010429113355
 20
120.2134735865798
 30
0.0
 11
135.7809042034315
 21
120.2080004318959
 31
0.0
  0
LINE
  5
60B
330
E3
100
AcDbEntity
  8
0
  6
Continuous
100
AcDbLine
 10
135.7809042034315
 20
120.2080004318959
 30
0.0
 11
135.7574661182751
 21
120.2025302549892
 31
0.0
  0
LINE
  5
60C
330
E3
100
AcDbEntity
  8
0
  6
Continuous
100
AcDbLine
 10
135.7574661182751
 20
120.2025302549892
 30
0.0
 11
135.7309132780593
 21
120.1970600780826
 31
0.0
  0
LINE
  5
60D
330
E3
100
AcDbEntity
  8
0
  6
Continuous
100
AcDbLine
 10
135.7309132780593
 20
120.1970600780826
 30
0.0
 11
135.7014422160859
 21
120.1915869233986
 31
0.0
  0
LINE
  5
60E
330
E3
100
AcDbEntity
  8
0
  6
Continuous
100
AcDbLine
 10
135.7014422160859
 20
120.1915869233986
 30
0.0
 11
135.6692851989847
 21
120.186116746492
 31
0.0
  0
LINE
  5
60F
330
E3
100
AcDbEntity
  8
0
  6
Continuous
100
AcDbLine
 10
135.6692851989847
 20
120.186116746492
 30
0.0
 11
135.6346774711627
 21
120.180643591808
 31
0.0
  0
LINE
  5
610
330
E3
100
AcDbEntity
  8
0
  6
Continuous
100
AcDbLine
 10
135.6346774711627
 20
120.180643591808
 30
0.0
 11
135.5978900103544
 21
120.1751734149014
 31
0.0
  0
LINE
  5
611
330
E3
100
AcDbEntity
  8
0
  6
Continuous
100
AcDbLine
 10
135.5978900103544
 20
120.1751734149014
 30
0.0
 11
135.5591997498492
 21
120.1697032379948
 31
0.0
  0
LINE
  5
612
330
E3
100
AcDbEntity
  8
0
  6
Continuous
100
AcDbLine
 10
135.5591997498492
 20
120.1697032379948
 30
0.0
 11
135.5189014896001
 21
120.1642300833108
 31
0.0
  0
LINE
  5
613
330
E3
100
AcDbEntity
  8
0
  6
Continuous
100
AcDbLine
 10
135.5189014896001
 20
120.1642300833108
 30
0.0
 11
135.477298962892
 21
120.1587599064042
 31
0.0
  0
LINE
  5
614
330
E3
100
AcDbEntity
  8
0
  6
Continuous
100
AcDbLine
 10
135.477298962892
 20
120.1587599064042
 30
0.0
 11
135.4347137696737
 21
120.1532867517202
 31
0.0
  0
LINE
  5
615
330
E3
100
AcDbEntity
  8
0
  6
Continuous
100
AcDbLine
 10
135.4347137696737
 20
120.1532867517202
 30
0.0
 11
135.3914675098941
 21
120.1478165748135
 31
0.0
  0
LINE
  5
616
330
E3
100
AcDbEntity
  8
0
  6
Continuous
100
AcDbLine
 10
135.3914675098941
 20
120.1478165748135
 30
0.0
 11
135.3478907168337
 21
120.1423463979069
 31
0.0
  0
LINE
  5
617
330
E3
100
AcDbEntity
  8
0
  6
Continuous
100
AcDbLine
 10
135.3478907168337
 20
120.1423463979069
 30
0.0
 11
135.304310945996
 21
120.136873243223
 31
0.0
  0
LINE
  5
618
330
E3
100
AcDbEntity
  8
0
  6
Continuous
100
AcDbLine
 10
135.304310945996
 20
120.136873243223
 30
0.0
 11
135.2610646862164
 21
120.1314030663163
 31
0.0
  0
LINE
  5
619
330
E3
100
AcDbEntity
  8
0
  6
Continuous
100
AcDbLine
 10
135.2610646862164
 20
120.1314030663163
 30
0.0
 11
135.2184794929981
 21
120.1259299116323
 31
0.0
  0
LINE
  5
61A
330
E3
100
AcDbEntity
  8
0
  6
Continuous
100
AcDbLine
 10
135.2184794929981
 20
120.1259299116323
 30
0.0
 11
135.1768799440673
 21
120.1204597347257
 31
0.0
  0
LINE
  5
61B
330
E3
100
AcDbEntity
  8
0
  6
Continuous
100
AcDbLine
 10
135.1768799440673
 20
120.1204597347257
 30
0.0
 11
135.1365816838182
 21
120.1149865800417
 31
0.0
  0
LINE
  5
61C
330
E3
100
AcDbEntity
  8
0
  6
Continuous
100
AcDbLine
 10
135.1365816838182
 20
120.1149865800417
 30
0.0
 11
135.097891423313
 21
120.1095164031351
 31
0.0
  0
LINE
  5
61D
330
E3
100
AcDbEntity
  8
0
  6
Continuous
100
AcDbLine
 10
135.097891423313
 20
120.1095164031351
 30
0.0
 11
135.0611009847274
 21
120.1040462262285
 31
0.0
  0
LINE
  5
61E
330
E3
100
AcDbEntity
  8
0
  6
Continuous
100
AcDbLine
 10
135.0611009847274
 20
120.1040462262285
 30
0.0
 11
135.0264962346827
 21
120.0985730715445
 31
0.0
  0
LINE
  5
61F
330
E3
100
AcDbEntity
  8
0
  6
Continuous
100
AcDbLine
 10
135.0264962346827
 20
120.0985730715445
 30
0.0
 11
134.9943362398042
 21
120.0931028946379
 31
0.0
  0
LINE
  5
620
330
E3
100
AcDbEntity
  8
0
  6
Continuous
100
AcDbLine
 10
134.9943362398042
 20
120.0931028946379
 30
0.0
 11
134.9648681556081
 21
120.0876297399539
 31
0.0
  0
LINE
  5
621
330
E3
100
AcDbEntity
  8
0
  6
Continuous
100
AcDbLine
 10
134.9648681556081
 20
120.0876297399539
 30
0.0
 11
134.9383153153922
 21
120.0821595630473
 31
0.0
  0
LINE
  5
622
330
E3
100
AcDbEntity
  8
0
  6
Continuous
100
AcDbLine
 10
134.9383153153922
 20
120.0821595630473
 30
0.0
 11
134.9148772302359
 21
120.0766893861406
 31
0.0
  0
LINE
  5
623
330
E3
100
AcDbEntity
  8
0
  6
Continuous
100
AcDbLine
 10
134.9148772302359
 20
120.0766893861406
 30
0.0
 11
134.8947355445546
 21
120.0712162314567
 31
0.0
  0
LINE
  5
624
330
E3
100
AcDbEntity
  8
0
  6
Continuous
100
AcDbLine
 10
134.8947355445546
 20
120.0712162314567
 30
0.0
 11
134.8780451027681
 21
120.06574605455
 31
0.0
  0
LINE
  5
625
330
E3
100
AcDbEntity
  8
0
  6
Continuous
100
AcDbLine
 10
134.8780451027681
 20
120.06574605455
 30
0.0
 11
134.8649279937459
 21
120.0602728998661
 31
0.0
  0
LINE
  5
626
330
E3
100
AcDbEntity
  8
0
  6
Continuous
100
AcDbLine
 10
134.8649279937459
 20
120.0602728998661
 30
0.0
 11
134.8554854619163
 21
120.0548027229594
 31
0.0
  0
MTEXT
  5
627
330
E3
100
AcDbEntity
  8
Doc_ Floor
  6
Continuous
100
AcDbMText
 10
100.5528247465177
 20
117.0986402158567
 30
0.0
 40
2.5
 41
0.0
 71
     6
 72
     1
  1
{ROOF FIXING}
  7
GENERATED_STYLE_1
 73
     1
 44
1.0
  0
LINE
  5
628
330
E3
100
AcDbEntity
  8
Doc_ Floor
  6
Continuous
100
AcDbLine
 10
135.3478907168337
 20
120.7721224753923
 30
0.0
 11
131.816017545954
 21
119.2055733915332
 31
0.0
  0
LINE
  5
629
330
E3
100
AcDbEntity
  8
Doc_ Floor
  6
Continuous
100
AcDbLine
 10
135.3478907168337
 20
120.7721224753923
 30
0.0
 11
131.50592372867
 21
121.1813881879942
 31
0.0
  0
LINE
  5
62A
330
E3
100
AcDbEntity
  8
Doc_ Floor
  6
Continuous
100
AcDbLine
 10
131.816017545954
 20
119.2055733915332
 30
0.0
 11
131.50592372867
 21
121.1813881879942
 31
0.0
  0
LWPOLYLINE
  5
62B
330
E3
100
AcDbEntity
  8
Doc_ Floor
  6
Continuous
100
AcDbPolyline
 90
        5
 70
   128
 43
0.0
 10
131.6609710197357
 20
120.1934805118116
 10
121.7624849505536
 20
118.7456695266699
 10
113.8642873158823
 20
117.795734463898
 10
107.3373949648332
 20
117.275654998153
 10
101.5528247465178
 20
117.117410804092
  0
ENDBLK
  5
E5
330
E3
100
AcDbEntity
  8
0
100
AcDbBlockEnd
  0
BLOCK
  5
631
330
630
100
AcDbEntity
  8
0
100
AcDbBlockBegin
  2
R-TRS7-09 APRON DETAIL - SIDE_STORY_MARKER
 70
     0
 10
0.0
 20
0.0
 30
0.0
  3
R-TRS7-09 APRON DETAIL - SIDE_STORY_MARKER
  1

  0
ENDBLK
  5
632
330
630
100
AcDbEntity
  8
0
100
AcDbBlockEnd
  0
ENDSEC
  0
SECTION
  2
ENTITIES
  0
HATCH
  5
3F
330
1F
100
AcDbEntity
  8
Doc_ Finishes
  6
Continuous
100
AcDbHatch
 10
0.0
 20
0.0
 30
0.0
210
0.0
220
0.0
230
1.0
  2
SOLID
 70
     1
 71
     0
 91
        1
 92
        3
 72
     0
 73
     1
 93
       54
 10
27.4117749414874
 20
16.87044408857867
 10
26.89356552397386
 20
16.5825499677378
 10
26.5480925789648
 20
16.29465584689693
 10
26.12584786839819
 20
16.02595466744544
 10
25.76118198199976
 20
15.60370995687884
 10
25.39651609560134
 20
15.33500877742737
 10
25.07023609198168
 20
14.89357112547136
 10
24.49444785029994
 20
14.45213347351537
 10
23.93785255000758
 20
14.02988876294876
 10
23.43883607388344
 20
13.81876640766546
 10
22.74789018386533
 20
13.39652169709885
 10
22.09533017662603
 20
12.99346992792163
 10
21.63469958328064
 20
12.55203227596564
 10
20.90536781048376
 20
12.12978756539902
 10
20.59828074825351
 20
11.7459287376112
 10
20.04168544796116
 20
11.28529814426581
 10
19.36993249933246
 20
10.8630534336992
 10
18.73656543348255
 20
10.42161578174319
 10
18.04561954346447
 20
10.15291460229172
 10
17.1051654153843
 20
9.692284008946325
 10
16.39502658397681
 20
9.020531060317637
 10
15.83843128368446
 20
8.598286349751023
 10
15.12829245227699
 20
8.137655756405634
 10
14.84039833143612
 20
7.98411222529051
 10
14.37976773809073
 20
7.81137575278599
 10
14.07268067586046
 20
7.523481631945121
 10
14.0151018516923
 20
7.216394569714853
 10
14.14945244141803
 20
6.890114566095209
 10
14.4373465622589
 20
6.563834562475543
 10
14.8787842142149
 20
6.659799269422514
 10
15.51215128006482
 20
7.06285103859973
 10
16.01116775618899
 20
7.389131042219374
 10
16.33744775980864
 20
7.696218104449641
 10
16.51018423231316
 20
7.907340459732938
 10
17.01303929671522
 20
8.421711288968723
 10
17.33548071205699
 20
8.652026585641417
 10
17.75004824606785
 20
8.99749953065046
 10
18.14158425041142
 20
9.204783297655894
 10
19.24709767444037
 20
9.75754000967037
 10
20.23745345013295
 20
10.47151742935572
 10
21.4120614631637
 20
11.1624633193738
 10
21.84966052684182
 20
11.64612544238645
 10
22.49454335752537
 20
12.06069297639732
 10
23.78430901889248
 20
12.9819541630881
 10
24.3600972605742
 20
13.25833251909534
 10
25.6498629219413
 20
14.24868829478776
 10
25.85714668894673
 20
14.64022429913134
 10
26.68628175696843
 20
15.23904407048036
 10
27.28510152831745
 20
15.72270619349301
 10
27.81482671066464
 20
16.1142421978366
 10
28.27545730401003
 20
16.52880973184745
 10
28.22939424467549
 20
16.7821565581874
 10
28.09120506667188
 20
16.89731420652375
 10
27.56147988432467
 20
16.89731420652375
 97
        0
 75
     0
 76
     1
 98
        0
  0
LINE
  5
41
330
1F
100
AcDbEntity
  8
Doc_ Finishes
  6
Continuous
100
AcDbLine
 10
27.41177566876475
 20
16.87044600708104
 30
0.0
 11
26.89356756490952
 21
16.58254868214004
 31
0.0
  0
LINE
  5
42
330
1F
100
AcDbEntity
  8
Doc_ Finishes
  6
Continuous
100
AcDbLine
 10
26.89356756490952
 20
16.58254868214004
 30
0.0
 11
26.54809254523997
 21
16.29465578284815
 31
0.0
  0
LINE
  5
43
330
1F
100
AcDbEntity
  8
Doc_ Finishes
  6
Continuous
100
AcDbLine
 10
26.54809254523997
 20
16.29465578284815
 30
0.0
 11
26.12584579071597
 21
16.02595249803305
 31
0.0
  0
LINE
  5
44
330
1F
100
AcDbEntity
  8
Doc_ Finishes
  6
Continuous
100
AcDbLine
 10
26.12584579071597
 20
16.02595249803305
 30
0.0
 11
25.76118115656963
 21
15.60371016915814
 31
0.0
  0
LINE
  5
45
330
1F
100
AcDbEntity
  8
Doc_ Finishes
  6
Continuous
100
AcDbLine
 10
25.76118115656963
 20
15.60371016915814
 30
0.0
 11
25.39651652242329
 21
15.33500688434304
 31
0.0
  0
LINE
  5
46
330
1F
100
AcDbEntity
  8
Doc_ Finishes
  6
Continuous
100
AcDbLine
 10
25.39651652242329
 20
15.33500688434304
 30
0.0
 11
25.07023554287962
 21
14.89357051534225
 31
0.0
  0
LINE
  5
47
330
1F
100
AcDbEntity
  8
Doc_ Finishes
  6
Continuous
100
AcDbLine
 10
25.07023554287962
 20
14.89357051534225
 30
0.0
 11
24.49444974429583
 21
14.45213414634146
 31
0.0
  0
LINE
  5
48
330
1F
100
AcDbEntity
  8
Doc_ Finishes
  6
Continuous
100
AcDbLine
 10
24.49444974429583
 20
14.45213414634146
 30
0.0
 11
23.93785356018882
 21
14.02988739181747
 31
0.0
  0
LINE
  5
49
330
1F
100
AcDbEntity
  8
Doc_ Finishes
  6
Continuous
100
AcDbLine
 10
23.93785356018882
 20
14.02988739181747
 30
0.0
 11
23.43883507081038
 21
13.81876622738001
 31
0.0
  0
LINE
  5
4A
330
1F
100
AcDbEntity
  8
Doc_ Finishes
  6
Continuous
100
AcDbLine
 10
23.43883507081038
 20
13.81876622738001
 30
0.0
 11
22.74788945712038
 21
13.39652389850511
 31
0.0
  0
LINE
  5
4B
330
1F
100
AcDbEntity
  8
Doc_ Finishes
  6
Continuous
100
AcDbLine
 10
22.74788945712038
 20
13.39652389850511
 30
0.0
 11
22.09533192368214
 21
12.993471184107
 31
0.0
  0
LINE
  5
4C
330
1F
100
AcDbEntity
  8
Doc_ Finishes
  6
Continuous
100
AcDbLine
 10
22.09533192368214
 20
12.993471184107
 30
0.0
 11
21.63470151455547
 21
12.55203038945712
 31
0.0
  0
LINE
  5
4D
330
1F
100
AcDbEntity
  8
Doc_ Finishes
  6
Continuous
100
AcDbLine
 10
21.63470151455547
 20
12.55203038945712
 30
0.0
 11
20.90536782061369
 21
12.12978806058222
 31
0.0
  0
LINE
  5
4E
330
1F
100
AcDbEntity
  8
Doc_ Finishes
  6
Continuous
100
AcDbLine
 10
20.90536782061369
 20
12.12978806058222
 30
0.0
 11
20.59828088119591
 21
11.74592938630999
 31
0.0
  0
LINE
  5
4F
330
1F
100
AcDbEntity
  8
Doc_ Finishes
  6
Continuous
100
AcDbLine
 10
20.59828088119591
 20
11.74592938630999
 30
0.0
 11
20.0416846970889
 21
11.28529897718332
 31
0.0
  0
LINE
  5
50
330
1F
100
AcDbEntity
  8
Doc_ Finishes
  6
Continuous
100
AcDbLine
 10
20.0416846970889
 20
11.28529897718332
 30
0.0
 11
19.36993312352478
 21
10.86305222265932
 31
0.0
  0
LINE
  5
51
330
1F
100
AcDbEntity
  8
Doc_ Finishes
  6
Continuous
100
AcDbLine
 10
19.36993312352478
 20
10.86305222265932
 30
0.0
 11
18.73656520456333
 21
10.42161585365854
 31
0.0
  0
LINE
  5
52
330
1F
100
AcDbEntity
  8
Doc_ Finishes
  6
Continuous
100
AcDbLine
 10
18.73656520456333
 20
10.42161585365854
 30
0.0
 11
18.04561959087333
 21
10.15291256884343
 31
0.0
  0
LINE
  5
53
330
1F
100
AcDbEntity
  8
Doc_ Finishes
  6
Continuous
100
AcDbLine
 10
18.04561959087333
 20
10.15291256884343
 30
0.0
 11
17.1051647324941
 21
9.692282159716758
 31
0.0
  0
LINE
  5
54
330
1F
100
AcDbEntity
  8
Doc_ Finishes
  6
Continuous
100
AcDbLine
 10
17.1051647324941
 20
9.692282159716758
 30
0.0
 11
16.3950250786782
 21
9.020530586152635
 31
0.0
  0
LINE
  5
55
330
1F
100
AcDbEntity
  8
Doc_ Finishes
  6
Continuous
100
AcDbLine
 10
16.3950250786782
 20
9.020530586152635
 30
0.0
 11
15.8384333202203
 21
8.598288257277733
 31
0.0
  0
LINE
  5
56
330
1F
100
AcDbEntity
  8
Doc_ Finishes
  6
Continuous
100
AcDbLine
 10
15.8384333202203
 20
8.598288257277733
 30
0.0
 11
15.1282936664044
 21
8.137657848151063
 31
0.0
  0
LINE
  5
57
330
1F
100
AcDbEntity
  8
Doc_ Finishes
  6
Continuous
100
AcDbLine
 10
15.1282936664044
 20
8.137657848151063
 30
0.0
 11
14.84039634146341
 21
7.984114378442171
 31
0.0
  0
LINE
  5
58
330
1F
100
AcDbEntity
  8
Doc_ Finishes
  6
Continuous
100
AcDbLine
 10
14.84039634146341
 20
7.984114378442171
 30
0.0
 11
14.37976593233674
 21
7.811376868607396
 31
0.0
  0
LINE
  5
59
330
1F
100
AcDbEntity
  8
Doc_ Finishes
  6
Continuous
100
AcDbLine
 10
14.37976593233674
 20
7.811376868607396
 30
0.0
 11
14.07267899291896
 21
7.523479543666405
 31
0.0
  0
LINE
  5
5A
330
1F
100
AcDbEntity
  8
Doc_ Finishes
  6
Continuous
100
AcDbLine
 10
14.07267899291896
 20
7.523479543666405
 30
0.0
 11
14.0151012981904
 21
7.216392604248622
 31
0.0
  0
LINE
  5
5B
330
1F
100
AcDbEntity
  8
Doc_ Finishes
  6
Continuous
100
AcDbLine
 10
14.0151012981904
 20
7.216392604248622
 30
0.0
 11
14.14945072777341
 21
6.890116050354051
 31
0.0
  0
LINE
  5
5C
330
1F
100
AcDbEntity
  8
Doc_ Finishes
  6
Continuous
100
AcDbLine
 10
14.14945072777341
 20
6.890116050354051
 30
0.0
 11
14.4373480527144
 21
6.563835070810386
 31
0.0
  0
LINE
  5
5D
330
1F
100
AcDbEntity
  8
Doc_ Finishes
  6
Continuous
100
AcDbLine
 10
14.4373480527144
 20
6.563835070810386
 30
0.0
 11
14.87878442171519
 21
6.659800845790715
 31
0.0
  0
LINE
  5
5E
330
1F
100
AcDbEntity
  8
Doc_ Finishes
  6
Continuous
100
AcDbLine
 10
14.87878442171519
 20
6.659800845790715
 30
0.0
 11
15.51215234067663
 21
7.062849134539732
 31
0.0
  0
LINE
  5
5F
330
1F
100
AcDbEntity
  8
Doc_ Finishes
  6
Continuous
100
AcDbLine
 10
15.51215234067663
 20
7.062849134539732
 30
0.0
 11
16.01116640440598
 21
7.389130114083398
 31
0.0
  0
LINE
  5
60
330
1F
100
AcDbEntity
  8
Doc_ Finishes
  6
Continuous
100
AcDbLine
 10
16.01116640440598
 20
7.389130114083398
 30
0.0
 11
16.33744738394964
 21
7.69621705350118
 31
0.0
  0
LINE
  5
61
330
1F
100
AcDbEntity
  8
Doc_ Finishes
  6
Continuous
100
AcDbLine
 10
16.33744738394964
 20
7.69621705350118
 30
0.0
 11
16.51018489378442
 21
7.907342643587726
 31
0.0
  0
LINE
  5
62
330
1F
100
AcDbEntity
  8
Doc_ Finishes
  6
Continuous
100
AcDbLine
 10
16.51018489378442
 20
7.907342643587726
 30
0.0
 11
17.0130404209284
 21
8.421709284028323
 31
0.0
  0
LINE
  5
63
330
1F
100
AcDbEntity
  8
Doc_ Finishes
  6
Continuous
100
AcDbLine
 10
17.0130404209284
 20
8.421709284028323
 30
0.0
 11
17.33547993705743
 21
8.65202448859166
 31
0.0
  0
LINE
  5
64
330
1F
100
AcDbEntity
  8
Doc_ Finishes
  6
Continuous
100
AcDbLine
 10
17.33547993705743
 20
8.65202448859166
 30
0.0
 11
17.75004819040126
 21
8.997499508261212
 31
0.0
  0
LINE
  5
65
330
1F
100
AcDbEntity
  8
Doc_ Finishes
  6
Continuous
100
AcDbLine
 10
17.75004819040126
 20
8.997499508261212
 30
0.0
 11
18.14158536585366
 21
9.204783634933122
 31
0.0
  0
LINE
  5
66
330
1F
100
AcDbEntity
  8
Doc_ Finishes
  6
Continuous
100
AcDbLine
 10
18.14158536585366
 20
9.204783634933122
 30
0.0
 11
19.24709923288749
 21
9.75753835562549
 31
0.0
  0
LINE
  5
67
330
1F
100
AcDbEntity
  8
Doc_ Finishes
  6
Continuous
100
AcDbLine
 10
19.24709923288749
 20
9.75753835562549
 30
0.0
 11
20.23745328481511
 21
10.47151947285602
 31
0.0
  0
LINE
  5
68
330
1F
100
AcDbEntity
  8
Doc_ Finishes
  6
Continuous
100
AcDbLine
 10
20.23745328481511
 20
10.47151947285602
 30
0.0
 11
21.41206038552321
 21
11.16246508654602
 31
0.0
  0
LINE
  5
69
330
1F
100
AcDbEntity
  8
Doc_ Finishes
  6
Continuous
100
AcDbLine
 10
21.41206038552321
 20
11.16246508654602
 30
0.0
 11
21.84965971675846
 21
11.64612657356412
 31
0.0
  0
LINE
  5
6A
330
1F
100
AcDbEntity
  8
Doc_ Finishes
  6
Continuous
100
AcDbLine
 10
21.84965971675846
 20
11.64612657356412
 30
0.0
 11
22.49454317466562
 21
12.06069482690795
 31
0.0
  0
LINE
  5
6B
330
1F
100
AcDbEntity
  8
Doc_ Finishes
  6
Continuous
100
AcDbLine
 10
22.49454317466562
 20
12.06069482690795
 30
0.0
 11
23.78431009047993
 21
12.98195564516129
 31
0.0
  0
LINE
  5
6C
330
1F
100
AcDbEntity
  8
Doc_ Finishes
  6
Continuous
100
AcDbLine
 10
23.78431009047993
 20
12.98195564516129
 30
0.0
 11
24.36009588906373
 21
13.25833300550747
 31
0.0
  0
LINE
  5
6D
330
1F
100
AcDbEntity
  8
Doc_ Finishes
  6
Continuous
100
AcDbLine
 10
24.36009588906373
 20
13.25833300550747
 30
0.0
 11
25.64986280487805
 21
14.24868705743509
 31
0.0
  0
LINE
  5
6E
330
1F
100
AcDbEntity
  8
Doc_ Finishes
  6
Continuous
100
AcDbLine
 10
25.64986280487805
 20
14.24868705743509
 30
0.0
 11
25.85714693154996
 21
14.64022423288749
 31
0.0
  0
LINE
  5
6F
330
1F
100
AcDbEntity
  8
Doc_ Finishes
  6
Continuous
100
AcDbLine
 10
25.85714693154996
 20
14.64022423288749
 30
0.0
 11
26.68628343823761
 21
15.2390455350118
 31
0.0
  0
LINE
  5
70
330
1F
100
AcDbEntity
  8
Doc_ Finishes
  6
Continuous
100
AcDbLine
 10
26.68628343823761
 20
15.2390455350118
 30
0.0
 11
27.28510031471282
 21
15.7227070220299
 31
0.0
  0
LINE
  5
71
330
1F
100
AcDbEntity
  8
Doc_ Finishes
  6
Continuous
100
AcDbLine
 10
27.28510031471282
 20
15.7227070220299
 30
0.0
 11
27.81482838316287
 21
16.1142441974823
 31
0.0
  0
LINE
  5
72
330
1F
100
AcDbEntity
  8
Doc_ Finishes
  6
Continuous
100
AcDbLine
 10
27.81482838316287
 20
16.1142441974823
 30
0.0
 11
28.27545879228953
 21
16.52880802517702
 31
0.0
  0
LINE
  5
73
330
1F
100
AcDbEntity
  8
Doc_ Finishes
  6
Continuous
100
AcDbLine
 10
28.27545879228953
 20
16.52880802517702
 30
0.0
 11
28.22939221085759
 21
16.78215873328088
 31
0.0
  0
LINE
  5
74
330
1F
100
AcDbEntity
  8
Doc_ Finishes
  6
Continuous
100
AcDbLine
 10
28.22939221085759
 20
16.78215873328088
 30
0.0
 11
28.09120574350905
 21
16.897314122738
 31
0.0
  0
LINE
  5
75
330
1F
100
AcDbEntity
  8
Doc_ Finishes
  6
Continuous
100
AcDbLine
 10
28.09120574350905
 20
16.897314122738
 30
0.0
 11
27.56147767505901
 21
16.897314122738
 31
0.0
  0
LINE
  5
76
330
1F
100
AcDbEntity
  8
Doc_ Finishes
  6
Continuous
100
AcDbLine
 10
27.56147767505901
 20
16.897314122738
 30
0.0
 11
27.41177566876475
 21
16.87044600708104
 31
0.0
  0
HATCH
  5
77
330
1F
100
AcDbEntity
  8
Doc_ Finishes
  6
Continuous
100
AcDbHatch
 10
0.0
 20
0.0
 30
0.0
210
0.0
220
0.0
230
1.0
  2
SOLID
 70
     1
 71
     0
 91
        1
 92
        3
 72
     0
 73
     1
 93
       39
 10
27.65360600299377
 20
13.12014334109181
 10
27.21600693931564
 20
12.77467039608275
 10
26.54809257896482
 20
12.24494521373555
 10
25.92624127794851
 20
11.85340920939199
 10
25.32742150659951
 20
11.32368402704478
 10
24.72860173525052
 20
11.04730567103754
 10
24.08371890456698
 20
10.56364354802488
 10
23.62308831122158
 20
10.33332825135219
 10
23.231552306878
 20
10.03391836567767
 10
22.81698477286715
 20
9.619350831666825
 10
22.40241723885631
 20
9.38903553499415
 10
21.91875511584363
 20
9.043562589985086
 10
21.66540828950367
 20
8.859310352646935
 10
21.25084075549282
 20
8.582931996639696
 10
20.09926427212933
 20
7.753796928618002
 10
19.75379132712029
 20
7.477418572610764
 10
19.2931607337749
 20
7.316197864939873
 10
19.22406614477309
 20
6.993756449598113
 10
19.3622553227767
 20
6.717378093590874
 10
19.63863367878394
 20
6.602220445254527
 10
20.00713815346026
 20
6.8325357419272
 10
20.26048497980021
 20
7.131945627601722
 10
20.55989486547472
 20
7.362260924274415
 10
21.31993534449462
 20
7.707733869283458
 10
21.84966052684182
 20
8.122301403294307
 10
22.88607936186895
 20
8.882341882314256
 10
23.20852077721072
 20
9.342972475659646
 10
24.01462431556515
 20
9.734508480003234
 10
24.5673810275796
 20
10.05694989534501
 10
25.46561068460312
 20
10.60970660735953
 10
25.88017821861399
 20
11.07033720070492
 10
26.31777728229212
 20
11.34671555671216
 10
26.70931328663569
 20
11.30065249737762
 10
27.21600693931562
 20
11.55399932371759
 10
28.0681735370046
 20
12.17585062473387
 10
28.41364648201364
 20
12.49829204007566
 10
28.39061495234636
 20
12.77467039608289
 10
28.22939424467547
 20
13.00498569275559
 10
28.04514200733732
 20
13.05104875209013
 97
        0
 75
     0
 76
     1
 98
        0
  0
LINE
  5
78
330
1F
100
AcDbEntity
  8
Doc_ Finishes
  6
Continuous
100
AcDbLine
 10
27.6536064122738
 20
13.12014211250983
 30
0.0
 11
27.21600708103855
 21
12.77467151848938
 31
0.0
  0
LINE
  5
79
330
1F
100
AcDbEntity
  8
Doc_ Finishes
  6
Continuous
100
AcDbLine
 10
27.21600708103855
 20
12.77467151848938
 30
0.0
 11
26.54809254523997
 21
12.24494345003934
 31
0.0
  0
LINE
  5
7A
330
1F
100
AcDbEntity
  8
Doc_ Finishes
  6
Continuous
100
AcDbLine
 10
26.54809254523997
 20
12.24494345003934
 30
0.0
 11
25.92624016522423
 21
11.85341070023603
 31
0.0
  0
LINE
  5
7B
330
1F
100
AcDbEntity
  8
Doc_ Finishes
  6
Continuous
100
AcDbLine
 10
25.92624016522423
 20
11.85341070023603
 30
0.0
 11
25.32742328874902
 21
11.32368263178599
 31
0.0
  0
LINE
  5
7C
330
1F
100
AcDbEntity
  8
Doc_ Finishes
  6
Continuous
100
AcDbLine
 10
25.32742328874902
 20
11.32368263178599
 30
0.0
 11
24.72860198662471
 21
11.04730527143981
 31
0.0
  0
LINE
  5
7D
330
1F
100
AcDbEntity
  8
Doc_ Finishes
  6
Continuous
100
AcDbLine
 10
24.72860198662471
 20
11.04730527143981
 30
0.0
 11
24.08371852871754
 21
10.56364378442171
 31
0.0
  0
LINE
  5
7E
330
1F
100
AcDbEntity
  8
Doc_ Finishes
  6
Continuous
100
AcDbLine
 10
24.08371852871754
 20
10.56364378442171
 30
0.0
 11
23.62308811959087
 21
10.33332857985838
 31
0.0
  0
LINE
  5
7F
330
1F
100
AcDbEntity
  8
Doc_ Finishes
  6
Continuous
100
AcDbLine
 10
23.62308811959087
 20
10.33332857985838
 30
0.0
 11
23.23155094413847
 21
10.03392014162077
 31
0.0
  0
LINE
  5
80
330
1F
100
AcDbEntity
  8
Doc_ Finishes
  6
Continuous
100
AcDbLine
 10
23.23155094413847
 20
10.03392014162077
 30
0.0
 11
22.81698269079465
 21
9.619351888276947
 31
0.0
  0
LINE
  5
81
330
1F
100
AcDbEntity
  8
Doc_ Finishes
  6
Continuous
100
AcDbLine
 10
22.81698269079465
 20
9.619351888276947
 30
0.0
 11
22.40241886309992
 21
9.389036683713611
 31
0.0
  0
LINE
  5
82
330
1F
100
AcDbEntity
  8
Doc_ Finishes
  6
Continuous
100
AcDbLine
 10
22.40241886309992
 20
9.389036683713611
 30
0.0
 11
21.91875295043273
 21
9.04356166404406
 31
0.0
  0
LINE
  5
83
330
1F
100
AcDbEntity
  8
Doc_ Finishes
  6
Continuous
100
AcDbLine
 10
21.91875295043273
 20
9.04356166404406
 30
0.0
 11
21.66540666797797
 21
8.859308615263572
 31
0.0
  0
LINE
  5
84
330
1F
100
AcDbEntity
  8
Doc_ Finishes
  6
Continuous
100
AcDbLine
 10
21.66540666797797
 20
8.859308615263572
 30
0.0
 11
21.25084284028324
 21
8.582931254917387
 31
0.0
  0
LINE
  5
85
330
1F
100
AcDbEntity
  8
Doc_ Finishes
  6
Continuous
100
AcDbLine
 10
21.25084284028324
 20
8.582931254917387
 30
0.0
 11
20.09926239181747
 21
7.75379474822974
 31
0.0
  0
LINE
  5
86
330
1F
100
AcDbEntity
  8
Doc_ Finishes
  6
Continuous
100
AcDbLine
 10
20.09926239181747
 20
7.75379474822974
 30
0.0
 11
19.75379179779701
 21
7.477417387883556
 31
0.0
  0
LINE
  5
87
330
1F
100
AcDbEntity
  8
Doc_ Finishes
  6
Continuous
100
AcDbLine
 10
19.75379179779701
 20
7.477417387883556
 30
0.0
 11
19.29316138867033
 21
7.316199842643588
 31
0.0
  0
LINE
  5
88
330
1F
100
AcDbEntity
  8
Doc_ Finishes
  6
Continuous
100
AcDbLine
 10
19.29316138867033
 20
7.316199842643588
 30
0.0
 11
19.22406815499606
 21
6.993755900865461
 31
0.0
  0
LINE
  5
89
330
1F
100
AcDbEntity
  8
Doc_ Finishes
  6
Continuous
100
AcDbLine
 10
19.22406815499606
 20
6.993755900865461
 30
0.0
 11
19.36225462234461
 21
6.717378540519276
 31
0.0
  0
LINE
  5
8A
330
1F
100
AcDbEntity
  8
Doc_ Finishes
  6
Continuous
100
AcDbLine
 10
19.36225462234461
 20
6.717378540519276
 30
0.0
 11
19.63863198269079
 21
6.602218725413059
 31
0.0
  0
LINE
  5
8B
330
1F
100
AcDbEntity
  8
Doc_ Finishes
  6
Continuous
100
AcDbLine
 10
19.63863198269079
 20
6.602218725413059
 30
0.0
 11
20.00713808025177
 21
6.832533929976396
 31
0.0
  0
LINE
  5
8C
330
1F
100
AcDbEntity
  8
Doc_ Finishes
  6
Continuous
100
AcDbLine
 10
20.00713808025177
 20
6.832533929976396
 30
0.0
 11
20.26048436270653
 21
7.1319467938631
 31
0.0
  0
LINE
  5
8D
330
1F
100
AcDbEntity
  8
Doc_ Finishes
  6
Continuous
100
AcDbLine
 10
20.26048436270653
 20
7.1319467938631
 30
0.0
 11
20.55989280094414
 21
7.362261998426435
 31
0.0
  0
LINE
  5
8E
330
1F
100
AcDbEntity
  8
Doc_ Finishes
  6
Continuous
100
AcDbLine
 10
20.55989280094414
 20
7.362261998426435
 30
0.0
 11
21.31993607395751
 21
7.707732592446892
 31
0.0
  0
LINE
  5
8F
330
1F
100
AcDbEntity
  8
Doc_ Finishes
  6
Continuous
100
AcDbLine
 10
21.31993607395751
 20
7.707732592446892
 30
0.0
 11
21.84965971675846
 21
8.122300845790717
 31
0.0
  0
LINE
  5
90
330
1F
100
AcDbEntity
  8
Doc_ Finishes
  6
Continuous
100
AcDbLine
 10
21.84965971675846
 20
8.122300845790717
 30
0.0
 11
22.88608035011802
 21
8.882339693154996
 31
0.0
  0
LINE
  5
91
330
1F
100
AcDbEntity
  8
Doc_ Finishes
  6
Continuous
100
AcDbLine
 10
22.88608035011802
 20
8.882339693154996
 30
0.0
 11
23.20851986624705
 21
9.342974527930762
 31
0.0
  0
LINE
  5
92
330
1F
100
AcDbEntity
  8
Doc_ Finishes
  6
Continuous
100
AcDbLine
 10
23.20851986624705
 20
9.342974527930762
 30
0.0
 11
24.01462529504327
 21
9.734507277734066
 31
0.0
  0
LINE
  5
93
330
1F
100
AcDbEntity
  8
Doc_ Finishes
  6
Continuous
100
AcDbLine
 10
24.01462529504327
 20
9.734507277734066
 30
0.0
 11
24.56738001573564
 21
10.05695121951219
 31
0.0
  0
LINE
  5
94
330
1F
100
AcDbEntity
  8
Doc_ Finishes
  6
Continuous
100
AcDbLine
 10
24.56738001573564
 20
10.05695121951219
 30
0.0
 11
25.46560975609756
 21
10.60970594020456
 31
0.0
  0
LINE
  5
95
330
1F
100
AcDbEntity
  8
Doc_ Finishes
  6
Continuous
100
AcDbLine
 10
25.46560975609756
 20
10.60970594020456
 30
0.0
 11
25.88017800944139
 21
11.07033634933124
 31
0.0
  0
LINE
  5
96
330
1F
100
AcDbEntity
  8
Doc_ Finishes
  6
Continuous
100
AcDbLine
 10
25.88017800944139
 20
11.07033634933124
 30
0.0
 11
26.31777734067663
 21
11.34671370967742
 31
0.0
  0
LINE
  5
97
330
1F
100
AcDbEntity
  8
Doc_ Finishes
  6
Continuous
100
AcDbLine
 10
26.31777734067663
 20
11.34671370967742
 30
0.0
 11
26.70931451612903
 21
11.30065155389457
 31
0.0
  0
LINE
  5
98
330
1F
100
AcDbEntity
  8
Doc_ Finishes
  6
Continuous
100
AcDbLine
 10
26.70931451612903
 20
11.30065155389457
 30
0.0
 11
27.21600708103855
 21
11.55399783634933
 31
0.0
  0
LINE
  5
99
330
1F
100
AcDbEntity
  8
Doc_ Finishes
  6
Continuous
100
AcDbLine
 10
27.21600708103855
 20
11.55399783634933
 30
0.0
 11
28.06817466561763
 21
12.17585021636507
 31
0.0
  0
LINE
  5
9A
330
1F
100
AcDbEntity
  8
Doc_ Finishes
  6
Continuous
100
AcDbLine
 10
28.06817466561763
 20
12.17585021636507
 30
0.0
 11
28.41364525963808
 21
12.49829415814319
 31
0.0
  0
LINE
  5
9B
330
1F
100
AcDbEntity
  8
Doc_ Finishes
  6
Continuous
100
AcDbLine
 10
28.41364525963808
 20
12.49829415814319
 30
0.0
 11
28.39061418174666
 21
12.77467151848938
 31
0.0
  0
LINE
  5
9C
330
1F
100
AcDbEntity
  8
Doc_ Finishes
  6
Continuous
100
AcDbLine
 10
28.39061418174666
 20
12.77467151848938
 30
0.0
 11
28.22939221085759
 21
13.00498672305271
 31
0.0
  0
LINE
  5
9D
330
1F
100
AcDbEntity
  8
Doc_ Finishes
  6
Continuous
100
AcDbLine
 10
28.22939221085759
 20
13.00498672305271
 30
0.0
 11
28.04514358772619
 21
13.05104887883556
 31
0.0
  0
LINE
  5
9E
330
1F
100
AcDbEntity
  8
Doc_ Finishes
  6
Continuous
100
AcDbLine
 10
28.04514358772619
 20
13.05104887883556
 30
0.0
 11
27.6536064122738
 21
13.12014211250983
 31
0.0
  0
HATCH
  5
9F
330
1F
100
AcDbEntity
  8
Doc_ Finishes
  6
Continuous
100
AcDbHatch
 10
0.0
 20
0.0
 30
0.0
210
0.0
220
0.0
230
1.0
  2
SOLID
 70
     1
 71
     0
 91
        1
 92
        3
 72
     0
 73
     1
 93
       47
 10
28.06817353700456
 20
15.74573772316067
 10
28.30309513961077
 20
15.62136746295728
 10
28.4412843176144
 20
15.4002647781515
 10
28.93876535842742
 20
15.17916209334572
 10
29.82317609765057
 20
14.40530269652538
 10
30.92868952167951
 20
13.74199464210799
 10
31.59199757609689
 20
13.3827027792986
 10
32.20002995931279
 20
13.07868658769064
 10
33.55428390374828
 20
12.08372450606458
 10
34.07940278016201
 20
11.69679480765445
 10
34.88090001258301
 20
11.08876242443854
 10
35.59948373820179
 20
10.50836787682334
 10
36.5668079842271
 20
9.817421986805197
 10
37.06428902504012
 20
9.458130123995785
 10
37.81051058625966
 20
8.933011247582023
 10
38.61200781868061
 20
8.407892371168286
 10
38.77783483228498
 20
8.186789686362482
 10
39.38586721550092
 20
7.744584316750918
 10
40.18736444792187
 20
6.915449248729224
 10
40.7953968311378
 20
6.44560604351692
 10
41.56925622795804
 20
6.169227687509681
 10
42.23256428237543
 20
6.086314180707507
 10
42.48130480278193
 20
6.30741686551329
 10
42.14965077557326
 20
6.611433057121246
 10
41.48634272115586
 20
6.998362755531397
 10
40.76775899553709
 20
7.357654618340788
 10
40.18736444792187
 20
8.048600508358874
 10
38.99893751709079
 20
8.822459905179112
 10
38.47381864067705
 20
9.319940945992132
 10
38.22507812027052
 20
9.734508480003
 10
37.17484036744301
 20
10.31490302761817
 10
36.73263499783144
 20
10.78474623283046
 10
36.2351539570184
 20
11.17167593124059
 10
35.48893239579888
 20
11.61388130085215
 10
34.85326217698223
 20
12.16663801286669
 10
34.35578113616919
 20
12.58120554687754
 10
33.69247308175183
 20
12.99577308088841
 10
33.22262987653953
 20
13.32742710809708
 10
32.7251488357265
 20
13.5761676285036
 10
31.93747052110588
 20
14.06443605744977
 10
31.43077686842594
 20
14.38687747279155
 10
30.92408321574601
 20
14.70931888813342
 10
30.62467333007151
 20
15.100854892477
 10
29.95675896972068
 20
15.67664313415887
 10
29.47309684670803
 20
15.9530214901661
 10
28.82821401602447
 20
16.36758902417695
 10
28.50577260068269
 20
16.22939984617334
 97
        0
 75
     0
 76
     1
 98
        0
  0
LINE
  5
A0
330
1F
100
AcDbEntity
  8
Doc_ Finishes
  6
Continuous
100
AcDbLine
 10
28.30309697088906
 20
15.62136850904799
 30
0.0
 11
28.06817466561763
 21
15.74573809992132
 31
0.0
  0
LINE
  5
A1
330
1F
100
AcDbEntity
  8
Doc_ Finishes
  6
Continuous
100
AcDbLine
 10
28.44128343823761
 20
15.40026308025177
 30
0.0
 11
28.30309697088906
 21
15.62136850904799
 31
0.0
  0
LINE
  5
A2
330
1F
100
AcDbEntity
  8
Doc_ Finishes
  6
Continuous
100
AcDbLine
 10
28.93876622738001
 20
15.17916207710464
 30
0.0
 11
28.44128343823761
 21
15.40026308025177
 31
0.0
  0
LINE
  5
A3
330
1F
100
AcDbEntity
  8
Doc_ Finishes
  6
Continuous
100
AcDbLine
 10
29.82317466561762
 20
14.40530192761605
 30
0.0
 11
28.93876622738001
 21
15.17916207710464
 31
0.0
  0
LINE
  5
A4
330
1F
100
AcDbEntity
  8
Doc_ Finishes
  6
Continuous
100
AcDbLine
 10
30.92868853265146
 20
13.74199449252557
 30
0.0
 11
29.82317466561762
 21
14.40530192761605
 31
0.0
  0
LINE
  5
A5
330
1F
100
AcDbEntity
  8
Doc_ Finishes
  6
Continuous
100
AcDbLine
 10
31.59199596774193
 20
13.3827025963808
 30
0.0
 11
30.92868853265146
 21
13.74199449252557
 31
0.0
  0
LINE
  5
A6
330
1F
100
AcDbEntity
  8
Doc_ Finishes
  6
Continuous
100
AcDbLine
 10
32.20003147128246
 20
13.07868705743509
 30
0.0
 11
31.59199596774193
 21
13.3827025963808
 31
0.0
  0
LINE
  5
A7
330
1F
100
AcDbEntity
  8
Doc_ Finishes
  6
Continuous
100
AcDbLine
 10
33.55428452006294
 20
12.08372590479937
 30
0.0
 11
32.20003147128246
 21
13.07868705743509
 31
0.0
  0
LINE
  5
A8
330
1F
100
AcDbEntity
  8
Doc_ Finishes
  6
Continuous
100
AcDbLine
 10
34.07940106215578
 20
11.69679583005508
 30
0.0
 11
33.55428452006294
 21
12.08372590479937
 31
0.0
  0
LINE
  5
A9
330
1F
100
AcDbEntity
  8
Doc_ Finishes
  6
Continuous
100
AcDbLine
 10
34.8808993902439
 20
11.08876032651456
 30
0.0
 11
34.07940106215578
 21
11.69679583005508
 31
0.0
  0
LINE
  5
AA
330
1F
100
AcDbEntity
  8
Doc_ Finishes
  6
Continuous
100
AcDbLine
 10
35.59948318253343
 20
10.50836742722266
 30
0.0
 11
34.8808993902439
 21
11.08876032651456
 31
0.0
  0
LINE
  5
AB
330
1F
100
AcDbEntity
  8
Doc_ Finishes
  6
Continuous
100
AcDbLine
 10
36.56680615656963
 20
9.817421813532652
 30
0.0
 11
35.59948318253343
 21
10.50836742722266
 31
0.0
  0
LINE
  5
AC
330
1F
100
AcDbEntity
  8
Doc_ Finishes
  6
Continuous
100
AcDbLine
 10
37.06428894571204
 20
9.458129917387884
 30
0.0
 11
36.56680615656963
 21
9.817421813532652
 31
0.0
  0
LINE
  5
AD
330
1F
100
AcDbEntity
  8
Doc_ Finishes
  6
Continuous
100
AcDbLine
 10
37.8105109166011
 20
8.933013375295044
 30
0.0
 11
37.06428894571204
 21
9.458129917387884
 31
0.0
  0
LINE
  5
AE
330
1F
100
AcDbEntity
  8
Doc_ Finishes
  6
Continuous
100
AcDbLine
 10
38.61200924468922
 20
8.407892407553108
 30
0.0
 11
37.8105109166011
 21
8.933013375295044
 31
0.0
  0
LINE
  5
AF
330
1F
100
AcDbEntity
  8
Doc_ Finishes
  6
Continuous
100
AcDbLine
 10
38.77783389063729
 20
8.18679140440598
 30
0.0
 11
38.61200924468922
 21
8.407892407553108
 31
0.0
  0
LINE
  5
B0
330
1F
100
AcDbEntity
  8
Doc_ Finishes
  6
Continuous
100
AcDbLine
 10
39.3858693941778
 20
7.744584972462627
 30
0.0
 11
38.77783389063729
 21
8.18679140440598
 31
0.0
  0
LINE
  5
B1
330
1F
100
AcDbEntity
  8
Doc_ Finishes
  6
Continuous
100
AcDbLine
 10
40.18736329661684
 20
6.915448465774981
 30
0.0
 11
39.3858693941778
 21
7.744584972462627
 31
0.0
  0
LINE
  5
B2
330
1F
100
AcDbEntity
  8
Doc_ Finishes
  6
Continuous
100
AcDbLine
 10
40.79539880015735
 20
6.4456038552321
 30
0.0
 11
40.18736329661684
 21
6.915448465774981
 31
0.0
  0
LINE
  5
B3
330
1F
100
AcDbEntity
  8
Doc_ Finishes
  6
Continuous
100
AcDbLine
 10
41.56925452399685
 20
6.169226494885916
 30
0.0
 11
40.79539880015735
 21
6.4456038552321
 31
0.0
  0
LINE
  5
B4
330
1F
100
AcDbEntity
  8
Doc_ Finishes
  6
Continuous
100
AcDbLine
 10
42.23256638473643
 20
6.086316384736428
 30
0.0
 11
41.56925452399685
 21
6.169226494885916
 31
0.0
  0
LINE
  5
B5
330
1F
100
AcDbEntity
  8
Doc_ Finishes
  6
Continuous
100
AcDbLine
 10
42.48130556648308
 20
6.307417387883556
 30
0.0
 11
42.23256638473643
 21
6.086316384736428
 31
0.0
  0
LINE
  5
B6
330
1F
100
AcDbEntity
  8
Doc_ Finishes
  6
Continuous
100
AcDbLine
 10
42.14965184893784
 20
6.611432926829268
 30
0.0
 11
42.48130556648308
 21
6.307417387883556
 31
0.0
  0
LINE
  5
B7
330
1F
100
AcDbEntity
  8
Doc_ Finishes
  6
Continuous
100
AcDbLine
 10
41.48634441384736
 20
6.998363001573564
 30
0.0
 11
42.14965184893784
 21
6.611432926829268
 31
0.0
  0
LINE
  5
B8
330
1F
100
AcDbEntity
  8
Doc_ Finishes
  6
Continuous
100
AcDbLine
 10
40.76776062155783
 20
7.357654897718332
 30
0.0
 11
41.48634441384736
 21
6.998363001573564
 31
0.0
  0
LINE
  5
B9
330
1F
100
AcDbEntity
  8
Doc_ Finishes
  6
Continuous
100
AcDbLine
 10
40.18736329661684
 20
8.048600511408338
 30
0.0
 11
40.76776062155783
 21
7.357654897718332
 31
0.0
  0
LINE
  5
BA
330
1F
100
AcDbEntity
  8
Doc_ Finishes
  6
Continuous
100
AcDbLine
 10
38.99893931943352
 20
8.822460660896931
 30
0.0
 11
40.18736329661684
 21
8.048600511408338
 31
0.0
  0
LINE
  5
BB
330
1F
100
AcDbEntity
  8
Doc_ Finishes
  6
Continuous
100
AcDbLine
 10
38.47381835169158
 20
9.319939024390242
 30
0.0
 11
38.99893931943352
 21
8.822460660896931
 31
0.0
  0
LINE
  5
BC
330
1F
100
AcDbEntity
  8
Doc_ Finishes
  6
Continuous
100
AcDbLine
 10
38.22507916994492
 20
9.734507277734066
 30
0.0
 11
38.47381835169158
 21
9.319939024390242
 31
0.0
  0
LINE
  5
BD
330
1F
100
AcDbEntity
  8
Doc_ Finishes
  6
Continuous
100
AcDbLine
 10
37.17484166011014
 20
10.31490460267506
 30
0.0
 11
38.22507916994492
 21
9.734507277734066
 31
0.0
  0
LINE
  5
BE
330
1F
100
AcDbEntity
  8
Doc_ Finishes
  6
Continuous
100
AcDbLine
 10
36.7326352281668
 20
10.78474478756884
 30
0.0
 11
37.17484166011014
 21
10.31490460267506
 31
0.0
  0
LINE
  5
BF
330
1F
100
AcDbEntity
  8
Doc_ Finishes
  6
Continuous
100
AcDbLine
 10
36.23515243902439
 20
11.17167486231314
 30
0.0
 11
36.7326352281668
 21
10.78474478756884
 31
0.0
  0
LINE
  5
C0
330
1F
100
AcDbEntity
  8
Doc_ Finishes
  6
Continuous
100
AcDbLine
 10
35.48893046813532
 20
11.61388129425649
 30
0.0
 11
36.23515243902439
 21
11.17167486231314
 31
0.0
  0
LINE
  5
C1
330
1F
100
AcDbEntity
  8
Doc_ Finishes
  6
Continuous
100
AcDbLine
 10
34.85326121164437
 20
12.16663601494886
 30
0.0
 11
35.48893046813532
 21
11.61388129425649
 31
0.0
  0
LINE
  5
C2
330
1F
100
AcDbEntity
  8
Doc_ Finishes
  6
Continuous
100
AcDbLine
 10
34.35578284815106
 20
12.58120426829268
 30
0.0
 11
34.85326121164437
 21
12.16663601494886
 31
0.0
  0
LINE
  5
C3
330
1F
100
AcDbEntity
  8
Doc_ Finishes
  6
Continuous
100
AcDbLine
 10
33.69247098741149
 20
12.99577252163651
 30
0.0
 11
34.35578284815106
 21
12.58120426829268
 31
0.0
  0
LINE
  5
C4
330
1F
100
AcDbEntity
  8
Doc_ Finishes
  6
Continuous
100
AcDbLine
 10
33.2226308025177
 20
13.32742623918175
 30
0.0
 11
33.69247098741149
 21
12.99577252163651
 31
0.0
  0
LINE
  5
C5
330
1F
100
AcDbEntity
  8
Doc_ Finishes
  6
Continuous
100
AcDbLine
 10
32.7251480133753
 20
13.5761654209284
 30
0.0
 11
33.2226308025177
 21
13.32742623918175
 31
0.0
  0
LINE
  5
C6
330
1F
100
AcDbEntity
  8
Doc_ Finishes
  6
Continuous
100
AcDbLine
 10
31.93747098741148
 20
14.0644340086546
 30
0.0
 11
32.7251480133753
 21
13.5761654209284
 31
0.0
  0
LINE
  5
C7
330
1F
100
AcDbEntity
  8
Doc_ Finishes
  6
Continuous
100
AcDbLine
 10
31.43077842250197
 20
14.38687795043273
 30
0.0
 11
31.93747098741148
 21
14.0644340086546
 31
0.0
  0
LINE
  5
C8
330
1F
100
AcDbEntity
  8
Doc_ Finishes
  6
Continuous
100
AcDbLine
 10
30.92408143194335
 20
14.70931746656176
 30
0.0
 11
31.43077842250197
 21
14.38687795043273
 31
0.0
  0
LINE
  5
C9
330
1F
100
AcDbEntity
  8
Doc_ Finishes
  6
Continuous
100
AcDbLine
 10
30.62467299370574
 20
15.10085464201416
 30
0.0
 11
30.92408143194335
 21
14.70931746656176
 31
0.0
  0
LINE
  5
CA
330
1F
100
AcDbEntity
  8
Doc_ Finishes
  6
Continuous
100
AcDbLine
 10
29.95675845790716
 20
15.67664486624705
 30
0.0
 11
30.62467299370574
 21
15.10085464201416
 31
0.0
  0
LINE
  5
CB
330
1F
100
AcDbEntity
  8
Doc_ Finishes
  6
Continuous
100
AcDbLine
 10
29.47309697088906
 20
15.95302222659323
 30
0.0
 11
29.95675845790716
 21
15.67664486624705
 31
0.0
  0
LINE
  5
CC
330
1F
100
AcDbEntity
  8
Doc_ Finishes
  6
Continuous
100
AcDbLine
 10
28.8282135129819
 20
16.36759047993706
 30
0.0
 11
29.47309697088906
 21
15.95302222659323
 31
0.0
  0
LINE
  5
CD
330
1F
100
AcDbEntity
  8
Doc_ Finishes
  6
Continuous
100
AcDbLine
 10
28.50577399685287
 20
16.22939958693942
 30
0.0
 11
28.8282135129819
 21
16.36759047993706
 31
0.0
  0
LINE
  5
CE
330
1F
100
AcDbEntity
  8
Doc_ Finishes
  6
Continuous
100
AcDbLine
 10
28.06817466561763
 20
15.74573809992132
 30
0.0
 11
28.50577399685287
 21
16.22939958693942
 31
0.0
  0
LINE
  5
CF
330
1F
100
AcDbEntity
  8
Doc_ Finishes
  6
Continuous
 62
   254
370
    18
100
AcDbLine
 10
97.43333792289535
 20
5.093360051140834
 30
0.0
 11
97.43333792289535
 21
20.69901750590086
 31
0.0
  0
LINE
  5
D0
330
1F
100
AcDbEntity
  8
Doc_ Finishes
  6
Continuous
 62
   254
370
    18
100
AcDbLine
 10
7.000000491738787
 20
20.69901750590086
 30
0.0
 11
290.2406840086546
 21
20.69901750590086
 31
0.0
  0
LINE
  5
D1
330
1F
100
AcDbEntity
  8
Doc_ Finishes
  6
Continuous
 62
   254
370
    18
100
AcDbLine
 10
290.2406840086546
 20
20.69901750590086
 30
0.0
 11
290.2406840086546
 21
5.000000983477577
 31
0.0
  0
LINE
  5
D2
330
1F
100
AcDbEntity
  8
Doc_ Finishes
  6
Continuous
 62
   254
370
    18
100
AcDbLine
 10
290.2406840086546
 20
5.000000983477577
 30
0.0
 11
7.000000491738787
 21
5.000000983477577
 31
0.0
  0
LINE
  5
D3
330
1F
100
AcDbEntity
  8
Doc_ Finishes
  6
Continuous
 62
   254
370
    18
100
AcDbLine
 10
7.000000491738787
 20
20.69901750590086
 30
0.0
 11
7.000000491738787
 21
5.000000983477577
 31
0.0
  0
LINE
  5
D4
330
1F
100
AcDbEntity
  8
Doc_ Finishes
  6
Continuous
 62
   254
370
    18
100
AcDbLine
 10
190.2919443351691
 20
5.093360051140834
 30
0.0
 11
190.2919443351691
 21
20.69901750590086
 31
0.0
  0
LINE
  5
D5
330
1F
100
AcDbEntity
  8
Doc_ Finishes
  6
Continuous
 62
   254
370
    18
100
AcDbLine
 10
190.2919443351691
 20
12.8961909913454
 30
0.0
 11
290.2406840086546
 21
12.8961909913454
 31
0.0
  0
MTEXT
  5
D7
330
1F
100
AcDbEntity
  8
0
  6
Continuous
100
AcDbMText
 10
210.3494767103412
 20
15.00227993155626
 30
0.0
 40
2.25
 41
0.0
 71
     7
 72
     1
  1
{R-TRS7-09}
  7
GENERATED_STYLE_1
 73
     1
 44
1.0
  0
MTEXT
  5
D8
330
1F
100
AcDbEntity
  8
0
  6
Continuous
100
AcDbMText
 10
210.3494767103412
 20
11.03300550383743
 30
0.0
 40
3.0
 41
0.0
 71
     1
 72
     1
  1
{APRON DETAIL - SIDE}
  7
GENERATED_STYLE_1
 73
     1
 44
1.0
  0
MTEXT
  5
DA
330
1F
100
AcDbEntity
  8
Doc_ Floor
  6
Continuous
100
AcDbMText
 10
29.78353726544612
 20
13.33283672870609
 30
0.0
 40
5.603347280334726
 41
0.0
 71
     1
 72
     1
  1
{The Roofing Store}
  7
GENERATED_STYLE_2
 73
     1
 44
1.0
  0
MTEXT
  5
DC
102
{ACAD_XDICTIONARY
360
65E
102
}
330
1F
100
AcDbEntity
  8
0
  6
Continuous
100
AcDbMText
 10
102.7389238446655
 20
6.378784417288156
 30
0.0
 40
1.5
 41
0.0
 71
     7
 72
     1
  1
{P: HEAD OFFICE              09 277 2717\P    ALBANY             09 972 0060\P    KATIKAIT            07 549 5190\P    WELLINGTON              04 974 5792\P    CHRISTCHURCH          03 348 6528}
  7
GENERATED_STYLE_1
 73
     1
 44
1.062946161486498
  0
MTEXT
  5
DD
330
1F
100
AcDbEntity
  8
0
  6
Continuous
100
AcDbMText
 10
149.4184566143587
 20
9.199084231526156
 30
0.0
 40
1.5
 41
0.0
 71
     7
 72
     1
  1
{WEB: www.theroofingstore.co.nz}
  7
GENERATED_STYLE_1
 73
     1
 44
1.0
  0
MTEXT
  5
DE
330
1F
100
AcDbEntity
  8
0
  6
Continuous
100
AcDbMText
 10
149.4184566143587
 20
6.620946023411263
 30
0.0
 40
1.5
 41
0.0
 71
     7
 72
     1
  1
{Copyright \U+00A9 The Roofing Store 2013}
  7
GENERATED_STYLE_1
 73
     1
 44
1.0
  0
MTEXT
  5
DF
330
1F
100
AcDbEntity
  8
0
  6
Continuous
100
AcDbMText
 10
273.9546684065315
 20
15.01594826540159
 30
0.0
 40
2.25
 41
0.0
 71
     7
 72
     1
  1
{1:5}
  7
GENERATED_STYLE_1
 73
     1
 44
1.0
  0
MTEXT
  5
E0
330
1F
100
AcDbEntity
  8
0
  6
Continuous
100
AcDbMText
 10
264.8396605309016
 20
15.51746459162148
 30
0.0
 40
1.5
 41
0.0
 71
     7
 72
     1
  1
{SCALE:}
  7
GENERATED_STYLE_1
 73
     1
 44
1.0
  0
MTEXT
  5
E1
330
1F
100
AcDbEntity
  8
0
  6
Continuous
100
AcDbMText
 10
191.5066235617487
 20
15.48695559872207
 30
0.0
 40
1.5
 41
0.0
 71
     7
 72
     1
  1
{DETAIL NUMBER:}
  7
GENERATED_STYLE_1
 73
     1
 44
1.0
  0
MTEXT
  5
E2
330
1F
100
AcDbEntity
  8
0
  6
Continuous
100
AcDbMText
 10
191.5066235617487
 20
9.005462392315325
 30
0.0
 40
1.5
 41
0.0
 71
     7
 72
     1
  1
{TITLE:}
  7
GENERATED_STYLE_1
 73
     1
 44
1.0
  0
INSERT
  5
62C
102
{ACAD_XDICTIONARY
360
62D
102
}
330
1F
100
AcDbEntity
  8
0
  6
Continuous
100
AcDbBlockReference
  2
Drawing_1_2
 10
-1488.68793027213
 20
350.9956652514564
 30
0.0
  0
ENDSEC
  0
SECTION
  2
OBJECTS
  0
DICTIONARY
  5
C
330
0
100
AcDbDictionary
281
     1
  3
ACAD_GROUP
350
D
  3
ACAD_LAYOUT
350
1A
  3
ACAD_MATERIAL
350
3B
  3
ACAD_MLEADERSTYLE
350
659
  3
ACAD_MLINESTYLE
350
17
  3
ACAD_PLOTSETTINGS
350
19
  3
ACAD_PLOTSTYLENAME
350
E
  3
ACAD_SCALELIST
350
633
  3
ACAD_VISUALSTYLE
350
2A
  3
AcDbVariableDictionary
350
657
  3
WATERMARKS
350
655
  0
DICTIONARY
  5
65E
330
DC
100
AcDbDictionary
280
     1
281
     1
  3
ACAD_MTEXT_RT
360
65F
  0
DICTIONARY
  5
62D
330
62C
100
AcDbDictionary
280
     1
281
     1
  3
ACAD_FILTER
360
62E
  0
DICTIONARY
  5
D
102
{ACAD_REACTORS
330
C
102
}
330
C
100
AcDbDictionary
281
     1
  0
DICTIONARY
  5
1A
102
{ACAD_REACTORS
330
C
102
}
330
C
100
AcDbDictionary
281
     1
  3
Layout1
350
1E
  3
Model
350
22
  0
DICTIONARY
  5
3B
102
{ACAD_REACTORS
330
C
102
}
330
C
100
AcDbDictionary
281
     1
  3
ByBlock
350
3D
  3
ByLayer
350
3C
  3
Global
350
3E
  0
DICTIONARY
  5
659
102
{ACAD_REACTORS
330
C
102
}
330
C
100
AcDbDictionary
281
     1
  0
DICTIONARY
  5
17
102
{ACAD_REACTORS
330
C
102
}
330
C
100
AcDbDictionary
281
     1
  3
Standard
350
18
  0
DICTIONARY
  5
19
102
{ACAD_REACTORS
330
C
102
}
330
C
100
AcDbDictionary
281
     1
  0
ACDBDICTIONARYWDFLT
  5
E
102
{ACAD_REACTORS
330
C
102
}
330
C
100
AcDbDictionary
281
     1
  3
Normal
350
F
100
AcDbDictionaryWithDefault
340
F
  0
DICTIONARY
  5
633
102
{ACAD_REACTORS
330
C
102
}
330
C
100
AcDbDictionary
281
     1
  3
A0
350
634
  3
A1
350
635
  3
A2
350
636
  3
A3
350
637
  3
A4
350
638
  3
A5
350
639
  3
A6
350
63A
  3
A7
350
63B
  3
A8
350
63C
  3
A9
350
63D
  3
B0
350
63E
  3
B1
350
63F
  3
B2
350
640
  3
B3
350
641
  3
B4
350
642
  3
B5
350
643
  3
B6
350
644
  3
B7
350
645
  3
B8
350
646
  3
B9
350
647
  3
C0
350
648
  3
C1
350
649
  3
C2
350
64A
  3
C3
350
64B
  3
C4
350
64C
  3
C5
350
64D
  3
C6
350
64E
  3
C7
350
64F
  3
C8
350
650
  3
C9
350
651
  3
D0
350
652
  3
D1
350
653
  3
D2
350
654
  0
DICTIONARY
  5
2A
102
{ACAD_REACTORS
330
C
102
}
330
C
100
AcDbDictionary
281
     1
  3
2dWireframe
350
2F
  3
3D Hidden
350
31
  3
3dWireframe
350
30
  3
Basic
350
32
  3
Brighten
350
36
  3
ColorChange
350
3A
  3
Conceptual
350
34
  3
Dim
350
35
  3
Facepattern
350
39
  3
Flat
350
2B
  3
FlatWithEdges
350
2C
  3
Gouraud
350
2D
  3
GouraudWithEdges
350
2E
  3
Linepattern
350
38
  3
Realistic
350
33
  3
Thicken
350
37
  0
DICTIONARY
  5
657
102
{ACAD_REACTORS
330
C
102
}
330
C
100
AcDbDictionary
281
     1
  3
CANNOSCALE
350
65B
  3
DIMASSOC
350
65C
  3
HIDETEXT
350
65D
  3
XCLIPFRAME
350
65A
  0
DICTIONARY
  5
655
102
{ACAD_REACTORS
330
C
102
}
330
C
100
AcDbDictionary
281
     1
  3
AC_WATERMARK
350
656
  0
XRECORD
  5
65F
102
{ACAD_REACTORS
330
65E
102
}
330
65E
100
AcDbXrecord
280
     1
 40
956118.0
  1
{P: HEAD OFFICE ^I^I09 277 2717\P    ALBANY ^I^I09 972 0060\P    KATIKAIT^I^I07 549 5190\P    WELLINGTON^I^I04 974 5792\P    CHRISTCHURCH^I^I03 348 6528}
  0
DICTIONARY
  5
62E
102
{ACAD_REACTORS
330
62D
102
}
330
62D
100
AcDbDictionary
280
     1
281
     1
  3
SPATIAL
360
62F
  0
LAYOUT
  5
1E
102
{ACAD_REACTORS
330
1A
102
}
330
1A
100
AcDbPlotSettings
  1

  2
none_device
  4

  6

 40
0.0
 41
0.0
 42
0.0
 43
0.0
 44
0.0
 45
0.0
 46
0.0
 47
0.0
 48
0.0
 49
0.0
140
0.0
141
0.0
142
1.0
143
1.0
 70
   688
 72
     0
 73
     0
 74
     5
  7

 75
    16
147
1.0
148
0.0
149
0.0
100
AcDbLayout
  1
Layout1
 70
     1
 71
     1
 10
0.0
 20
0.0
 11
12.0
 21
9.0
 12
0.0
 22
0.0
 32
0.0
 14
1.000000000000000E+20
 24
1.000000000000000E+20
 34
1.000000000000000E+20
 15
-1.000000000000000E+20
 25
-1.000000000000000E+20
 35
-1.000000000000000E+20
146
0.0
 13
0.0
 23
0.0
 33
0.0
 16
1.0
 26
0.0
 36
0.0
 17
0.0
 27
1.0
 37
0.0
 76
     0
330
1B
  0
LAYOUT
  5
22
102
{ACAD_REACTORS
330
1A
102
}
330
1A
100
AcDbPlotSettings
  1

  2
none_device
  4

  6

 40
0.0
 41
0.0
 42
0.0
 43
0.0
 44
0.0
 45
0.0
 46
0.0
 47
0.0
 48
0.0
 49
0.0
140
0.0
141
0.0
142
1.0
143
1.0
 70
  1712
 72
     0
 73
     0
 74
     0
  7

 75
     0
147
1.0
148
0.0
149
0.0
100
AcDbLayout
  1
Model
 70
     1
 71
     0
 10
0.0
 20
0.0
 11
12.0
 21
9.0
 12
0.0
 22
0.0
 32
0.0
 14
1.000000000000000E+20
 24
1.000000000000000E+20
 34
1.000000000000000E+20
 15
-1.000000000000000E+20
 25
-1.000000000000000E+20
 35
-1.000000000000000E+20
146
0.0
 13
0.0
 23
0.0
 33
0.0
 16
1.0
 26
0.0
 36
0.0
 17
0.0
 27
1.0
 37
0.0
 76
     0
330
1F
331
29
  0
MATERIAL
  5
3D
102
{ACAD_REACTORS
330
3B
102
}
102
{ACAD_XDICTIONARY
360
682
102
}
330
3B
100
AcDbMaterial
  1
ByBlock
  0
MATERIAL
  5
3C
102
{ACAD_REACTORS
330
3B
102
}
102
{ACAD_XDICTIONARY
360
680
102
}
330
3B
100
AcDbMaterial
  1
ByLayer
  0
MATERIAL
  5
3E
102
{ACAD_REACTORS
330
3B
102
}
102
{ACAD_XDICTIONARY
360
684
102
}
330
3B
100
AcDbMaterial
  1
Global
  0
MLINESTYLE
  5
18
102
{ACAD_REACTORS
330
17
102
}
330
17
100
AcDbMlineStyle
  2
Standard
 70
     0
  3

 62
   256
 51
90.0
 52
90.0
 71
     2
 49
0.5
 62
   256
  6
BYLAYER
 49
-0.5
 62
   256
  6
BYLAYER
  0
ACDBPLACEHOLDER
  5
F
102
{ACAD_REACTORS
330
E
102
}
330
E
  0
SCALE
  5
634
102
{ACAD_REACTORS
330
633
102
}
330
633
100
AcDbScale
 70
     0
300
1:1
140
1.0
141
1.0
290
     1
  0
SCALE
  5
635
102
{ACAD_REACTORS
330
633
102
}
330
633
100
AcDbScale
 70
     0
300
1:2
140
1.0
141
2.0
290
     0
  0
SCALE
  5
636
102
{ACAD_REACTORS
330
633
102
}
330
633
100
AcDbScale
 70
     0
300
1:4
140
1.0
141
4.0
290
     0
  0
SCALE
  5
637
102
{ACAD_REACTORS
330
633
102
}
330
633
100
AcDbScale
 70
     0
300
1:5
140
1.0
141
5.0
290
     0
  0
SCALE
  5
638
102
{ACAD_REACTORS
330
633
102
}
330
633
100
AcDbScale
 70
     0
300
1:8
140
1.0
141
8.0
290
     0
  0
SCALE
  5
639
102
{ACAD_REACTORS
330
633
102
}
330
633
100
AcDbScale
 70
     0
300
1:10
140
1.0
141
10.0
290
     0
  0
SCALE
  5
63A
102
{ACAD_REACTORS
330
633
102
}
330
633
100
AcDbScale
 70
     0
300
1:16
140
1.0
141
16.0
290
     0
  0
SCALE
  5
63B
102
{ACAD_REACTORS
330
633
102
}
330
633
100
AcDbScale
 70
     0
300
1:20
140
1.0
141
20.0
290
     0
  0
SCALE
  5
63C
102
{ACAD_REACTORS
330
633
102
}
330
633
100
AcDbScale
 70
     0
300
1:30
140
1.0
141
30.0
290
     0
  0
SCALE
  5
63D
102
{ACAD_REACTORS
330
633
102
}
330
633
100
AcDbScale
 70
     0
300
1:40
140
1.0
141
40.0
290
     0
  0
SCALE
  5
63E
102
{ACAD_REACTORS
330
633
102
}
330
633
100
AcDbScale
 70
     0
300
1:50
140
1.0
141
50.0
290
     0
  0
SCALE
  5
63F
102
{ACAD_REACTORS
330
633
102
}
330
633
100
AcDbScale
 70
     0
300
1:100
140
1.0
141
100.0
290
     0
  0
SCALE
  5
640
102
{ACAD_REACTORS
330
633
102
}
330
633
100
AcDbScale
 70
     0
300
2:1
140
2.0
141
1.0
290
     0
  0
SCALE
  5
641
102
{ACAD_REACTORS
330
633
102
}
330
633
100
AcDbScale
 70
     0
300
4:1
140
4.0
141
1.0
290
     0
  0
SCALE
  5
642
102
{ACAD_REACTORS
330
633
102
}
330
633
100
AcDbScale
 70
     0
300
8:1
140
8.0
141
1.0
290
     0
  0
SCALE
  5
643
102
{ACAD_REACTORS
330
633
102
}
330
633
100
AcDbScale
 70
     0
300
10:1
140
10.0
141
1.0
290
     0
  0
SCALE
  5
644
102
{ACAD_REACTORS
330
633
102
}
330
633
100
AcDbScale
 70
     0
300
100:1
140
100.0
141
1.0
290
     0
  0
SCALE
  5
645
102
{ACAD_REACTORS
330
633
102
}
330
633
100
AcDbScale
 70
     0
300
1/128" = 1'-0"
140
0.0078125
141
12.0
290
     0
  0
SCALE
  5
646
102
{ACAD_REACTORS
330
633
102
}
330
633
100
AcDbScale
 70
     0
300
1/64" = 1'-0"
140
0.015625
141
12.0
290
     0
  0
SCALE
  5
647
102
{ACAD_REACTORS
330
633
102
}
330
633
100
AcDbScale
 70
     0
300
1/32" = 1'-0"
140
0.03125
141
12.0
290
     0
  0
SCALE
  5
648
102
{ACAD_REACTORS
330
633
102
}
330
633
100
AcDbScale
 70
     0
300
1/16" = 1'-0"
140
0.0625
141
12.0
290
     0
  0
SCALE
  5
649
102
{ACAD_REACTORS
330
633
102
}
330
633
100
AcDbScale
 70
     0
300
3/32" = 1'-0"
140
0.09375
141
12.0
290
     0
  0
SCALE
  5
64A
102
{ACAD_REACTORS
330
633
102
}
330
633
100
AcDbScale
 70
     0
300
1/8" = 1'-0"
140
0.125
141
12.0
290
     0
  0
SCALE
  5
64B
102
{ACAD_REACTORS
330
633
102
}
330
633
100
AcDbScale
 70
     0
300
3/16" = 1'-0"
140
0.1875
141
12.0
290
     0
  0
SCALE
  5
64C
102
{ACAD_REACTORS
330
633
102
}
330
633
100
AcDbScale
 70
     0
300
1/4" = 1'-0"
140
0.25
141
12.0
290
     0
  0
SCALE
  5
64D
102
{ACAD_REACTORS
330
633
102
}
330
633
100
AcDbScale
 70
     0
300
3/8" = 1'-0"
140
0.375
141
12.0
290
     0
  0
SCALE
  5
64E
102
{ACAD_REACTORS
330
633
102
}
330
633
100
AcDbScale
 70
     0
300
1/2" = 1'-0"
140
0.5
141
12.0
290
     0
  0
SCALE
  5
64F
102
{ACAD_REACTORS
330
633
102
}
330
633
100
AcDbScale
 70
     0
300
3/4" = 1'-0"
140
0.75
141
12.0
290
     0
  0
SCALE
  5
650
102
{ACAD_REACTORS
330
633
102
}
330
633
100
AcDbScale
 70
     0
300
1" = 1'-0"
140
1.0
141
12.0
290
     0
  0
SCALE
  5
651
102
{ACAD_REACTORS
330
633
102
}
330
633
100
AcDbScale
 70
     0
300
1-1/2" = 1'-0"
140
1.5
141
12.0
290
     0
  0
SCALE
  5
652
102
{ACAD_REACTORS
330
633
102
}
330
633
100
AcDbScale
 70
     0
300
3" = 1'-0"
140
3.0
141
12.0
290
     0
  0
SCALE
  5
653
102
{ACAD_REACTORS
330
633
102
}
330
633
100
AcDbScale
 70
     0
300
6" = 1'-0"
140
6.0
141
12.0
290
     0
  0
SCALE
  5
654
102
{ACAD_REACTORS
330
633
102
}
330
633
100
AcDbScale
 70
     0
300
1'-0" = 1'-0"
140
12.0
141
12.0
290
     0
  0
VISUALSTYLE
  5
2F
102
{ACAD_REACTORS
330
2A
102
}
102
{ACAD_XDICTIONARY
360
668
102
}
330
2A
100
AcDbVisualStyle
  2
2dWireframe
 70
     4
 71
     0
 72
     2
 73
     0
 90
        0
 40
-0.6
 41
-30.0
 62
     5
 63
     7
 74
     1
 91
        4
 64
     7
 65
   257
 75
     1
175
     1
 42
1.0
 92
        0
 66
   257
 43
1.0
 76
     1
 77
     6
 78
     2
 67
     7
 79
     5
170
     0
171
     0
290
     0
174
     0
 93
        1
 44
0.0
173
     0
291
     0
 45
0.0
1001
ACAD
1000
AcDbSavedByObjectVersion
1070
     0
  0
VISUALSTYLE
  5
31
102
{ACAD_REACTORS
330
2A
102
}
102
{ACAD_XDICTIONARY
360
66C
102
}
330
2A
100
AcDbVisualStyle
  2
3D Hidden
 70
     6
 71
     1
 72
     2
 73
     2
 90
        0
 40
-0.6
 41
-30.0
 62
     5
 63
     7
 74
     2
 91
        2
 64
     7
 65
   257
 75
     2
175
     1
 42
40.0
 92
        0
 66
   257
 43
1.0
 76
     1
 77
     6
 78
     2
 67
     7
 79
     3
170
     0
171
     0
290
     0
174
     0
 93
        1
 44
0.0
173
     0
291
     0
 45
0.0
1001
ACAD
1000
AcDbSavedByObjectVersion
1070
     0
  0
VISUALSTYLE
  5
30
102
{ACAD_REACTORS
330
2A
102
}
102
{ACAD_XDICTIONARY
360
66A
102
}
330
2A
100
AcDbVisualStyle
  2
3dWireframe
 70
     5
 71
     0
 72
     2
 73
     0
 90
        0
 40
-0.6
 41
-30.0
 62
     5
 63
     7
 74
     1
 91
        4
 64
     7
 65
   257
 75
     1
175
     1
 42
1.0
 92
        0
 66
   257
 43
1.0
 76
     1
 77
     6
 78
     2
 67
     7
 79
     5
170
     0
171
     0
290
     0
174
     0
 93
        1
 44
0.0
173
     0
291
     0
 45
0.0
1001
ACAD
1000
AcDbSavedByObjectVersion
1070
     0
  0
VISUALSTYLE
  5
32
102
{ACAD_REACTORS
330
2A
102
}
102
{ACAD_XDICTIONARY
360
66E
102
}
330
2A
100
AcDbVisualStyle
  2
Basic
 70
     7
 71
     1
 72
     0
 73
     1
 90
        0
 40
-0.6
 41
-30.0
 62
     5
 63
     7
 74
     0
 91
        4
 64
     7
 65
   257
 75
     1
175
     1
 42
1.0
 92
        8
 66
     7
 43
1.0
 76
     1
 77
     6
 78
     2
 67
     7
 79
     5
170
     0
171
     0
290
     0
174
     0
 93
        1
 44
0.0
173
     0
291
     1
 45
0.0
1001
ACAD
1000
AcDbSavedByObjectVersion
1070
     0
  0
VISUALSTYLE
  5
36
102
{ACAD_REACTORS
330
2A
102
}
102
{ACAD_XDICTIONARY
360
676
102
}
330
2A
100
AcDbVisualStyle
  2
Brighten
 70
    12
 71
     2
 72
     2
 73
     0
 90
        0
 40
-0.6
 41
-30.0
 62
     5
 63
     7
 74
     1
 91
        4
 64
     7
 65
   257
 75
     1
175
     1
 42
1.0
 92
        8
 66
     7
 43
1.0
 76
     1
 77
     6
 78
     2
 67
     7
 79
     5
170
     0
171
     0
290
     0
174
     0
 93
        1
 44
50.0
173
     0
291
     1
 45
0.0
1001
ACAD
1000
AcDbSavedByObjectVersion
1070
     0
  0
VISUALSTYLE
  5
3A
102
{ACAD_REACTORS
330
2A
102
}
102
{ACAD_XDICTIONARY
360
67E
102
}
330
2A
100
AcDbVisualStyle
  2
ColorChange
 70
    16
 71
     2
 72
     2
 73
     3
 90
        0
 40
-0.6
 41
-30.0
 62
     5
 63
     8
 74
     1
 91
        4
 64
     7
 65
   257
 75
     1
175
     1
 42
1.0
 92
        8
 66
     8
 43
1.0
 76
     1
 77
     6
 78
     2
 67
     7
 79
     5
170
     0
171
     0
290
     0
174
     0
 93
        1
 44
0.0
173
     0
291
     1
 45
0.0
1001
ACAD
1000
AcDbSavedByObjectVersion
1070
     0
  0
VISUALSTYLE
  5
34
102
{ACAD_REACTORS
330
2A
102
}
102
{ACAD_XDICTIONARY
360
672
102
}
330
2A
100
AcDbVisualStyle
  2
Conceptual
 70
     9
 71
     3
 72
     2
 73
     0
 90
        0
 40
-0.6
 41
-30.0
 62
     5
 63
     7
 74
     2
 91
        2
 64
     7
 65
   257
 75
     1
175
     1
 42
40.0
 92
        8
 66
     7
 43
1.0
 76
     1
 77
     6
 78
     2
 67
     7
 79
     3
170
     0
171
     0
290
     0
174
     0
 93
        1
 44
0.0
173
     0
291
     0
 45
0.0
1001
ACAD
1000
AcDbSavedByObjectVersion
1070
     0
  0
VISUALSTYLE
  5
35
102
{ACAD_REACTORS
330
2A
102
}
102
{ACAD_XDICTIONARY
360
674
102
}
330
2A
100
AcDbVisualStyle
  2
Dim
 70
    11
 71
     2
 72
     2
 73
     0
 90
        0
 40
-0.6
 41
-30.0
 62
     5
 63
     7
 74
     1
 91
        4
 64
     7
 65
   257
 75
     1
175
     1
 42
1.0
 92
        8
 66
     7
 43
1.0
 76
     1
 77
     6
 78
     2
 67
     7
 79
     5
170
     0
171
     0
290
     0
174
     0
 93
        1
 44
-50.0
173
     0
291
     1
 45
0.0
1001
ACAD
1000
AcDbSavedByObjectVersion
1070
     0
  0
VISUALSTYLE
  5
39
102
{ACAD_REACTORS
330
2A
102
}
102
{ACAD_XDICTIONARY
360
67C
102
}
330
2A
100
AcDbVisualStyle
  2
Facepattern
 70
    15
 71
     2
 72
     2
 73
     0
 90
        0
 40
-0.6
 41
-30.0
 62
     5
 63
     7
 74
     1
 91
        4
 64
     7
 65
   257
 75
     1
175
     1
 42
1.0
 92
        8
 66
     7
 43
1.0
 76
     1
 77
     6
 78
     2
 67
     7
 79
     5
170
     0
171
     0
290
     0
174
     0
 93
        1
 44
0.0
173
     0
291
     1
 45
0.0
1001
ACAD
1000
AcDbSavedByObjectVersion
1070
     0
  0
VISUALSTYLE
  5
2B
102
{ACAD_REACTORS
330
2A
102
}
102
{ACAD_XDICTIONARY
360
660
102
}
330
2A
100
AcDbVisualStyle
  2
Flat
 70
     0
 71
     2
 72
     1
 73
     1
 90
        2
 40
-0.6
 41
30.0
 62
     5
 63
     7
 74
     0
 91
        4
 64
     7
 65
   257
 75
     1
175
     1
 42
1.0
 92
        8
 66
     7
 43
1.0
 76
     1
 77
     6
 78
     2
 67
     7
 79
     5
170
     0
171
     0
290
     0
174
     0
 93
       13
 44
0.0
173
     0
291
     1
 45
0.0
1001
ACAD
1000
AcDbSavedByObjectVersion
1070
     0
  0
VISUALSTYLE
  5
2C
102
{ACAD_REACTORS
330
2A
102
}
102
{ACAD_XDICTIONARY
360
662
102
}
330
2A
100
AcDbVisualStyle
  2
FlatWithEdges
 70
     1
 71
     2
 72
     1
 73
     1
 90
        2
 40
-0.6
 41
30.0
 62
     5
 63
     7
 74
     1
 91
        4
 64
     7
 65
   257
 75
     1
175
     1
 42
1.0
 92
        0
 66
   257
 43
1.0
 76
     1
 77
     6
 78
     2
 67
     7
 79
     5
170
     0
171
     0
290
     0
174
     0
 93
       13
 44
0.0
173
     0
291
     1
 45
0.0
1001
ACAD
1000
AcDbSavedByObjectVersion
1070
     0
  0
VISUALSTYLE
  5
2D
102
{ACAD_REACTORS
330
2A
102
}
102
{ACAD_XDICTIONARY
360
664
102
}
330
2A
100
AcDbVisualStyle
  2
Gouraud
 70
     2
 71
     2
 72
     2
 73
     1
 90
        2
 40
-0.6
 41
30.0
 62
     5
 63
     7
 74
     0
 91
        4
 64
     7
 65
   257
 75
     1
175
     1
 42
1.0
 92
        0
 66
     7
 43
1.0
 76
     1
 77
     6
 78
     2
 67
     7
 79
     5
170
     0
171
     0
290
     0
174
     0
 93
       13
 44
0.0
173
     0
291
     1
 45
0.0
1001
ACAD
1000
AcDbSavedByObjectVersion
1070
     0
  0
VISUALSTYLE
  5
2E
102
{ACAD_REACTORS
330
2A
102
}
102
{ACAD_XDICTIONARY
360
666
102
}
330
2A
100
AcDbVisualStyle
  2
GouraudWithEdges
 70
     3
 71
     2
 72
     2
 73
     1
 90
        2
 40
-0.6
 41
30.0
 62
     5
 63
     7
 74
     1
 91
        4
 64
     7
 65
   257
 75
     1
175
     1
 42
1.0
 92
        0
 66
   257
 43
1.0
 76
     1
 77
     6
 78
     2
 67
     7
 79
     5
170
     0
171
     0
290
     0
174
     0
 93
       13
 44
0.0
173
     0
291
     1
 45
0.0
1001
ACAD
1000
AcDbSavedByObjectVersion
1070
     0
  0
VISUALSTYLE
  5
38
102
{ACAD_REACTORS
330
2A
102
}
102
{ACAD_XDICTIONARY
360
67A
102
}
330
2A
100
AcDbVisualStyle
  2
Linepattern
 70
    14
 71
     2
 72
     2
 73
     0
 90
        0
 40
-0.6
 41
-30.0
 62
     5
 63
     7
 74
     1
 91
        4
 64
     7
 65
   257
 75
     7
175
     7
 42
1.0
 92
        8
 66
     7
 43
1.0
 76
     1
 77
     6
 78
     2
 67
     7
 79
     5
170
     0
171
     0
290
     0
174
     0
 93
        1
 44
0.0
173
     0
291
     1
 45
0.0
1001
ACAD
1000
AcDbSavedByObjectVersion
1070
     0
  0
VISUALSTYLE
  5
33
102
{ACAD_REACTORS
330
2A
102
}
102
{ACAD_XDICTIONARY
360
670
102
}
330
2A
100
AcDbVisualStyle
  2
Realistic
 70
     8
 71
     2
 72
     2
 73
     0
 90
        0
 40
-0.6
 41
-30.0
 62
     5
 63
     7
 74
     1
 91
        0
 64
     7
 65
   257
 75
     1
175
     1
 42
1.0
 92
        8
 66
     8
 43
1.0
 76
     1
 77
     6
 78
     2
 67
     7
 79
     5
170
     0
171
     0
290
     0
174
     0
 93
       13
 44
0.0
173
     0
291
     0
 45
0.0
1001
ACAD
1000
AcDbSavedByObjectVersion
1070
     0
  0
VISUALSTYLE
  5
37
102
{ACAD_REACTORS
330
2A
102
}
102
{ACAD_XDICTIONARY
360
678
102
}
330
2A
100
AcDbVisualStyle
  2
Thicken
 70
    13
 71
     2
 72
     2
 73
     0
 90
        0
 40
-0.6
 41
-30.0
 62
     5
 63
     7
 74
     1
 91
        4
 64
     7
 65
   257
 75
     1
175
     1
 42
1.0
 92
       12
 66
     7
 43
1.0
 76
     1
 77
     6
 78
     2
 67
     7
 79
     5
170
     0
171
     0
290
     0
174
     0
 93
        1
 44
0.0
173
     0
291
     1
 45
0.0
1001
ACAD
1000
AcDbSavedByObjectVersion
1070
     0
  0
DICTIONARYVAR
  5
65B
102
{ACAD_REACTORS
330
657
102
}
330
657
100
DictionaryVariables
280
     0
  1
1:1
  0
DICTIONARYVAR
  5
65C
102
{ACAD_REACTORS
330
657
102
}
330
657
100
DictionaryVariables
280
     0
  1
2
  0
DICTIONARYVAR
  5
65D
102
{ACAD_REACTORS
330
657
102
}
330
657
100
DictionaryVariables
280
     0
  1
1
  0
DICTIONARYVAR
  5
65A
102
{ACAD_REACTORS
330
657
102
}
330
657
100
DictionaryVariables
280
     0
  1
0
  0
XRECORD
  5
656
102
{ACAD_REACTORS
330
655
102
}
330
655
100
AcDbXrecord
280
     1
1000
This DWG file was created in ArchiCAD(TM)®
  0
SPATIAL_FILTER
  5
62F
102
{ACAD_REACTORS
330
62E
102
}
330
62E
100
AcDbFilter
100
AcDbSpatialFilter
 70
     4
 10
46.3773244410241
 20
23.56187964509124
 10
246.2123859504618
 20
23.56187964509124
 10
246.2123859504618
 20
198.9052447763431
 10
46.3773244410241
 20
198.9052447763431
210
0.0
220
0.0
230
1.0
 11
0.0
 21
0.0
 31
0.0
 71
     1
 72
     0
 73
     0
 40
1.0
 40
0.0
 40
0.0
 40
0.0
 40
0.0
 40
1.0
 40
0.0
 40
0.0
 40
0.0
 40
0.0
 40
1.0
 40
0.0
 40
1.0
 40
0.0
 40
0.0
 40
0.0
 40
0.0
 40
1.0
 40
0.0
 40
0.0
 40
0.0
 40
0.0
 40
1.0
 40
0.0
  0
DICTIONARY
  5
682
330
3D
100
AcDbDictionary
280
     1
281
     1
  3
ACAD_XREC_ROUNDTRIP
360
683
  0
DICTIONARY
  5
680
330
3C
100
AcDbDictionary
280
     1
281
     1
  3
ACAD_XREC_ROUNDTRIP
360
681
  0
DICTIONARY
  5
684
330
3E
100
AcDbDictionary
280
     1
281
     1
  3
ACAD_XREC_ROUNDTRIP
360
685
  0
DICTIONARY
  5
668
330
2F
100
AcDbDictionary
280
     1
281
     1
  3
ACAD_XREC_ROUNDTRIP
360
669
  0
DICTIONARY
  5
66C
330
31
100
AcDbDictionary
280
     1
281
     1
  3
ACAD_XREC_ROUNDTRIP
360
66D
  0
DICTIONARY
  5
66A
330
30
100
AcDbDictionary
280
     1
281
     1
  3
ACAD_XREC_ROUNDTRIP
360
66B
  0
DICTIONARY
  5
66E
330
32
100
AcDbDictionary
280
     1
281
     1
  3
ACAD_XREC_ROUNDTRIP
360
66F
  0
DICTIONARY
  5
676
330
36
100
AcDbDictionary
280
     1
281
     1
  3
ACAD_XREC_ROUNDTRIP
360
677
  0
DICTIONARY
  5
67E
330
3A
100
AcDbDictionary
280
     1
281
     1
  3
ACAD_XREC_ROUNDTRIP
360
67F
  0
DICTIONARY
  5
672
330
34
100
AcDbDictionary
280
     1
281
     1
  3
ACAD_XREC_ROUNDTRIP
360
673
  0
DICTIONARY
  5
674
330
35
100
AcDbDictionary
280
     1
281
     1
  3
ACAD_XREC_ROUNDTRIP
360
675
  0
DICTIONARY
  5
67C
330
39
100
AcDbDictionary
280
     1
281
     1
  3
ACAD_XREC_ROUNDTRIP
360
67D
  0
DICTIONARY
  5
660
330
2B
100
AcDbDictionary
280
     1
281
     1
  3
ACAD_XREC_ROUNDTRIP
360
661
  0
DICTIONARY
  5
662
330
2C
100
AcDbDictionary
280
     1
281
     1
  3
ACAD_XREC_ROUNDTRIP
360
663
  0
DICTIONARY
  5
664
330
2D
100
AcDbDictionary
280
     1
281
     1
  3
ACAD_XREC_ROUNDTRIP
360
665
  0
DICTIONARY
  5
666
330
2E
100
AcDbDictionary
280
     1
281
     1
  3
ACAD_XREC_ROUNDTRIP
360
667
  0
DICTIONARY
  5
67A
330
38
100
AcDbDictionary
280
     1
281
     1
  3
ACAD_XREC_ROUNDTRIP
360
67B
  0
DICTIONARY
  5
670
330
33
100
AcDbDictionary
280
     1
281
     1
  3
ACAD_XREC_ROUNDTRIP
360
671
  0
DICTIONARY
  5
678
330
37
100
AcDbDictionary
280
     1
281
     1
  3
ACAD_XREC_ROUNDTRIP
360
679
  0
XRECORD
  5
683
102
{ACAD_REACTORS
330
682
102
}
330
682
100
AcDbXrecord
280
     1
102
MATERIAL
148
0.0
149
0.0
149
0.0
 93
        0
 94
      127
282
     0
 72
     1
 77
     1
171
     1
175
     1
179
     1
273
     0
  0
XRECORD
  5
681
102
{ACAD_REACTORS
330
680
102
}
330
680
100
AcDbXrecord
280
     1
102
MATERIAL
148
0.0
149
0.0
149
0.0
 93
        0
 94
      127
282
     0
 72
     1
 77
     1
171
     1
175
     1
179
     1
273
     0
  0
XRECORD
  5
685
102
{ACAD_REACTORS
330
684
102
}
330
684
100
AcDbXrecord
280
     1
102
MATERIAL
148
0.0
149
0.0
149
0.0
 93
        0
 94
      127
282
     0
 72
     1
 77
     1
171
     1
175
     1
179
     1
273
     0
  0
XRECORD
  5
669
102
{ACAD_REACTORS
330
668
102
}
330
668
100
AcDbXrecord
280
     1
102
RTVSPropertyOp0
 70
     1
102
RTVSPropertyOp1
 70
     1
102
RTVSPropertyOp2
 70
     1
102
RTVSPropertyOp3
 70
     1
102
RTVSPropertyOp4
 70
     1
102
RTVSPropertyOp5
 70
     1
102
RTVSPropertyOp6
 70
     1
102
RTVSPropertyOp7
 70
     1
102
RTVSPropertyOp8
 70
     1
102
RTVSPropertyOp9
 70
     1
102
RTVSPropertyOp10
 70
     1
102
RTVSPropertyOp11
 70
     1
102
RTVSPropertyOp12
 70
     1
102
RTVSPropertyOp13
 70
     1
102
RTVSPropertyOp14
 70
     1
102
RTVSPropertyOp15
 70
     1
102
RTVSPropertyOp16
 70
     1
102
RTVSPropertyOp17
 70
     1
102
RTVSPropertyOp18
 70
     1
102
RTVSPropertyOp19
 70
     1
102
RTVSPropertyOp20
 70
     1
102
RTVSPropertyOp21
 70
     1
102
RTVSPropertyOp22
 70
     1
102
RTVSPropertyOp23
 70
     1
102
RTVSPropertyOp24
 70
     1
102
RTVSPropertyOp25
 70
     1
102
RTVSPropertyOp26
 70
     1
102
RTVSPropertyOp27
 70
     1
102
RTVSPropertyOp28
 70
     1
102
RTVSPropertyOp29
 70
     1
102
RTVSPropertyOp30
 70
     1
102
RTVSPropertyOp31
 70
     1
102
RTVSPropertyOp32
 70
     1
  0
XRECORD
  5
66D
102
{ACAD_REACTORS
330
66C
102
}
330
66C
100
AcDbXrecord
280
     1
102
RTVSPropertyOp0
 70
     1
102
RTVSPropertyOp1
 70
     1
102
RTVSPropertyOp2
 70
     1
102
RTVSPropertyOp3
 70
     1
102
RTVSPropertyOp4
 70
     1
102
RTVSPropertyOp5
 70
     1
102
RTVSPropertyOp6
 70
     1
102
RTVSPropertyOp7
 70
     1
102
RTVSPropertyOp8
 70
     1
102
RTVSPropertyOp9
 70
     1
102
RTVSPropertyOp10
 70
     1
102
RTVSPropertyOp11
 70
     1
102
RTVSPropertyOp12
 70
     1
102
RTVSPropertyOp13
 70
     1
102
RTVSPropertyOp14
 70
     1
102
RTVSPropertyOp15
 70
     1
102
RTVSPropertyOp16
 70
     1
102
RTVSPropertyOp17
 70
     1
102
RTVSPropertyOp18
 70
     1
102
RTVSPropertyOp19
 70
     1
102
RTVSPropertyOp20
 70
     1
102
RTVSPropertyOp21
 70
     1
102
RTVSPropertyOp22
 70
     1
102
RTVSPropertyOp23
 70
     1
102
RTVSPropertyOp24
 70
     1
102
RTVSPropertyOp25
 70
     1
102
RTVSPropertyOp26
 70
     1
102
RTVSPropertyOp27
 70
     1
102
RTVSPropertyOp28
 70
     1
102
RTVSPropertyOp29
 70
     1
102
RTVSPropertyOp30
 70
     1
102
RTVSPropertyOp31
 70
     1
102
RTVSPropertyOp32
 70
     1
  0
XRECORD
  5
66B
102
{ACAD_REACTORS
330
66A
102
}
330
66A
100
AcDbXrecord
280
     1
102
RTVSPropertyOp0
 70
     1
102
RTVSPropertyOp1
 70
     1
102
RTVSPropertyOp2
 70
     1
102
RTVSPropertyOp3
 70
     1
102
RTVSPropertyOp4
 70
     1
102
RTVSPropertyOp5
 70
     1
102
RTVSPropertyOp6
 70
     1
102
RTVSPropertyOp7
 70
     1
102
RTVSPropertyOp8
 70
     1
102
RTVSPropertyOp9
 70
     1
102
RTVSPropertyOp10
 70
     1
102
RTVSPropertyOp11
 70
     1
102
RTVSPropertyOp12
 70
     1
102
RTVSPropertyOp13
 70
     1
102
RTVSPropertyOp14
 70
     1
102
RTVSPropertyOp15
 70
     1
102
RTVSPropertyOp16
 70
     1
102
RTVSPropertyOp17
 70
     1
102
RTVSPropertyOp18
 70
     1
102
RTVSPropertyOp19
 70
     1
102
RTVSPropertyOp20
 70
     1
102
RTVSPropertyOp21
 70
     1
102
RTVSPropertyOp22
 70
     1
102
RTVSPropertyOp23
 70
     1
102
RTVSPropertyOp24
 70
     1
102
RTVSPropertyOp25
 70
     1
102
RTVSPropertyOp26
 70
     1
102
RTVSPropertyOp27
 70
     1
102
RTVSPropertyOp28
 70
     1
102
RTVSPropertyOp29
 70
     1
102
RTVSPropertyOp30
 70
     1
102
RTVSPropertyOp31
 70
     1
102
RTVSPropertyOp32
 70
     1
  0
XRECORD
  5
66F
102
{ACAD_REACTORS
330
66E
102
}
330
66E
100
AcDbXrecord
280
     1
102
RTVSPropertyOp0
 70
     1
102
RTVSPropertyOp1
 70
     1
102
RTVSPropertyOp2
 70
     1
102
RTVSPropertyOp3
 70
     1
102
RTVSPropertyOp4
 70
     1
102
RTVSPropertyOp5
 70
     1
102
RTVSPropertyOp6
 70
     1
102
RTVSPropertyOp7
 70
     1
102
RTVSPropertyOp8
 70
     1
102
RTVSPropertyOp9
 70
     1
102
RTVSPropertyOp10
 70
     1
102
RTVSPropertyOp11
 70
     1
102
RTVSPropertyOp12
 70
     1
102
RTVSPropertyOp13
 70
     1
102
RTVSPropertyOp14
 70
     1
102
RTVSPropertyOp15
 70
     1
102
RTVSPropertyOp16
 70
     1
102
RTVSPropertyOp17
 70
     1
102
RTVSPropertyOp18
 70
     1
102
RTVSPropertyOp19
 70
     1
102
RTVSPropertyOp20
 70
     1
102
RTVSPropertyOp21
 70
     1
102
RTVSPropertyOp22
 70
     1
102
RTVSPropertyOp23
 70
     1
102
RTVSPropertyOp24
 70
     1
102
RTVSPropertyOp25
 70
     1
102
RTVSPropertyOp26
 70
     1
102
RTVSPropertyOp27
 70
     1
102
RTVSPropertyOp28
 70
     1
102
RTVSPropertyOp29
 70
     1
102
RTVSPropertyOp30
 70
     1
102
RTVSPropertyOp31
 70
     1
102
RTVSPropertyOp32
 70
     1
  0
XRECORD
  5
677
102
{ACAD_REACTORS
330
676
102
}
330
676
100
AcDbXrecord
280
     1
102
RTVSPropertyOp0
 70
     1
102
RTVSPropertyOp1
 70
     1
102
RTVSPropertyOp2
 70
     1
102
RTVSPropertyOp3
 70
     1
102
RTVSPropertyOp4
 70
     1
102
RTVSPropertyOp5
 70
     1
102
RTVSPropertyOp6
 70
     1
102
RTVSPropertyOp7
 70
     1
102
RTVSPropertyOp8
 70
     1
102
RTVSPropertyOp9
 70
     1
102
RTVSPropertyOp10
 70
     1
102
RTVSPropertyOp11
 70
     1
102
RTVSPropertyOp12
 70
     1
102
RTVSPropertyOp13
 70
     1
102
RTVSPropertyOp14
 70
     1
102
RTVSPropertyOp15
 70
     1
102
RTVSPropertyOp16
 70
     1
102
RTVSPropertyOp17
 70
     1
102
RTVSPropertyOp18
 70
     1
102
RTVSPropertyOp19
 70
     1
102
RTVSPropertyOp20
 70
     1
102
RTVSPropertyOp21
 70
     1
102
RTVSPropertyOp22
 70
     1
102
RTVSPropertyOp23
 70
     1
102
RTVSPropertyOp24
 70
     1
102
RTVSPropertyOp25
 70
     1
102
RTVSPropertyOp26
 70
     1
102
RTVSPropertyOp27
 70
     1
102
RTVSPropertyOp28
 70
     1
102
RTVSPropertyOp29
 70
     1
102
RTVSPropertyOp30
 70
     1
102
RTVSPropertyOp31
 70
     1
102
RTVSPropertyOp32
 70
     1
  0
XRECORD
  5
67F
102
{ACAD_REACTORS
330
67E
102
}
330
67E
100
AcDbXrecord
280
     1
102
RTVSPropertyOp0
 70
     1
102
RTVSPropertyOp1
 70
     1
102
RTVSPropertyOp2
 70
     1
102
RTVSPropertyOp3
 70
     1
102
RTVSPropertyOp4
 70
     1
102
RTVSPropertyOp5
 70
     1
102
RTVSPropertyOp6
 70
     1
102
RTVSPropertyOp7
 70
     1
102
RTVSPropertyOp8
 70
     1
102
RTVSPropertyOp9
 70
     1
102
RTVSPropertyOp10
 70
     1
102
RTVSPropertyOp11
 70
     1
102
RTVSPropertyOp12
 70
     1
102
RTVSPropertyOp13
 70
     1
102
RTVSPropertyOp14
 70
     1
102
RTVSPropertyOp15
 70
     1
102
RTVSPropertyOp16
 70
     1
102
RTVSPropertyOp17
 70
     1
102
RTVSPropertyOp18
 70
     1
102
RTVSPropertyOp19
 70
     1
102
RTVSPropertyOp20
 70
     1
102
RTVSPropertyOp21
 70
     1
102
RTVSPropertyOp22
 70
     1
102
RTVSPropertyOp23
 70
     1
102
RTVSPropertyOp24
 70
     1
102
RTVSPropertyOp25
 70
     1
102
RTVSPropertyOp26
 70
     1
102
RTVSPropertyOp27
 70
     1
102
RTVSPropertyOp28
 70
     1
102
RTVSPropertyOp29
 70
     1
102
RTVSPropertyOp30
 70
     1
102
RTVSPropertyOp31
 70
     1
102
RTVSPropertyOp32
 70
     1
  0
XRECORD
  5
673
102
{ACAD_REACTORS
330
672
102
}
330
672
100
AcDbXrecord
280
     1
102
RTVSPropertyOp0
 70
     1
102
RTVSPropertyOp1
 70
     1
102
RTVSPropertyOp2
 70
     1
102
RTVSPropertyOp3
 70
     1
102
RTVSPropertyOp4
 70
     1
102
RTVSPropertyOp5
 70
     1
102
RTVSPropertyOp6
 70
     1
102
RTVSPropertyOp7
 70
     1
102
RTVSPropertyOp8
 70
     1
102
RTVSPropertyOp9
 70
     1
102
RTVSPropertyOp10
 70
     1
102
RTVSPropertyOp11
 70
     1
102
RTVSPropertyOp12
 70
     1
102
RTVSPropertyOp13
 70
     1
102
RTVSPropertyOp14
 70
     1
102
RTVSPropertyOp15
 70
     1
102
RTVSPropertyOp16
 70
     1
102
RTVSPropertyOp17
 70
     1
102
RTVSPropertyOp18
 70
     1
102
RTVSPropertyOp19
 70
     1
102
RTVSPropertyOp20
 70
     1
102
RTVSPropertyOp21
 70
     1
102
RTVSPropertyOp22
 70
     1
102
RTVSPropertyOp23
 70
     1
102
RTVSPropertyOp24
 70
     1
102
RTVSPropertyOp25
 70
     1
102
RTVSPropertyOp26
 70
     1
102
RTVSPropertyOp27
 70
     1
102
RTVSPropertyOp28
 70
     1
102
RTVSPropertyOp29
 70
     1
102
RTVSPropertyOp30
 70
     1
102
RTVSPropertyOp31
 70
     1
102
RTVSPropertyOp32
 70
     1
  0
XRECORD
  5
675
102
{ACAD_REACTORS
330
674
102
}
330
674
100
AcDbXrecord
280
     1
102
RTVSPropertyOp0
 70
     1
102
RTVSPropertyOp1
 70
     1
102
RTVSPropertyOp2
 70
     1
102
RTVSPropertyOp3
 70
     1
102
RTVSPropertyOp4
 70
     1
102
RTVSPropertyOp5
 70
     1
102
RTVSPropertyOp6
 70
     1
102
RTVSPropertyOp7
 70
     1
102
RTVSPropertyOp8
 70
     1
102
RTVSPropertyOp9
 70
     1
102
RTVSPropertyOp10
 70
     1
102
RTVSPropertyOp11
 70
     1
102
RTVSPropertyOp12
 70
     1
102
RTVSPropertyOp13
 70
     1
102
RTVSPropertyOp14
 70
     1
102
RTVSPropertyOp15
 70
     1
102
RTVSPropertyOp16
 70
     1
102
RTVSPropertyOp17
 70
     1
102
RTVSPropertyOp18
 70
     1
102
RTVSPropertyOp19
 70
     1
102
RTVSPropertyOp20
 70
     1
102
RTVSPropertyOp21
 70
     1
102
RTVSPropertyOp22
 70
     1
102
RTVSPropertyOp23
 70
     1
102
RTVSPropertyOp24
 70
     1
102
RTVSPropertyOp25
 70
     1
102
RTVSPropertyOp26
 70
     1
102
RTVSPropertyOp27
 70
     1
102
RTVSPropertyOp28
 70
     1
102
RTVSPropertyOp29
 70
     1
102
RTVSPropertyOp30
 70
     1
102
RTVSPropertyOp31
 70
     1
102
RTVSPropertyOp32
 70
     1
  0
XRECORD
  5
67D
102
{ACAD_REACTORS
330
67C
102
}
330
67C
100
AcDbXrecord
280
     1
102
RTVSPropertyOp0
 70
     1
102
RTVSPropertyOp1
 70
     1
102
RTVSPropertyOp2
 70
     1
102
RTVSPropertyOp3
 70
     1
102
RTVSPropertyOp4
 70
     1
102
RTVSPropertyOp5
 70
     1
102
RTVSPropertyOp6
 70
     1
102
RTVSPropertyOp7
 70
     1
102
RTVSPropertyOp8
 70
     1
102
RTVSPropertyOp9
 70
     1
102
RTVSPropertyOp10
 70
     1
102
RTVSPropertyOp11
 70
     1
102
RTVSPropertyOp12
 70
     1
102
RTVSPropertyOp13
 70
     1
102
RTVSPropertyOp14
 70
     1
102
RTVSPropertyOp15
 70
     1
102
RTVSPropertyOp16
 70
     1
102
RTVSPropertyOp17
 70
     1
102
RTVSPropertyOp18
 70
     1
102
RTVSPropertyOp19
 70
     1
102
RTVSPropertyOp20
 70
     1
102
RTVSPropertyOp21
 70
     1
102
RTVSPropertyOp22
 70
     1
102
RTVSPropertyOp23
 70
     1
102
RTVSPropertyOp24
 70
     1
102
RTVSPropertyOp25
 70
     1
102
RTVSPropertyOp26
 70
     1
102
RTVSPropertyOp27
 70
     1
102
RTVSPropertyOp28
 70
     1
102
RTVSPropertyOp29
 70
     1
102
RTVSPropertyOp30
 70
     1
102
RTVSPropertyOp31
 70
     1
102
RTVSPropertyOp32
 70
     1
  0
XRECORD
  5
661
102
{ACAD_REACTORS
330
660
102
}
330
660
100
AcDbXrecord
280
     1
102
RTVSPropertyOp0
 70
     1
102
RTVSPropertyOp1
 70
     1
102
RTVSPropertyOp2
 70
     1
102
RTVSPropertyOp3
 70
     1
102
RTVSPropertyOp4
 70
     1
102
RTVSPropertyOp5
 70
     1
102
RTVSPropertyOp6
 70
     1
102
RTVSPropertyOp7
 70
     1
102
RTVSPropertyOp8
 70
     1
102
RTVSPropertyOp9
 70
     1
102
RTVSPropertyOp10
 70
     1
102
RTVSPropertyOp11
 70
     1
102
RTVSPropertyOp12
 70
     1
102
RTVSPropertyOp13
 70
     1
102
RTVSPropertyOp14
 70
     1
102
RTVSPropertyOp15
 70
     1
102
RTVSPropertyOp16
 70
     1
102
RTVSPropertyOp17
 70
     1
102
RTVSPropertyOp18
 70
     1
102
RTVSPropertyOp19
 70
     1
102
RTVSPropertyOp20
 70
     1
102
RTVSPropertyOp21
 70
     1
102
RTVSPropertyOp22
 70
     1
102
RTVSPropertyOp23
 70
     1
102
RTVSPropertyOp24
 70
     1
102
RTVSPropertyOp25
 70
     1
102
RTVSPropertyOp26
 70
     1
102
RTVSPropertyOp27
 70
     1
102
RTVSPropertyOp28
 70
     1
102
RTVSPropertyOp29
 70
     1
102
RTVSPropertyOp30
 70
     1
102
RTVSPropertyOp31
 70
     1
102
RTVSPropertyOp32
 70
     1
  0
XRECORD
  5
663
102
{ACAD_REACTORS
330
662
102
}
330
662
100
AcDbXrecord
280
     1
102
RTVSPropertyOp0
 70
     1
102
RTVSPropertyOp1
 70
     1
102
RTVSPropertyOp2
 70
     1
102
RTVSPropertyOp3
 70
     1
102
RTVSPropertyOp4
 70
     1
102
RTVSPropertyOp5
 70
     1
102
RTVSPropertyOp6
 70
     1
102
RTVSPropertyOp7
 70
     1
102
RTVSPropertyOp8
 70
     1
102
RTVSPropertyOp9
 70
     1
102
RTVSPropertyOp10
 70
     1
102
RTVSPropertyOp11
 70
     1
102
RTVSPropertyOp12
 70
     1
102
RTVSPropertyOp13
 70
     1
102
RTVSPropertyOp14
 70
     1
102
RTVSPropertyOp15
 70
     1
102
RTVSPropertyOp16
 70
     1
102
RTVSPropertyOp17
 70
     1
102
RTVSPropertyOp18
 70
     1
102
RTVSPropertyOp19
 70
     1
102
RTVSPropertyOp20
 70
     1
102
RTVSPropertyOp21
 70
     1
102
RTVSPropertyOp22
 70
     1
102
RTVSPropertyOp23
 70
     1
102
RTVSPropertyOp24
 70
     1
102
RTVSPropertyOp25
 70
     1
102
RTVSPropertyOp26
 70
     1
102
RTVSPropertyOp27
 70
     1
102
RTVSPropertyOp28
 70
     1
102
RTVSPropertyOp29
 70
     1
102
RTVSPropertyOp30
 70
     1
102
RTVSPropertyOp31
 70
     1
102
RTVSPropertyOp32
 70
     1
  0
XRECORD
  5
665
102
{ACAD_REACTORS
330
664
102
}
330
664
100
AcDbXrecord
280
     1
102
RTVSPropertyOp0
 70
     1
102
RTVSPropertyOp1
 70
     1
102
RTVSPropertyOp2
 70
     1
102
RTVSPropertyOp3
 70
     1
102
RTVSPropertyOp4
 70
     1
102
RTVSPropertyOp5
 70
     1
102
RTVSPropertyOp6
 70
     1
102
RTVSPropertyOp7
 70
     1
102
RTVSPropertyOp8
 70
     1
102
RTVSPropertyOp9
 70
     1
102
RTVSPropertyOp10
 70
     1
102
RTVSPropertyOp11
 70
     1
102
RTVSPropertyOp12
 70
     1
102
RTVSPropertyOp13
 70
     1
102
RTVSPropertyOp14
 70
     1
102
RTVSPropertyOp15
 70
     1
102
RTVSPropertyOp16
 70
     1
102
RTVSPropertyOp17
 70
     1
102
RTVSPropertyOp18
 70
     1
102
RTVSPropertyOp19
 70
     1
102
RTVSPropertyOp20
 70
     1
102
RTVSPropertyOp21
 70
     1
102
RTVSPropertyOp22
 70
     1
102
RTVSPropertyOp23
 70
     1
102
RTVSPropertyOp24
 70
     1
102
RTVSPropertyOp25
 70
     1
102
RTVSPropertyOp26
 70
     1
102
RTVSPropertyOp27
 70
     1
102
RTVSPropertyOp28
 70
     1
102
RTVSPropertyOp29
 70
     1
102
RTVSPropertyOp30
 70
     1
102
RTVSPropertyOp31
 70
     1
102
RTVSPropertyOp32
 70
     1
  0
XRECORD
  5
667
102
{ACAD_REACTORS
330
666
102
}
330
666
100
AcDbXrecord
280
     1
102
RTVSPropertyOp0
 70
     1
102
RTVSPropertyOp1
 70
     1
102
RTVSPropertyOp2
 70
     1
102
RTVSPropertyOp3
 70
     1
102
RTVSPropertyOp4
 70
     1
102
RTVSPropertyOp5
 70
     1
102
RTVSPropertyOp6
 70
     1
102
RTVSPropertyOp7
 70
     1
102
RTVSPropertyOp8
 70
     1
102
RTVSPropertyOp9
 70
     1
102
RTVSPropertyOp10
 70
     1
102
RTVSPropertyOp11
 70
     1
102
RTVSPropertyOp12
 70
     1
102
RTVSPropertyOp13
 70
     1
102
RTVSPropertyOp14
 70
     1
102
RTVSPropertyOp15
 70
     1
102
RTVSPropertyOp16
 70
     1
102
RTVSPropertyOp17
 70
     1
102
RTVSPropertyOp18
 70
     1
102
RTVSPropertyOp19
 70
     1
102
RTVSPropertyOp20
 70
     1
102
RTVSPropertyOp21
 70
     1
102
RTVSPropertyOp22
 70
     1
102
RTVSPropertyOp23
 70
     1
102
RTVSPropertyOp24
 70
     1
102
RTVSPropertyOp25
 70
     1
102
RTVSPropertyOp26
 70
     1
102
RTVSPropertyOp27
 70
     1
102
RTVSPropertyOp28
 70
     1
102
RTVSPropertyOp29
 70
     1
102
RTVSPropertyOp30
 70
     1
102
RTVSPropertyOp31
 70
     1
102
RTVSPropertyOp32
 70
     1
  0
XRECORD
  5
67B
102
{ACAD_REACTORS
330
67A
102
}
330
67A
100
AcDbXrecord
280
     1
102
RTVSPropertyOp0
 70
     1
102
RTVSPropertyOp1
 70
     1
102
RTVSPropertyOp2
 70
     1
102
RTVSPropertyOp3
 70
     1
102
RTVSPropertyOp4
 70
     1
102
RTVSPropertyOp5
 70
     1
102
RTVSPropertyOp6
 70
     1
102
RTVSPropertyOp7
 70
     1
102
RTVSPropertyOp8
 70
     1
102
RTVSPropertyOp9
 70
     1
102
RTVSPropertyOp10
 70
     1
102
RTVSPropertyOp11
 70
     1
102
RTVSPropertyOp12
 70
     1
102
RTVSPropertyOp13
 70
     1
102
RTVSPropertyOp14
 70
     1
102
RTVSPropertyOp15
 70
     1
102
RTVSPropertyOp16
 70
     1
102
RTVSPropertyOp17
 70
     1
102
RTVSPropertyOp18
 70
     1
102
RTVSPropertyOp19
 70
     1
102
RTVSPropertyOp20
 70
     1
102
RTVSPropertyOp21
 70
     1
102
RTVSPropertyOp22
 70
     1
102
RTVSPropertyOp23
 70
     1
102
RTVSPropertyOp24
 70
     1
102
RTVSPropertyOp25
 70
     1
102
RTVSPropertyOp26
 70
     1
102
RTVSPropertyOp27
 70
     1
102
RTVSPropertyOp28
 70
     1
102
RTVSPropertyOp29
 70
     1
102
RTVSPropertyOp30
 70
     1
102
RTVSPropertyOp31
 70
     1
102
RTVSPropertyOp32
 70
     1
  0
XRECORD
  5
671
102
{ACAD_REACTORS
330
670
102
}
330
670
100
AcDbXrecord
280
     1
102
RTVSPropertyOp0
 70
     1
102
RTVSPropertyOp1
 70
     1
102
RTVSPropertyOp2
 70
     1
102
RTVSPropertyOp3
 70
     1
102
RTVSPropertyOp4
 70
     1
102
RTVSPropertyOp5
 70
     1
102
RTVSPropertyOp6
 70
     1
102
RTVSPropertyOp7
 70
     1
102
RTVSPropertyOp8
 70
     1
102
RTVSPropertyOp9
 70
     1
102
RTVSPropertyOp10
 70
     1
102
RTVSPropertyOp11
 70
     1
102
RTVSPropertyOp12
 70
     1
102
RTVSPropertyOp13
 70
     1
102
RTVSPropertyOp14
 70
     1
102
RTVSPropertyOp15
 70
     1
102
RTVSPropertyOp16
 70
     1
102
RTVSPropertyOp17
 70
     1
102
RTVSPropertyOp18
 70
     1
102
RTVSPropertyOp19
 70
     1
102
RTVSPropertyOp20
 70
     1
102
RTVSPropertyOp21
 70
     1
102
RTVSPropertyOp22
 70
     1
102
RTVSPropertyOp23
 70
     1
102
RTVSPropertyOp24
 70
     1
102
RTVSPropertyOp25
 70
     1
102
RTVSPropertyOp26
 70
     1
102
RTVSPropertyOp27
 70
     1
102
RTVSPropertyOp28
 70
     1
102
RTVSPropertyOp29
 70
     1
102
RTVSPropertyOp30
 70
     1
102
RTVSPropertyOp31
 70
     1
102
RTVSPropertyOp32
 70
     1
  0
XRECORD
  5
679
102
{ACAD_REACTORS
330
678
102
}
330
678
100
AcDbXrecord
280
     1
102
RTVSPropertyOp0
 70
     1
102
RTVSPropertyOp1
 70
     1
102
RTVSPropertyOp2
 70
     1
102
RTVSPropertyOp3
 70
     1
102
RTVSPropertyOp4
 70
     1
102
RTVSPropertyOp5
 70
     1
102
RTVSPropertyOp6
 70
     1
102
RTVSPropertyOp7
 70
     1
102
RTVSPropertyOp8
 70
     1
102
RTVSPropertyOp9
 70
     1
102
RTVSPropertyOp10
 70
     1
102
RTVSPropertyOp11
 70
     1
102
RTVSPropertyOp12
 70
     1
102
RTVSPropertyOp13
 70
     1
102
RTVSPropertyOp14
 70
     1
102
RTVSPropertyOp15
 70
     1
102
RTVSPropertyOp16
 70
     1
102
RTVSPropertyOp17
 70
     1
102
RTVSPropertyOp18
 70
     1
102
RTVSPropertyOp19
 70
     1
102
RTVSPropertyOp20
 70
     1
102
RTVSPropertyOp21
 70
     1
102
RTVSPropertyOp22
 70
     1
102
RTVSPropertyOp23
 70
     1
102
RTVSPropertyOp24
 70
     1
102
RTVSPropertyOp25
 70
     1
102
RTVSPropertyOp26
 70
     1
102
RTVSPropertyOp27
 70
     1
102
RTVSPropertyOp28
 70
     1
102
RTVSPropertyOp29
 70
     1
102
RTVSPropertyOp30
 70
     1
102
RTVSPropertyOp31
 70
     1
102
RTVSPropertyOp32
 70
     1
  0
ENDSEC
  0
EOF
