  0
SECTION
  2
HEADER
  9
$ACADVER
  1
AC1015
  9
$ACADMAINTVER
 70
     6
  9
$DWGCODEPAGE
  3
ANSI_949
  9
$INSBASE
 10
0.0
 20
0.0
 30
0.0
  9
$EXTMIN
 10
1.000000000000000E+20
 20
1.000000000000000E+20
 30
1.000000000000000E+20
  9
$EXTMAX
 10
-1.000000000000000E+20
 20
-1.000000000000000E+20
 30
-1.000000000000000E+20
  9
$LIMMIN
 10
0.0
 20
0.0
  9
$LIMMAX
 10
12.0
 20
9.0
  9
$ORTHOMODE
 70
     0
  9
$REGENMODE
 70
     1
  9
$FILLMODE
 70
     1
  9
$QTEXTMODE
 70
     0
  9
$MIRRTEXT
 70
     1
  9
$LTSCALE
 40
1.0
  9
$ATTMODE
 70
     1
  9
$TEXTSIZE
 40
0.2
  9
$TRACEWID
 40
0.05
  9
$TEXTSTYLE
  7
Standard
  9
$CLAYER
  8
0
  9
$CELTYPE
  6
ByLayer
  9
$CECOLOR
 62
   256
  9
$CELTSCALE
 40
1.0
  9
$DISPSILH
 70
     0
  9
$DIMSCALE
 40
1.0
  9
$DIMASZ
 40
0.18
  9
$DIMEXO
 40
0.0625
  9
$DIMDLI
 40
0.38
  9
$DIMRND
 40
0.0
  9
$DIMDLE
 40
0.0
  9
$DIMEXE
 40
0.18
  9
$DIMTP
 40
0.0
  9
$DIMTM
 40
0.0
  9
$DIMTXT
 40
0.18
  9
$DIMCEN
 40
0.09
  9
$DIMTSZ
 40
0.0
  9
$DIMTOL
 70
     0
  9
$DIMLIM
 70
     0
  9
$DIMTIH
 70
     1
  9
$DIMTOH
 70
     1
  9
$DIMSE1
 70
     0
  9
$DIMSE2
 70
     0
  9
$DIMTAD
 70
     0
  9
$DIMZIN
 70
     0
  9
$DIMBLK
  1

  9
$DIMASO
 70
     1
  9
$DIMSHO
 70
     1
  9
$DIMPOST
  1

  9
$DIMAPOST
  1

  9
$DIMALT
 70
     0
  9
$DIMALTD
 70
     2
  9
$DIMALTF
 40
25.4
  9
$DIMLFAC
 40
1.0
  9
$DIMTOFL
 70
     0
  9
$DIMTVP
 40
0.0
  9
$DIMTIX
 70
     0
  9
$DIMSOXD
 70
     0
  9
$DIMSAH
 70
     0
  9
$DIMBLK1
  1

  9
$DIMBLK2
  1

  9
$DIMSTYLE
  2
Standard
  9
$DIMCLRD
 70
     0
  9
$DIMCLRE
 70
     0
  9
$DIMCLRT
 70
     0
  9
$DIMTFAC
 40
1.0
  9
$DIMGAP
 40
0.09
  9
$DIMJUST
 70
     0
  9
$DIMSD1
 70
     0
  9
$DIMSD2
 70
     0
  9
$DIMTOLJ
 70
     1
  9
$DIMTZIN
 70
     0
  9
$DIMALTZ
 70
     0
  9
$DIMALTTZ
 70
     0
  9
$DIMUPT
 70
     0
  9
$DIMDEC
 70
     4
  9
$DIMTDEC
 70
     4
  9
$DIMALTU
 70
     2
  9
$DIMALTTD
 70
     2
  9
$DIMTXSTY
  7
Standard
  9
$DIMAUNIT
 70
     0
  9
$DIMADEC
 70
     0
  9
$DIMALTRND
 40
0.0
  9
$DIMAZIN
 70
     0
  9
$DIMDSEP
 70
    46
  9
$DIMATFIT
 70
     3
  9
$DIMFRAC
 70
     0
  9
$DIMLDRBLK
  1

  9
$DIMLUNIT
 70
     2
  9
$DIMLWD
 70
    -2
  9
$DIMLWE
 70
    -2
  9
$DIMTMOVE
 70
     0
  9
$LUNITS
 70
     2
  9
$LUPREC
 70
     4
  9
$SKETCHINC
 40
0.1
  9
$FILLETRAD
 40
0.5
  9
$AUNITS
 70
     0
  9
$AUPREC
 70
     0
  9
$MENU
  1
.
  9
$ELEVATION
 40
0.0
  9
$PELEVATION
 40
0.0
  9
$THICKNESS
 40
0.0
  9
$LIMCHECK
 70
     0
  9
$CHAMFERA
 40
0.5
  9
$CHAMFERB
 40
0.5
  9
$CHAMFERC
 40
1.0
  9
$CHAMFERD
 40
0.0
  9
$SKPOLY
 70
     0
  9
$TDCREATE
 40
2456522.584158113
  9
$TDUCREATE
 40
2456522.084158113
  9
$TDUPDATE
 40
2456522.584188565
  9
$TDUUPDATE
 40
2456522.084188565
  9
$TDINDWG
 40
0.0000000116
  9
$TDUSRTIMER
 40
0.0000000116
  9
$USRTIMER
 70
     1
  9
$ANGBASE
 50
0.0
  9
$ANGDIR
 70
     0
  9
$PDMODE
 70
     0
  9
$PDSIZE
 40
0.0
  9
$PLINEWID
 40
0.0
  9
$SPLFRAME
 70
     0
  9
$SPLINETYPE
 70
     6
  9
$SPLINESEGS
 70
     8
  9
$HANDSEED
  5
3E5
  9
$SURFTAB1
 70
     6
  9
$SURFTAB2
 70
     6
  9
$SURFTYPE
 70
     6
  9
$SURFU
 70
     6
  9
$SURFV
 70
     6
  9
$UCSBASE
  2

  9
$UCSNAME
  2

  9
$UCSORG
 10
0.0
 20
0.0
 30
0.0
  9
$UCSXDIR
 10
1.0
 20
0.0
 30
0.0
  9
$UCSYDIR
 10
0.0
 20
1.0
 30
0.0
  9
$UCSORTHOREF
  2

  9
$UCSORTHOVIEW
 70
     0
  9
$UCSORGTOP
 10
0.0
 20
0.0
 30
0.0
  9
$UCSORGBOTTOM
 10
0.0
 20
0.0
 30
0.0
  9
$UCSORGLEFT
 10
0.0
 20
0.0
 30
0.0
  9
$UCSORGRIGHT
 10
0.0
 20
0.0
 30
0.0
  9
$UCSORGFRONT
 10
0.0
 20
0.0
 30
0.0
  9
$UCSORGBACK
 10
0.0
 20
0.0
 30
0.0
  9
$PUCSBASE
  2

  9
$PUCSNAME
  2

  9
$PUCSORG
 10
0.0
 20
0.0
 30
0.0
  9
$PUCSXDIR
 10
1.0
 20
0.0
 30
0.0
  9
$PUCSYDIR
 10
0.0
 20
1.0
 30
0.0
  9
$PUCSORTHOREF
  2

  9
$PUCSORTHOVIEW
 70
     0
  9
$PUCSORGTOP
 10
0.0
 20
0.0
 30
0.0
  9
$PUCSORGBOTTOM
 10
0.0
 20
0.0
 30
0.0
  9
$PUCSORGLEFT
 10
0.0
 20
0.0
 30
0.0
  9
$PUCSORGRIGHT
 10
0.0
 20
0.0
 30
0.0
  9
$PUCSORGFRONT
 10
0.0
 20
0.0
 30
0.0
  9
$PUCSORGBACK
 10
0.0
 20
0.0
 30
0.0
  9
$USERI1
 70
     0
  9
$USERI2
 70
     0
  9
$USERI3
 70
     0
  9
$USERI4
 70
     0
  9
$USERI5
 70
     0
  9
$USERR1
 40
0.0
  9
$USERR2
 40
0.0
  9
$USERR3
 40
0.0
  9
$USERR4
 40
0.0
  9
$USERR5
 40
0.0
  9
$WORLDVIEW
 70
     1
  9
$SHADEDGE
 70
     3
  9
$SHADEDIF
 70
    70
  9
$TILEMODE
 70
     1
  9
$MAXACTVP
 70
    64
  9
$PINSBASE
 10
0.0
 20
0.0
 30
0.0
  9
$PLIMCHECK
 70
     0
  9
$PEXTMIN
 10
1.000000000000000E+20
 20
1.000000000000000E+20
 30
1.000000000000000E+20
  9
$PEXTMAX
 10
-1.000000000000000E+20
 20
-1.000000000000000E+20
 30
-1.000000000000000E+20
  9
$PLIMMIN
 10
0.0
 20
0.0
  9
$PLIMMAX
 10
12.0
 20
9.0
  9
$UNITMODE
 70
     0
  9
$VISRETAIN
 70
     1
  9
$PLINEGEN
 70
     0
  9
$PSLTSCALE
 70
     1
  9
$TREEDEPTH
 70
  3020
  9
$CMLSTYLE
  2
Standard
  9
$CMLJUST
 70
     0
  9
$CMLSCALE
 40
1.0
  9
$PROXYGRAPHICS
 70
     1
  9
$MEASUREMENT
 70
     0
  9
$CELWEIGHT
370
    -1
  9
$ENDCAPS
280
     0
  9
$JOINSTYLE
280
     0
  9
$LWDISPLAY
290
     1
  9
$INSUNITS
 70
     4
  9
$HYPERLINKBASE
  1

  9
$STYLESHEET
  1

  9
$XEDIT
290
     1
  9
$CEPSNTYPE
380
     0
  9
$PSTYLEMODE
290
     1
  9
$FINGERPRINTGUID
  2
{EA49CCDF-144C-41A9-AFFF-7ED52179C846}
  9
$VERSIONGUID
  2
{FAEB1C32-E019-11D5-929B-00C0DF256EC4}
  9
$EXTNAMES
290
     1
  9
$PSVPSCALE
 40
0.0
  9
$OLESTARTUP
290
     0
  0
ENDSEC
  0
SECTION
  2
CLASSES
  0
CLASS
  1
ACDBDICTIONARYWDFLT
  2
AcDbDictionaryWithDefault
  3
ObjectDBX Classes
 90
        0
280
     0
281
     0
  0
CLASS
  1
VISUALSTYLE
  2
AcDbVisualStyle
  3
ObjectDBX Classes
 90
     4095
280
     0
281
     0
  0
CLASS
  1
MATERIAL
  2
AcDbMaterial
  3
ObjectDBX Classes
 90
     1153
280
     0
281
     0
  0
CLASS
  1
SPATIAL_FILTER
  2
AcDbSpatialFilter
  3
ObjectDBX Classes
 90
        0
280
     0
281
     0
  0
CLASS
  1
SCALE
  2
AcDbScale
  3
ObjectDBX Classes
 90
     1153
280
     0
281
     0
  0
CLASS
  1
DICTIONARYVAR
  2
AcDbDictionaryVar
  3
ObjectDBX Classes
 90
        0
280
     0
281
     0
  0
CLASS
  1
ACDBPLACEHOLDER
  2
AcDbPlaceHolder
  3
ObjectDBX Classes
 90
        0
280
     0
281
     0
  0
CLASS
  1
LAYOUT
  2
AcDbLayout
  3
ObjectDBX Classes
 90
        0
280
     0
281
     0
  0
ENDSEC
  0
SECTION
  2
TABLES
  0
TABLE
  2
VPORT
  5
8
330
0
100
AcDbSymbolTable
 70
     1
  0
VPORT
  5
29
330
8
100
AcDbSymbolTableRecord
100
AcDbViewportTableRecord
  2
*Active
 70
     0
 10
0.0
 20
0.0
 11
1.0
 21
1.0
 12
148.6203422501967
 22
100.4422808134636
 13
0.0
 23
0.0
 14
0.5
 24
0.5
 15
0.5
 25
0.5
 16
0.0
 26
0.0
 36
1.0
 17
0.0
 27
0.0
 37
0.0
 40
200.7673407460772
 41
1.439006444542446
 42
50.0
 43
0.0
 44
0.0
 50
0.0
 51
0.0
 71
     0
 72
   100
 73
     1
 74
     3
 75
     0
 76
     0
 77
     0
 78
     0
281
     0
 65
     1
110
0.0
120
0.0
130
0.0
111
1.0
121
0.0
131
0.0
112
0.0
122
1.0
132
0.0
 79
     0
146
0.0
  0
ENDTAB
  0
TABLE
  2
LTYPE
  5
5
330
0
100
AcDbSymbolTable
 70
     2
  0
LTYPE
  5
14
330
5
100
AcDbSymbolTableRecord
100
AcDbLinetypeTableRecord
  2
ByBlock
 70
     0
  3

 72
    65
 73
     0
 40
0.0
  0
LTYPE
  5
15
330
5
100
AcDbSymbolTableRecord
100
AcDbLinetypeTableRecord
  2
ByLayer
 70
     0
  3

 72
    65
 73
     0
 40
0.0
  0
LTYPE
  5
16
330
5
100
AcDbSymbolTableRecord
100
AcDbLinetypeTableRecord
  2
Continuous
 70
     0
  3
Solid line
 72
    65
 73
     0
 40
0.0
  0
LTYPE
  5
289
330
5
100
AcDbSymbolTableRecord
100
AcDbLinetypeTableRecord
  2
Contour Line
 70
     0
  3
- - - - - 
 72
    65
 73
     2
 40
2.0
 49
1.0
 74
     0
 49
-1.0
 74
     0
  0
ENDTAB
  0
TABLE
  2
LAYER
  5
2
330
0
100
AcDbSymbolTable
 70
     4
  0
LAYER
  5
10
330
2
100
AcDbSymbolTableRecord
100
AcDbLayerTableRecord
  2
0
 70
     0
 62
     7
  6
Continuous
370
    -3
390
F
  0
LAYER
  5
40
330
2
100
AcDbSymbolTableRecord
100
AcDbLayerTableRecord
  2
Doc_ Finishes
 70
     0
 62
     7
  6
Continuous
370
    -3
390
F
  0
LAYER
  5
DB
330
2
100
AcDbSymbolTableRecord
100
AcDbLayerTableRecord
  2
Doc_ Floor
 70
     0
 62
     7
  6
Continuous
370
    -3
390
F
  0
LAYER
  5
15E
330
2
100
AcDbSymbolTableRecord
100
AcDbLayerTableRecord
  2
Des_ Walls
 70
     0
 62
     7
  6
Continuous
370
    -3
390
F
  0
ENDTAB
  0
TABLE
  2
STYLE
  5
3
330
0
100
AcDbSymbolTable
 70
     4
  0
STYLE
  5
11
330
3
100
AcDbSymbolTableRecord
100
AcDbTextStyleTableRecord
  2
Standard
 70
     0
 40
0.0
 41
1.0
 50
0.0
 71
     0
 42
0.2
  3
txt
  4

  0
STYLE
  5
D6
330
3
100
AcDbSymbolTableRecord
100
AcDbTextStyleTableRecord
  2
GENERATED_STYLE_1
 70
     0
 40
0.0
 41
1.0
 50
0.0
 71
     0
 42
0.2
  3

  4

1001
ACAD
1000
Century Gothic
1071
       34
  0
STYLE
  5
D9
330
3
100
AcDbSymbolTableRecord
100
AcDbTextStyleTableRecord
  2
GENERATED_STYLE_2
 70
     0
 40
0.0
 41
1.0
 50
0.0
 71
     0
 42
0.2
  3

  4

1001
ACAD
1000
DilleniaUPC
1071
 33554450
  0
STYLE
  5
2AC
330
3
100
AcDbSymbolTableRecord
100
AcDbTextStyleTableRecord
  2
GENERATED_STYLE_3
 70
     0
 40
0.0
 41
1.0
 50
0.0
 71
     0
 42
0.2
  3

  4

1001
ACAD
1000
Arial
1071
       34
  0
ENDTAB
  0
TABLE
  2
VIEW
  5
6
330
0
100
AcDbSymbolTable
 70
     0
  0
ENDTAB
  0
TABLE
  2
UCS
  5
7
330
0
100
AcDbSymbolTable
 70
     0
  0
ENDTAB
  0
TABLE
  2
APPID
  5
9
330
0
100
AcDbSymbolTable
 70
     1
  0
APPID
  5
12
330
9
100
AcDbSymbolTableRecord
100
AcDbRegAppTableRecord
  2
ACAD
 70
     0
  0
ENDTAB
  0
TABLE
  2
DIMSTYLE
  5
A
330
0
100
AcDbSymbolTable
 70
     1
100
AcDbDimStyleTable
  0
DIMSTYLE
105
27
330
A
100
AcDbSymbolTableRecord
100
AcDbDimStyleTableRecord
  2
Standard
 70
     0
178
     0
340
11
  0
ENDTAB
  0
TABLE
  2
BLOCK_RECORD
  5
1
330
0
100
AcDbSymbolTable
 70
     3
  0
BLOCK_RECORD
  5
1F
330
1
100
AcDbSymbolTableRecord
100
AcDbBlockTableRecord
  2
*Model_Space
340
22
  0
BLOCK_RECORD
  5
1B
330
1
100
AcDbSymbolTableRecord
100
AcDbBlockTableRecord
  2
*Paper_Space
340
1E
  0
BLOCK_RECORD
  5
E3
330
1
100
AcDbSymbolTableRecord
100
AcDbBlockTableRecord
  2
Drawing_1_2
340
0
102
{BLKREFS
331
388
102
}
  0
BLOCK_RECORD
  5
38F
330
1
100
AcDbSymbolTableRecord
100
AcDbBlockTableRecord
  2
R-TRS7-18 CHIMNEY PENETRATION D_STORY_MARKER
340
0
  0
ENDTAB
  0
ENDSEC
  0
SECTION
  2
BLOCKS
  0
BLOCK
  5
20
330
1F
100
AcDbEntity
  8
0
100
AcDbBlockBegin
  2
*Model_Space
 70
     0
 10
0.0
 20
0.0
 30
0.0
  3
*Model_Space
  1

  0
ENDBLK
  5
21
330
1F
100
AcDbEntity
  8
0
100
AcDbBlockEnd
  0
BLOCK
  5
1C
330
1B
100
AcDbEntity
 67
     1
  8
0
100
AcDbBlockBegin
  2
*Paper_Space
 70
     0
 10
0.0
 20
0.0
 30
0.0
  3
*Paper_Space
  1

  0
ENDBLK
  5
1D
330
1B
100
AcDbEntity
 67
     1
  8
0
100
AcDbBlockEnd
  0
BLOCK
  5
E4
330
E3
100
AcDbEntity
  8
0
100
AcDbBlockBegin
  2
Drawing_1_2
 70
     0
 10
145.2277640610102
 20
160.7933108349203
 30
0.0
  3
Drawing_1_2
  1

  0
HATCH
  5
E6
330
E3
100
AcDbEntity
  8
0
  6
Continuous
 62
   255
370
    18
100
AcDbHatch
 10
0.0
 20
0.0
 30
0.0
210
0.0
220
0.0
230
1.0
  2
SOLID
 70
     1
 71
     0
 91
        1
 92
        3
 72
     0
 73
     1
 93
        3
 10
142.5935118732544
 20
139.0905557947802
 10
147.4041977999024
 20
136.2778516519382
 10
161.8707814648489
 20
141.2159425708003
 97
        0
 75
     0
 76
     1
 98
        0
  0
LINE
  5
E7
330
E3
100
AcDbEntity
  8
0
  6
Continuous
100
AcDbLine
 10
147.4041993726515
 20
136.2778520548109
 30
0.0
 11
142.5935133110832
 21
139.0905558582326
 31
0.0
  0
LINE
  5
E8
330
E3
100
AcDbEntity
  8
0
  6
Continuous
100
AcDbLine
 10
161.8707827001799
 20
141.2159432391725
 30
0.0
 11
147.4041993726515
 21
136.2778520548109
 31
0.0
  0
LINE
  5
E9
330
E3
100
AcDbEntity
  8
0
  6
Continuous
100
AcDbLine
 10
142.5935133110832
 20
139.0905558582326
 30
0.0
 11
161.8707827001799
 21
141.2159432391725
 31
0.0
  0
HATCH
  5
EA
330
E3
100
AcDbEntity
  8
0
  6
Continuous
 62
   255
370
    18
100
AcDbHatch
 10
0.0
 20
0.0
 30
0.0
210
0.0
220
0.0
230
1.0
  2
SOLID
 70
     1
 71
     0
 91
        1
 92
        3
 72
     0
 73
     1
 93
        6
 10
165.6907280723279
 20
162.3996596821561
 10
165.2601905224047
 20
160.8661662065706
 10
167.2387210526966
 20
158.8876356762787
 10
175.7561727755434
 20
153.9121686789894
 10
180.047250042956
 20
158.2032459464019
 10
168.008602238889
 20
163.9939480283253
 97
        0
 75
     0
 76
     1
 98
        0
  0
LINE
  5
EB
330
E3
100
AcDbEntity
  8
0
  6
Continuous
100
AcDbLine
 10
165.2601918774919
 20
160.8661657904844
 30
0.0
 11
165.6907293866688
 21
162.3996599994805
 31
0.0
  0
LINE
  5
EC
330
E3
100
AcDbEntity
  8
0
  6
Continuous
100
AcDbLine
 10
167.2387225232563
 20
158.88763514472
 30
0.0
 11
165.2601918774919
 21
160.8661657904844
 31
0.0
  0
LINE
  5
ED
330
E3
100
AcDbEntity
  8
0
  6
Continuous
100
AcDbLine
 10
175.7561715690535
 20
153.9121686568084
 30
0.0
 11
167.2387225232563
 21
158.88763514472
 31
0.0
  0
LINE
  5
EE
330
E3
100
AcDbEntity
  8
0
  6
Continuous
100
AcDbLine
 10
180.047250150144
 20
158.2032472378989
 30
0.0
 11
175.7561715690535
 21
153.9121686568084
 31
0.0
  0
LINE
  5
EF
330
E3
100
AcDbEntity
  8
0
  6
Continuous
100
AcDbLine
 10
168.0086021927226
 20
163.9939478429461
 30
0.0
 11
180.047250150144
 21
158.2032472378989
 31
0.0
  0
LINE
  5
F0
330
E3
100
AcDbEntity
  8
0
  6
Continuous
100
AcDbLine
 10
165.6907293866688
 20
162.3996599994805
 30
0.0
 11
168.0086021927226
 21
163.9939478429461
 31
0.0
  0
HATCH
  5
F1
330
E3
100
AcDbEntity
  8
0
  6
Continuous
 62
   252
370
    13
100
AcDbHatch
 10
0.0
 20
0.0
 30
0.0
210
0.0
220
0.0
230
1.0
  2
SOLID
 70
     1
 71
     0
 91
        1
 92
        3
 72
     0
 73
     1
 93
        4
 10
207.0305010960235
 20
146.8249943297405
 10
145.7040678587144
 20
174.240193929453
 10
145.8430989322625
 20
173.8249179828055
 10
207.1423939060499
 20
146.3412982459851
 97
        0
 75
     0
 76
     1
 98
        0
  0
HATCH
  5
F2
330
E3
100
AcDbEntity
  8
0
  6
Continuous
 62
   255
370
    18
100
AcDbHatch
 10
0.0
 20
0.0
 30
0.0
210
0.0
220
0.0
230
1.0
  2
SOLID
 70
     1
 71
     0
 91
        1
 92
        3
 72
     0
 73
     1
 93
        4
 10
150.5949686659372
 20
177.4952115002346
 10
145.7040678587144
 20
174.2401928317659
 10
207.0305016951491
 20
146.8249942786959
 10
212.472395819638
 20
151.0648927451221
 97
        0
 75
     0
 76
     1
 98
        0
  0
HATCH
  5
F3
330
E3
100
AcDbEntity
  8
0
  6
Continuous
 62
   252
370
    13
100
AcDbHatch
 10
0.0
 20
0.0
 30
0.0
210
0.0
220
0.0
230
1.0
  2
SOLID
 70
     1
 71
     0
 91
        1
 92
        3
 72
     0
 73
     1
 93
        3
 10
143.6604416916975
 20
95.45647755972709
 10
145.1950256200073
 20
94.3116123555598
 10
144.4870859003939
 20
96.1030184056769
 97
        0
 75
     0
 76
     1
 98
        0
  0
HATCH
  5
F4
330
E3
100
AcDbEntity
  8
0
  6
Continuous
 62
   252
370
    13
100
AcDbHatch
 10
0.0
 20
0.0
 30
0.0
210
0.0
220
0.0
230
1.0
  2
SOLID
 70
     1
 71
     0
 91
        1
 92
        3
 72
     0
 73
     1
 93
        3
 10
180.148284730982
 20
123.9946054961516
 10
181.7965495049391
 20
123.0682220324162
 10
181.265037446737
 20
124.8680483024908
 97
        0
 75
     0
 76
     1
 98
        0
  0
HATCH
  5
F5
330
E3
100
AcDbEntity
  8
0
  6
Continuous
 62
   255
370
    18
100
AcDbHatch
 10
0.0
 20
0.0
 30
0.0
210
0.0
220
0.0
230
1.0
  2
SOLID
 70
     1
 71
     0
 91
        1
 92
        3
 72
     0
 73
     1
 93
        5
 10
74.27336296395204
 20
124.9682760674609
 10
75.5384614686084
 20
123.881660033688
 10
75.80475951203583
 20
124.68900180587
 10
147.8408572182566
 20
172.9292214098225
 10
146.7891904800206
 20
173.4007370773454
 97
        0
 75
     0
 76
     1
 98
        0
  0
HATCH
  5
F6
330
E3
100
AcDbEntity
  8
0
  6
Continuous
 62
   255
370
    18
100
AcDbHatch
 10
0.0
 20
0.0
 30
0.0
210
0.0
220
0.0
230
1.0
  2
SOLID
 70
     1
 71
     0
 91
        1
 92
        3
 72
     0
 73
     1
 93
        4
 10
211.728175916719
 20
149.4550466281658
 10
124.7956275292904
 20
81.57375357757395
 10
125.2941636724022
 20
81.14555304003281
 10
212.3158026966208
 20
149.2006623625015
 97
        0
 75
     0
 76
     1
 98
        0
  0
HATCH
  5
F7
330
E3
100
AcDbEntity
  8
0
  6
Continuous
 62
   253
370
    25
100
AcDbHatch
 10
0.0
 20
0.0
 30
0.0
210
0.0
220
0.0
230
1.0
  2
SOLID
 70
     1
 71
     0
 91
        1
 92
        3
 72
     0
 73
     1
 93
        8
 10
205.9053644574365
 20
146.8959212503705
 10
124.2046775093092
 20
83.36978984058958
 10
124.7956275476822
 20
81.5737549084009
 10
211.7281770748949
 20
149.455047977418
 10
211.3321101810512
 20
150.0346657957584
 10
207.165171101526
 20
146.7871220261144
 10
207.2489778833279
 20
146.4244414253557
 10
207.1423945000011
 20
146.3412984828906
 97
        0
 75
     0
 76
     1
 98
        0
  0
HATCH
  5
F8
330
E3
100
AcDbEntity
  8
0
  6
Continuous
 62
   255
370
    18
100
AcDbHatch
 10
0.0
 20
0.0
 30
0.0
210
0.0
220
0.0
230
1.0
  2
SOLID
 70
     1
 71
     0
 91
        1
 92
        3
 72
     0
 73
     1
 93
        4
 10
204.608057931514
 20
147.4775713844447
 10
123.0979649531353
 20
84.31459477376734
 10
124.2046783127423
 20
83.36978998929884
 10
205.9053649810053
 20
146.8959225958337
 97
        0
 75
     0
 76
     1
 98
        0
  0
HATCH
  5
F9
330
E3
100
AcDbEntity
  8
0
  6
Continuous
 62
   255
370
    18
100
AcDbHatch
 10
0.0
 20
0.0
 30
0.0
210
0.0
220
0.0
230
1.0
  2
SOLID
 70
     1
 71
     0
 91
        1
 92
        3
 72
     0
 73
     1
 93
        5
 10
201.8328266878848
 20
148.7218500424289
 10
119.9542230304752
 20
85.73212770347588
 10
122.5854956776956
 20
83.47207840847923
 10
123.0979651729276
 20
84.31459527801118
 10
204.6080575776336
 20
147.4775715800766
 97
        0
 75
     0
 76
     1
 98
        0
  0
HATCH
  5
FA
330
E3
100
AcDbEntity
  8
0
  6
Continuous
 62
   253
370
    25
100
AcDbHatch
 10
0.0
 20
0.0
 30
0.0
210
0.0
220
0.0
230
1.0
  2
SOLID
 70
     1
 71
     0
 91
        1
 92
        3
 72
     0
 73
     1
 93
        4
 10
200.2368287069082
 20
149.4374173324682
 10
119.3776496656898
 20
87.49064399007163
 10
119.9542220626502
 20
85.73212779050807
 10
201.8328275261044
 20
148.7218493872244
 97
        0
 75
     0
 76
     1
 98
        0
  0
HATCH
  5
FB
330
E3
100
AcDbEntity
  8
0
  6
Continuous
 62
   255
370
    18
100
AcDbHatch
 10
0.0
 20
0.0
 30
0.0
210
0.0
220
0.0
230
1.0
  2
SOLID
 70
     1
 71
     0
 91
        1
 92
        3
 72
     0
 73
     1
 93
        4
 10
198.9837823778989
 20
149.9992221407774
 10
118.313662825349
 20
88.39897395826738
 10
119.3776502713164
 20
87.49064331101107
 10
200.2368288241972
 20
149.4374176669877
 97
        0
 75
     0
 76
     1
 98
        0
  0
HATCH
  5
FC
330
E3
100
AcDbEntity
  8
0
  6
Continuous
 62
   255
370
    18
100
AcDbHatch
 10
0.0
 20
0.0
 30
0.0
210
0.0
220
0.0
230
1.0
  2
SOLID
 70
     1
 71
     0
 91
        1
 92
        3
 72
     0
 73
     1
 93
        5
 10
115.2984626608887
 20
89.73104743871424
 10
117.8292787002237
 20
87.55728018738425
 10
118.3136633835416
 20
88.39897303671223
 10
198.9837831526175
 20
149.9992215877262
 10
196.3359178004854
 20
151.1863959636437
 97
        0
 75
     0
 76
     1
 98
        0
  0
HATCH
  5
FD
330
E3
100
AcDbEntity
  8
0
  6
Continuous
 62
   253
370
    25
100
AcDbHatch
 10
0.0
 20
0.0
 30
0.0
210
0.0
220
0.0
230
1.0
  2
SOLID
 70
     1
 71
     0
 91
        1
 92
        3
 72
     0
 73
     1
 93
        4
 10
194.7604407376393
 20
151.8927637504511
 10
114.7356083661783
 20
91.45357300301204
 10
115.2984623713151
 20
89.73104733686505
 10
196.3359178523683
 20
151.1863959330017
 97
        0
 75
     0
 76
     1
 98
        0
  0
HATCH
  5
FE
330
E3
100
AcDbEntity
  8
0
  6
Continuous
 62
   255
370
    18
100
AcDbHatch
 10
0.0
 20
0.0
 30
0.0
210
0.0
220
0.0
230
1.0
  2
SOLID
 70
     1
 71
     0
 91
        1
 92
        3
 72
     0
 73
     1
 93
        8
 10
113.7119199637247
 20
92.32750093783505
 10
114.7356072834652
 20
91.45357309198965
 10
194.7604400015756
 20
151.8927634575235
 10
193.5494295483493
 20
152.4357209578659
 10
155.1956336014941
 20
123.5598415133293
 10
155.1930889392185
 20
123.3456985814791
 10
130.7002483574863
 20
104.8975130197795
 10
130.5534357160318
 20
105.0071726258359
 97
        0
 75
     0
 76
     1
 98
        0
  0
HATCH
  5
FF
330
E3
100
AcDbEntity
  8
0
  6
Continuous
 62
   255
370
    18
100
AcDbHatch
 10
0.0
 20
0.0
 30
0.0
210
0.0
220
0.0
230
1.0
  2
SOLID
 70
     1
 71
     0
 91
        1
 92
        3
 72
     0
 73
     1
 93
        5
 10
110.8178684601219
 20
93.57951300532339
 10
113.2538763360118
 20
91.4871807203328
 10
113.7119197845295
 20
92.32749988252414
 10
129.7239770755947
 20
104.3826876943465
 10
127.4985100565207
 20
106.0559403288584
 97
        0
 75
     0
 76
     1
 98
        0
  0
HATCH
  5
100
330
E3
100
AcDbEntity
  8
0
  6
Continuous
 62
   255
370
    18
100
AcDbHatch
 10
0.0
 20
0.0
 30
0.0
210
0.0
220
0.0
230
1.0
  2
SOLID
 70
     1
 71
     0
 91
        1
 92
        3
 72
     0
 73
     1
 93
        4
 10
155.1956335963663
 20
123.5598416355322
 10
193.5494298677719
 20
152.4357217718568
 10
191.0220211518384
 20
153.5688882836908
 10
155.234142492125
 20
126.8010401086217
 97
        0
 75
     0
 76
     1
 98
        0
  0
HATCH
  5
101
330
E3
100
AcDbEntity
  8
0
  6
Continuous
 62
   253
370
    25
100
AcDbHatch
 10
0.0
 20
0.0
 30
0.0
210
0.0
220
0.0
230
1.0
  2
SOLID
 70
     1
 71
     0
 91
        1
 92
        3
 72
     0
 73
     1
 93
        4
 10
126.9527479613479
 20
107.6966746581563
 10
110.26811966181
 20
95.26748603400755
 10
110.8178697062674
 20
93.57951280411369
 10
127.4985101766607
 20
106.0559404773658
 97
        0
 75
     0
 76
     1
 98
        0
  0
HATCH
  5
102
330
E3
100
AcDbEntity
  8
0
  6
Continuous
 62
   253
370
    25
100
AcDbHatch
 10
0.0
 20
0.0
 30
0.0
210
0.0
220
0.0
230
1.0
  2
SOLID
 70
     1
 71
     0
 91
        1
 92
        3
 72
     0
 73
     1
 93
        4
 10
155.2341422526101
 20
126.8010416322894
 10
191.0220208378543
 20
153.5688887039153
 10
189.4665917855756
 20
154.266267846373
 10
155.2576817558467
 20
128.7823922564479
 97
        0
 75
     0
 76
     1
 98
        0
  0
HATCH
  5
103
330
E3
100
AcDbEntity
  8
0
  6
Continuous
 62
   255
370
    18
100
AcDbHatch
 10
0.0
 20
0.0
 30
0.0
210
0.0
220
0.0
230
1.0
  2
SOLID
 70
     1
 71
     0
 91
        1
 92
        3
 72
     0
 73
     1
 93
        4
 10
125.9217406125178
 20
108.466777281067
 10
109.282482857821
 20
96.10892928955569
 10
110.2681198277561
 20
95.2674876963521
 10
126.9527491460716
 20
107.6966746544295
 97
        0
 75
     0
 76
     1
 98
        0
  0
HATCH
  5
104
330
E3
100
AcDbEntity
  8
0
  6
Continuous
 62
   255
370
    18
100
AcDbHatch
 10
0.0
 20
0.0
 30
0.0
210
0.0
220
0.0
230
1.0
  2
SOLID
 70
     1
 71
     0
 91
        1
 92
        3
 72
     0
 73
     1
 93
        4
 10
155.2576807609092
 20
128.7823910475775
 10
189.4665923190366
 20
154.2662671637327
 10
188.295536884481
 20
154.7913122077854
 10
155.2753249259727
 20
130.2674557459994
 97
        0
 75
     0
 76
     1
 98
        0
  0
HATCH
  5
105
330
E3
100
AcDbEntity
  8
0
  6
Continuous
 62
   255
370
    18
100
AcDbHatch
 10
0.0
 20
0.0
 30
0.0
210
0.0
220
0.0
230
1.0
  2
SOLID
 70
     1
 71
     0
 91
        1
 92
        3
 72
     0
 73
     1
 93
        5
 10
106.502739611422
 20
97.2858586389696
 10
108.8491659697373
 20
95.27046928701373
 10
109.2824829744018
 20
96.10892931172894
 10
125.1018889149843
 20
107.857879446171
 10
122.9840525879153
 20
109.4502092884662
 97
        0
 75
     0
 76
     1
 98
        0
  0
HATCH
  5
106
330
E3
100
AcDbEntity
  8
0
  6
Continuous
 62
   255
370
    18
100
AcDbHatch
 10
0.0
 20
0.0
 30
0.0
210
0.0
220
0.0
230
1.0
  2
SOLID
 70
     1
 71
     0
 91
        1
 92
        3
 72
     0
 73
     1
 93
        5
 10
154.059951522904
 20
132.3863764181089
 10
155.2919417572616
 20
131.6660579696433
 10
155.2753257366594
 20
130.2674565700017
 10
188.2955367498228
 20
154.7913123179644
 10
185.8821441598662
 20
155.8733598164191
 97
        0
 75
     0
 76
     1
 98
        0
  0
HATCH
  5
107
330
E3
100
AcDbEntity
  8
0
  6
Continuous
 62
   253
370
    25
100
AcDbHatch
 10
0.0
 20
0.0
 30
0.0
210
0.0
220
0.0
230
1.0
  2
SOLID
 70
     1
 71
     0
 91
        1
 92
        3
 72
     0
 73
     1
 93
        4
 10
122.4505599815645
 20
111.0595448146782
 10
105.9655198089753
 20
98.94063355285218
 10
106.502740371482
 20
97.28585946356033
 10
122.9840531784511
 20
109.4502076695512
 97
        0
 75
     0
 76
     1
 98
        0
  0
HATCH
  5
108
330
E3
100
AcDbEntity
  8
0
  6
Continuous
 62
   253
370
    25
100
AcDbHatch
 10
0.0
 20
0.0
 30
0.0
210
0.0
220
0.0
230
1.0
  2
SOLID
 70
     1
 71
     0
 91
        1
 92
        3
 72
     0
 73
     1
 93
        4
 10
152.612270395056
 20
133.2328045292294
 10
154.059950621472
 20
132.3863769577783
 10
185.8821440669975
 20
155.8733591890835
 10
184.3463086665367
 20
156.561953666426
 97
        0
 75
     0
 76
     1
 98
        0
  0
HATCH
  5
109
330
E3
100
AcDbEntity
  8
0
  6
Continuous
 62
   255
370
    18
100
AcDbHatch
 10
0.0
 20
0.0
 30
0.0
210
0.0
220
0.0
230
1.0
  2
SOLID
 70
     1
 71
     0
 91
        1
 92
        3
 72
     0
 73
     1
 93
        4
 10
121.4563029420043
 20
111.8021970232824
 10
105.0158517421447
 20
99.75137078961473
 10
105.9655196552363
 20
98.94063472852737
 10
122.4505603100139
 20
111.0595449933722
 97
        0
 75
     0
 76
     1
 98
        0
  0
HATCH
  5
10A
330
E3
100
AcDbEntity
  8
0
  6
Continuous
 62
   255
370
    18
100
AcDbHatch
 10
0.0
 20
0.0
 30
0.0
210
0.0
220
0.0
230
1.0
  2
SOLID
 70
     1
 71
     0
 91
        1
 92
        3
 72
     0
 73
     1
 93
        4
 10
183.2132618732306
 20
157.0699566119687
 10
151.544731621633
 20
133.8569700897613
 10
152.6122696073473
 20
133.2328040154539
 10
184.3463080570821
 20
156.5619536332717
 97
        0
 75
     0
 76
     1
 98
        0
  0
HATCH
  5
10B
330
E3
100
AcDbEntity
  8
0
  6
Continuous
 62
   255
370
    18
100
AcDbHatch
 10
0.0
 20
0.0
 30
0.0
210
0.0
220
0.0
230
1.0
  2
SOLID
 70
     1
 71
     0
 91
        1
 92
        3
 72
     0
 73
     1
 93
        5
 10
102.3440748953266
 20
100.8578144090773
 10
104.6057724379684
 20
98.91519931495246
 10
105.0158517076835
 20
99.75137049659341
 10
120.6459088379809
 20
111.2081798684025
 10
118.629505089989
 20
112.7242452329364
 97
        0
 75
     0
 76
     1
 98
        0
  0
HATCH
  5
10C
330
E3
100
AcDbEntity
  8
0
  6
Continuous
 62
   255
370
    18
100
AcDbHatch
 10
0.0
 20
0.0
 30
0.0
210
0.0
220
0.0
230
1.0
  2
SOLID
 70
     1
 71
     0
 91
        1
 92
        3
 72
     0
 73
     1
 93
        4
 10
149.3738720944357
 20
135.1262254859105
 10
151.5447320961515
 20
133.8569708392189
 10
183.213261889386
 20
157.0699566741856
 10
180.9078788225935
 20
158.1035780114288
 97
        0
 75
     0
 76
     1
 98
        0
  0
HATCH
  5
10D
330
E3
100
AcDbEntity
  8
0
  6
Continuous
 62
   253
370
    25
100
AcDbHatch
 10
0.0
 20
0.0
 30
0.0
210
0.0
220
0.0
230
1.0
  2
SOLID
 70
     1
 71
     0
 91
        1
 92
        3
 72
     0
 73
     1
 93
        4
 10
118.107765601994
 20
114.303357737905
 10
101.8188454891213
 20
102.4806670511461
 10
102.3440744816483
 20
100.8578145093243
 10
118.6295051562376
 20
112.7242451061958
 97
        0
 75
     0
 76
     1
 98
        0
  0
HATCH
  5
10E
330
E3
100
AcDbEntity
  8
0
  6
Continuous
 62
   253
370
    25
100
AcDbHatch
 10
0.0
 20
0.0
 30
0.0
210
0.0
220
0.0
230
1.0
  2
SOLID
 70
     1
 71
     0
 91
        1
 92
        3
 72
     0
 73
     1
 93
        4
 10
147.9465889647663
 20
135.9607272229477
 10
149.3738718053545
 20
135.1262255732495
 10
180.9078760963849
 20
158.1035789970869
 10
179.3911890557187
 20
158.7835876209482
 97
        0
 75
     0
 76
     1
 98
        0
  0
HATCH
  5
10F
330
E3
100
AcDbEntity
  8
0
  6
Continuous
 62
   255
370
    18
100
AcDbHatch
 10
0.0
 20
0.0
 30
0.0
210
0.0
220
0.0
230
1.0
  2
SOLID
 70
     1
 71
     0
 91
        1
 92
        3
 72
     0
 73
     1
 93
        4
 10
100.9032125854312
 20
103.26234639217
 10
101.8188447970214
 20
102.4806677472512
 10
118.1077648161469
 20
114.3033574025585
 10
117.1483277894717
 20
115.02000015405
 97
        0
 75
     0
 76
     1
 98
        0
  0
HATCH
  5
110
330
E3
100
AcDbEntity
  8
0
  6
Continuous
 62
   255
370
    18
100
AcDbHatch
 10
0.0
 20
0.0
 30
0.0
210
0.0
220
0.0
230
1.0
  2
SOLID
 70
     1
 71
     0
 91
        1
 92
        3
 72
     0
 73
     1
 93
        3
 10
136.9367793286615
 20
129.0981758088168
 10
135.7905771150565
 20
128.2681778353773
 10
137.4143762545968
 20
128.7944858934606
 97
        0
 75
     0
 76
     1
 98
        0
  0
HATCH
  5
111
330
E3
100
AcDbEntity
  8
0
  6
Continuous
 62
   255
370
    18
100
AcDbHatch
 10
0.0
 20
0.0
 30
0.0
210
0.0
220
0.0
230
1.0
  2
SOLID
 70
     1
 71
     0
 91
        1
 92
        3
 72
     0
 73
     1
 93
        4
 10
146.9148352853774
 20
136.5639705339951
 10
147.9465899051306
 20
135.9607262782851
 10
179.3911864885509
 20
158.7835893103951
 10
178.2943316494018
 20
159.2753648493831
 97
        0
 75
     0
 76
     1
 98
        0
  0
HATCH
  5
112
330
E3
100
AcDbEntity
  8
0
  6
Continuous
 62
   255
370
    18
100
AcDbHatch
 10
0.0
 20
0.0
 30
0.0
210
0.0
220
0.0
230
1.0
  2
SOLID
 70
     1
 71
     0
 91
        1
 92
        3
 72
     0
 73
     1
 93
        6
 10
114.6475907082814
 20
116.0434231418678
 10
98.3335160166423
 20
104.3025586030323
 10
100.5149935571924
 20
102.428846941435
 10
100.9032125841584
 20
103.2623464162126
 10
116.3472418018512
 20
114.4402021558459
 10
114.6598954335492
 20
115.7088613912633
 97
        0
 75
     0
 76
     1
 98
        0
  0
HATCH
  5
113
330
E3
100
AcDbEntity
  8
0
  6
Continuous
 62
   255
370
    18
100
AcDbHatch
 10
0.0
 20
0.0
 30
0.0
210
0.0
220
0.0
230
1.0
  2
SOLID
 70
     1
 71
     0
 91
        1
 92
        3
 72
     0
 73
     1
 93
        4
 10
176.091344164666
 20
160.2630776927707
 10
144.8437392024445
 20
137.7748964985992
 10
146.9148364346686
 20
136.5639706957494
 10
178.2943320378644
 20
159.2753658259616
 97
        0
 75
     0
 76
     1
 98
        0
  0
HATCH
  5
114
330
E3
100
AcDbEntity
  8
0
  6
Continuous
 62
   253
370
    25
100
AcDbHatch
 10
0.0
 20
0.0
 30
0.0
210
0.0
220
0.0
230
1.0
  2
SOLID
 70
     1
 71
     0
 91
        1
 92
        3
 72
     0
 73
     1
 93
        4
 10
97.81977147991412
 20
105.8946941889765
 10
98.33351556946211
 20
104.3025594119095
 10
114.6475916524315
 20
116.0434236482095
 10
114.5789573007449
 20
117.9095744787417
 97
        0
 75
     0
 76
     1
 98
        0
  0
HATCH
  5
115
330
E3
100
AcDbEntity
  8
0
  6
Continuous
 62
   253
370
    25
100
AcDbHatch
 10
0.0
 20
0.0
 30
0.0
210
0.0
220
0.0
230
1.0
  2
SOLID
 70
     1
 71
     0
 91
        1
 92
        3
 72
     0
 73
     1
 93
        4
 10
174.5933692983823
 20
160.9346972442509
 10
143.436309306478
 20
138.5977905975483
 10
144.843740395923
 20
137.7748956754471
 10
176.0913444070603
 20
160.2630775838178
 97
        0
 75
     0
 76
     1
 98
        0
  0
HATCH
  5
116
330
E3
100
AcDbEntity
  8
0
  6
Continuous
 62
   255
370
    18
100
AcDbHatch
 10
0.0
 20
0.0
 30
0.0
210
0.0
220
0.0
230
1.0
  2
SOLID
 70
     1
 71
     0
 91
        1
 92
        3
 72
     0
 73
     1
 93
        4
 10
114.5304699329408
 20
119.2279424857175
 10
96.93637631335176
 20
106.6488526467612
 10
97.81977135858014
 20
105.894693831206
 10
114.5789569519728
 20
117.9095748721983
 97
        0
 75
     0
 76
     1
 98
        0
  0
HATCH
  5
117
330
E3
100
AcDbEntity
  8
0
  6
Continuous
 62
   255
370
    18
100
AcDbHatch
 10
0.0
 20
0.0
 30
0.0
210
0.0
220
0.0
230
1.0
  2
SOLID
 70
     1
 71
     0
 91
        1
 92
        3
 72
     0
 73
     1
 93
        4
 10
142.4385721315739
 20
139.1811463789769
 10
143.4363093365974
 20
138.5977897157132
 10
174.5933692924513
 20
160.934696282072
 10
173.5309943005231
 20
161.4110137515106
 97
        0
 75
     0
 76
     1
 98
        0
  0
HATCH
  5
118
330
E3
100
AcDbEntity
  8
0
  6
Continuous
 62
   255
370
    18
100
AcDbHatch
 10
0.0
 20
0.0
 30
0.0
210
0.0
220
0.0
230
1.0
  2
SOLID
 70
     1
 71
     0
 91
        1
 92
        3
 72
     0
 73
     1
 93
        5
 10
94.46328905712592
 20
107.6267697166119
 10
96.56874028725558
 20
105.8183584628795
 10
96.93637575577641
 20
106.6488516649071
 10
114.5304706529814
 20
119.2279426189007
 10
114.4348183443586
 20
121.8287346046315
 97
        0
 75
     0
 76
     1
 98
        0
  0
HATCH
  5
119
330
E3
100
AcDbEntity
  8
0
  6
Continuous
 62
   255
370
    18
100
AcDbHatch
 10
0.0
 20
0.0
 30
0.0
210
0.0
220
0.0
230
1.0
  2
SOLID
 70
     1
 71
     0
 91
        1
 92
        3
 72
     0
 73
     1
 93
        4
 10
171.4251577826165
 20
162.3551679908413
 10
140.4618969402335
 20
140.3368654549575
 10
142.4385718978971
 20
139.1811461562003
 10
173.5309942847166
 20
161.411013666527
 97
        0
 75
     0
 76
     1
 98
        0
  0
HATCH
  5
11A
330
E3
100
AcDbEntity
  8
0
  6
Continuous
 62
   253
370
    25
100
AcDbHatch
 10
0.0
 20
0.0
 30
0.0
210
0.0
220
0.0
230
1.0
  2
SOLID
 70
     1
 71
     0
 91
        1
 92
        3
 72
     0
 73
     1
 93
        4
 10
93.96055486577711
 20
109.1893233250248
 10
94.46328961981368
 20
107.626769359776
 10
114.4348177953505
 20
121.8287344085377
 10
114.3679703384971
 20
123.6463501315901
 97
        0
 75
     0
 76
     1
 98
        0
  0
HATCH
  5
11B
330
E3
100
AcDbEntity
  8
0
  6
Continuous
 62
   253
370
    25
100
AcDbHatch
 10
0.0
 20
0.0
 30
0.0
210
0.0
220
0.0
230
1.0
  2
SOLID
 70
     1
 71
     0
 91
        1
 92
        3
 72
     0
 73
     1
 93
        4
 10
169.945477643312
 20
163.0185845389309
 10
139.0737946805902
 20
141.148458613041
 10
140.4618972263459
 20
140.3368653142924
 10
171.4251576612141
 20
162.3551681727403
 97
        0
 75
     0
 76
     1
 98
        0
  0
HATCH
  5
11C
330
E3
100
AcDbEntity
  8
0
  6
Continuous
 62
   255
370
    18
100
AcDbHatch
 10
0.0
 20
0.0
 30
0.0
210
0.0
220
0.0
230
1.0
  2
SOLID
 70
     1
 71
     0
 91
        1
 92
        3
 72
     0
 73
     1
 93
        4
 10
114.3216345424803
 20
124.9062015483859
 10
93.10772438273449
 20
109.9173884790113
 10
93.96055511012003
 20
109.1893231516829
 10
114.3679704482041
 20
123.6463490072136
 97
        0
 75
     0
 76
     1
 98
        0
  0
HATCH
  5
11D
330
E3
100
AcDbEntity
  8
0
  6
Continuous
 62
   255
370
    18
100
AcDbHatch
 10
0.0
 20
0.0
 30
0.0
210
0.0
220
0.0
230
1.0
  2
SOLID
 70
     1
 71
     0
 91
        1
 92
        3
 72
     0
 73
     1
 93
        4
 10
168.9159843123959
 20
163.4801589421849
 10
138.1084177432103
 20
141.7128937152725
 10
139.0737947205409
 20
141.1484587459663
 10
169.9454774786297
 20
163.0185848975991
 97
        0
 75
     0
 76
     1
 98
        0
  0
HATCH
  5
11E
330
E3
100
AcDbEntity
  8
0
  6
Continuous
 62
   255
370
    18
100
AcDbHatch
 10
0.0
 20
0.0
 30
0.0
210
0.0
220
0.0
230
1.0
  2
SOLID
 70
     1
 71
     0
 91
        1
 92
        3
 72
     0
 73
     1
 93
        5
 10
90.72615668000293
 20
110.8366619404566
 10
92.75948623673472
 20
109.0901978261108
 10
93.10772439267815
 20
109.917387823072
 10
114.3216353847212
 20
124.9062018537689
 10
114.2314201173126
 20
127.3591355171004
 97
        0
 75
     0
 76
     1
 98
        0
  0
HATCH
  5
11F
330
E3
100
AcDbEntity
  8
0
  6
Continuous
 62
   255
370
    18
100
AcDbHatch
 10
0.0
 20
0.0
 30
0.0
210
0.0
220
0.0
230
1.0
  2
SOLID
 70
     1
 71
     0
 91
        1
 92
        3
 72
     0
 73
     1
 93
        5
 10
166.9023881907822
 20
164.3829581225787
 10
132.1338855191424
 20
139.9432565267464
 10
138.0881479287686
 20
141.724745323432
 10
138.1084175272073
 20
141.7128937194015
 10
168.9159841044286
 20
163.4801588067073
 97
        0
 75
     0
 76
     1
 98
        0
  0
HATCH
  5
120
330
E3
100
AcDbEntity
  8
0
  6
Continuous
 62
   253
370
    25
100
AcDbHatch
 10
0.0
 20
0.0
 30
0.0
210
0.0
220
0.0
230
1.0
  2
SOLID
 70
     1
 71
     0
 91
        1
 92
        3
 72
     0
 73
     1
 93
        4
 10
114.1662680167258
 20
129.1306350112685
 10
90.23398500111773
 20
112.3707127720296
 10
90.72615673579213
 20
110.8366626780567
 10
114.2314207587077
 20
127.3591371092286
 97
        0
 75
     0
 76
     1
 98
        0
  0
HATCH
  5
121
330
E3
100
AcDbEntity
  8
0
  6
Continuous
 62
   253
370
    25
100
AcDbHatch
 10
0.0
 20
0.0
 30
0.0
210
0.0
220
0.0
230
1.0
  2
SOLID
 70
     1
 71
     0
 91
        1
 92
        3
 72
     0
 73
     1
 93
        4
 10
127.7206145721544
 20
138.6228259477759
 10
132.1338871361819
 20
139.9432562990438
 10
166.9023875877161
 20
164.3829581778835
 10
165.4405939855653
 20
165.0383550735316
 97
        0
 75
     0
 76
     1
 98
        0
  0
HATCH
  5
122
330
E3
100
AcDbEntity
  8
0
  6
Continuous
 62
   255
370
    18
100
AcDbHatch
 10
0.0
 20
0.0
 30
0.0
210
0.0
220
0.0
230
1.0
  2
SOLID
 70
     1
 71
     0
 91
        1
 92
        3
 72
     0
 73
     1
 93
        4
 10
114.1219451499568
 20
130.3357817878133
 10
89.41015994616406
 20
113.0740144903182
 10
90.23398498776785
 20
112.3707119066853
 10
114.1662681392475
 20
129.1306353811596
 97
        0
 75
     0
 76
     1
 98
        0
  0
HATCH
  5
123
330
E3
100
AcDbEntity
  8
0
  6
Continuous
 62
   255
370
    18
100
AcDbHatch
 10
0.0
 20
0.0
 30
0.0
210
0.0
220
0.0
230
1.0
  2
SOLID
 70
     1
 71
     0
 91
        1
 92
        3
 72
     0
 73
     1
 93
        4
 10
164.442478856307
 20
165.4858620898852
 10
124.6856456897926
 20
137.714775508266
 10
127.720618253345
 20
138.6228257855388
 10
165.440593556581
 20
165.0383553378058
 97
        0
 75
     0
 76
     1
 98
        0
  0
HATCH
  5
124
330
E3
100
AcDbEntity
  8
0
  6
Continuous
 62
   255
370
    18
100
AcDbHatch
 10
0.0
 20
0.0
 30
0.0
210
0.0
220
0.0
230
1.0
  2
SOLID
 70
     1
 71
     0
 91
        1
 92
        3
 72
     0
 73
     1
 93
        5
 10
87.1153679471476
 20
113.9380372217108
 10
89.08022032778511
 20
112.2503886511442
 10
89.41015984292474
 20
113.0740148859949
 10
114.1219450815668
 20
130.3357810826799
 10
114.0367915574056
 20
132.6511144038129
 97
        0
 75
     0
 76
     1
 98
        0
  0
HATCH
  5
125
330
E3
100
AcDbEntity
  8
0
  6
Continuous
 62
   255
370
    18
100
AcDbHatch
 10
0.0
 20
0.0
 30
0.0
210
0.0
220
0.0
230
1.0
  2
SOLID
 70
     1
 71
     0
 91
        1
 92
        3
 72
     0
 73
     1
 93
        4
 10
162.5165211610355
 20
166.3493670622825
 10
118.7792797413588
 20
135.9476173704534
 10
124.6856464456471
 20
137.7147768242452
 10
164.4424788418982
 20
165.4858609412162
 97
        0
 75
     0
 76
     1
 98
        0
  0
HATCH
  5
126
330
E3
100
AcDbEntity
  8
0
  6
Continuous
 62
   253
370
    25
100
AcDbHatch
 10
0.0
 20
0.0
 30
0.0
210
0.0
220
0.0
230
1.0
  2
SOLID
 70
     1
 71
     0
 91
        1
 92
        3
 72
     0
 73
     1
 93
        4
 10
113.9732526989574
 20
134.3787381591886
 10
86.63333854588717
 20
115.444597825656
 10
87.11536763823565
 20
113.9380369814597
 10
114.0367917256275
 20
132.6511136975369
 97
        0
 75
     0
 76
     1
 98
        0
  0
HATCH
  5
127
330
E3
100
AcDbEntity
  8
0
  6
Continuous
 62
   253
370
    25
100
AcDbHatch
 10
0.0
 20
0.0
 30
0.0
210
0.0
220
0.0
230
1.0
  2
SOLID
 70
     1
 71
     0
 91
        1
 92
        3
 72
     0
 73
     1
 93
        4
 10
161.0722177061064
 20
166.996922435612
 10
114.30613039408
 20
134.60927066562
 10
118.7792814900499
 20
135.94761795229
 10
162.5165217925721
 20
166.3493664444674
 97
        0
 75
     0
 76
     1
 98
        0
  0
HATCH
  5
128
330
E3
100
AcDbEntity
  8
0
  6
Continuous
 62
   255
370
    18
100
AcDbHatch
 10
0.0
 20
0.0
 30
0.0
210
0.0
220
0.0
230
1.0
  2
SOLID
 70
     1
 71
     0
 91
        1
 92
        3
 72
     0
 73
     1
 93
        7
 10
85.83706394831378
 20
116.1243811525971
 10
86.63333875839731
 20
115.4445979143322
 10
113.9732522467898
 20
134.3787368036851
 10
113.9684898470258
 20
134.5082498616761
 10
114.3061325551585
 20
134.6092714819071
 10
161.07221773546
 20
166.9969228848413
 10
160.104067155548
 20
167.4309940983667
 97
        0
 75
     0
 76
     1
 98
        0
  0
HATCH
  5
129
330
E3
100
AcDbEntity
  8
0
  6
Continuous
 62
   255
370
    18
100
AcDbHatch
 10
0.0
 20
0.0
 30
0.0
210
0.0
220
0.0
230
1.0
  2
SOLID
 70
     1
 71
     0
 91
        1
 92
        3
 72
     0
 73
     1
 93
        5
 10
83.62462342671506
 20
116.9363033904306
 10
85.52439949135548
 20
115.3045497769453
 10
85.83706367025731
 20
116.1243805424957
 10
160.1040673919687
 20
167.4309944775539
 10
158.2614359754035
 20
168.2571399529338
 97
        0
 75
     0
 76
     1
 98
        0
  0
HATCH
  5
12A
330
E3
100
AcDbEntity
  8
0
  6
Continuous
 62
   253
370
    25
100
AcDbHatch
 10
0.0
 20
0.0
 30
0.0
210
0.0
220
0.0
230
1.0
  2
SOLID
 70
     1
 71
     0
 91
        1
 92
        3
 72
     0
 73
     1
 93
        4
 10
156.8342367374455
 20
168.8970266133387
 10
83.1523389835482
 20
118.4163419461055
 10
83.6246237148495
 20
116.9363036548393
 10
158.2614358247479
 20
168.2571407307298
 97
        0
 75
     0
 76
     1
 98
        0
  0
HATCH
  5
12B
330
E3
100
AcDbEntity
  8
0
  6
Continuous
 62
   255
370
    18
100
AcDbHatch
 10
0.0
 20
0.0
 30
0.0
210
0.0
220
0.0
230
1.0
  2
SOLID
 70
     1
 71
     0
 91
        1
 92
        3
 72
     0
 73
     1
 93
        4
 10
155.8947228078776
 20
169.318259448161
 10
82.38225558258137
 20
119.0737659597032
 10
83.15233980720141
 20
118.4163424330291
 10
156.8342368558304
 20
168.8970274344502
 97
        0
 75
     0
 76
     1
 98
        0
  0
HATCH
  5
12C
330
E3
100
AcDbEntity
  8
0
  6
Continuous
 62
   255
370
    18
100
AcDbHatch
 10
0.0
 20
0.0
 30
0.0
210
0.0
220
0.0
230
1.0
  2
SOLID
 70
     1
 71
     0
 91
        1
 92
        3
 72
     0
 73
     1
 93
        5
 10
80.24803359976701
 20
119.8365196264354
 10
82.08591467727187
 20
118.2579295123554
 10
82.3822552585045
 20
119.0737650723552
 10
155.8947231317601
 20
169.3182591061825
 10
154.1313685079901
 20
170.1088617437464
 97
        0
 75
     0
 76
     1
 98
        0
  0
HATCH
  5
12D
330
E3
100
AcDbEntity
  8
0
  6
Continuous
 62
   253
370
    25
100
AcDbHatch
 10
0.0
 20
0.0
 30
0.0
210
0.0
220
0.0
230
1.0
  2
SOLID
 70
     1
 71
     0
 91
        1
 92
        3
 72
     0
 73
     1
 93
        4
 10
152.7209005642777
 20
170.7412462097159
 10
79.785120108656
 20
121.2909505390638
 10
80.24803376437818
 20
119.8365198142904
 10
154.1313686168003
 20
170.108860845078
 97
        0
 75
     0
 76
     1
 98
        0
  0
HATCH
  5
12E
330
E3
100
AcDbEntity
  8
0
  6
Continuous
 62
   255
370
    18
100
AcDbHatch
 10
0.0
 20
0.0
 30
0.0
210
0.0
220
0.0
230
1.0
  2
SOLID
 70
     1
 71
     0
 91
        1
 92
        3
 72
     0
 73
     1
 93
        4
 10
151.8087700111712
 20
171.1502016537896
 10
79.03995661103542
 20
121.9270996977956
 10
79.78512020971559
 20
121.2909509302942
 10
152.7208995223898
 20
170.7412469925113
 97
        0
 75
     0
 76
     1
 98
        0
  0
HATCH
  5
12F
330
E3
100
AcDbEntity
  8
0
  6
Continuous
 62
   255
370
    18
100
AcDbHatch
 10
0.0
 20
0.0
 30
0.0
210
0.0
220
0.0
230
1.0
  2
SOLID
 70
     1
 71
     0
 91
        1
 92
        3
 72
     0
 73
     1
 93
        5
 10
76.98008948015921
 20
122.6434190636625
 10
78.75905133846547
 20
121.1154349222721
 10
79.03995660240594
 20
121.9271003265379
 10
151.8087693520578
 20
171.1502024828783
 10
150.1208880358959
 20
171.9069657798268
 97
        0
 75
     0
 76
     1
 98
        0
  0
HATCH
  5
130
330
E3
100
AcDbEntity
  8
0
  6
Continuous
 62
   253
370
    25
100
AcDbHatch
 10
0.0
 20
0.0
 30
0.0
210
0.0
220
0.0
230
1.0
  2
SOLID
 70
     1
 71
     0
 91
        1
 92
        3
 72
     0
 73
     1
 93
        4
 10
148.7267855618815
 20
172.5320135270346
 10
76.52619303722336
 20
124.0731101987168
 10
76.98008883838004
 20
122.6434185900022
 10
150.1208876707848
 20
171.9069661510909
 97
        0
 75
     0
 76
     1
 98
        0
  0
HATCH
  5
131
330
E3
100
AcDbEntity
  8
0
  6
Continuous
 62
   255
370
    18
100
AcDbHatch
 10
0.0
 20
0.0
 30
0.0
210
0.0
220
0.0
230
1.0
  2
SOLID
 70
     1
 71
     0
 91
        1
 92
        3
 72
     0
 73
     1
 93
        4
 10
75.80475911438482
 20
124.6890013930811
 10
76.52619263739689
 20
124.0731105643262
 10
148.7267861132082
 20
172.532013565857
 10
147.8408572886689
 20
172.9292213316825
 97
        0
 75
     0
 76
     1
 98
        0
  0
HATCH
  5
132
330
E3
100
AcDbEntity
  8
0
  6
Continuous
 62
   255
370
     0
100
AcDbHatch
 10
0.0
 20
0.0
 30
0.0
210
0.0
220
0.0
230
1.0
  2
SOLID
 70
     1
 71
     0
 91
        1
 92
        3
 72
     0
 73
     1
 93
        6
 10
207.0305012660715
 20
146.8249942786959
 10
207.1423939060499
 20
146.3412982459851
 10
207.2489781236611
 20
146.4244416494588
 10
207.1651704499213
 20
146.7871220326912
 10
212.4607049984005
 20
150.9142473642807
 10
212.472395819638
 20
151.064892608802
 97
        0
 75
     0
 76
     1
 98
        0
  0
HATCH
  5
133
330
E3
100
AcDbEntity
  8
0
  6
Continuous
100
AcDbHatch
 10
0.0
 20
0.0
 30
0.0
210
0.0
220
0.0
230
1.0
  2
Steel_0002
 70
     0
 71
     0
 91
        1
 92
        3
 72
     0
 73
     1
 93
        6
 10
207.0305012660715
 20
146.8249942786959
 10
207.1423939060499
 20
146.3412982459851
 10
207.2489781236611
 20
146.4244416494588
 10
207.1651704499213
 20
146.7871220326912
 10
212.4607049984005
 20
150.9142473642807
 10
212.472395819638
 20
151.064892608802
 97
        0
 75
     0
 76
     2
 52
0.0
 41
1.0
 77
     0
 78
     2
 53
58.67145497328496
 43
145.2277640610102
 44
160.7933108349203
 45
-1.442371747040787
 46
1.85393561672373
 79
     0
 53
58.67145497328496
 43
144.7469734786633
 44
161.4112893738282
 45
-1.442371747040787
 46
1.85393561672373
 79
     0
 98
        0
  0
HATCH
  5
134
330
E3
100
AcDbEntity
  8
0
  6
Continuous
 62
   255
370
     0
100
AcDbHatch
 10
0.0
 20
0.0
 30
0.0
210
0.0
220
0.0
230
1.0
  2
SOLID
 70
     1
 71
     0
 91
        1
 92
        3
 72
     0
 73
     1
 93
        4
 10
144.4870860523607
 20
96.10301794779424
 10
145.1950259878182
 20
94.3116116308086
 10
148.194652060895
 20
96.66831894936536
 10
147.501777163576
 20
98.46089025079056
 97
        0
 75
     0
 76
     1
 98
        0
  0
HATCH
  5
135
330
E3
100
AcDbEntity
  8
0
  6
Continuous
 62
   255
370
     0
100
AcDbHatch
 10
0.0
 20
0.0
 30
0.0
210
0.0
220
0.0
230
1.0
  2
SOLID
 70
     1
 71
     0
 91
        1
 92
        3
 72
     0
 73
     1
 93
        4
 10
181.2650371397165
 20
124.8680485570164
 10
181.7965493281076
 20
123.0682215221726
 10
184.4745400671241
 20
125.1722311653874
 10
183.9553034300962
 20
126.9721791430567
 97
        0
 75
     0
 76
     1
 98
        0
  0
HATCH
  5
136
330
E3
100
AcDbEntity
  8
0
  6
Continuous
 62
   255
370
     0
100
AcDbHatch
 10
0.0
 20
0.0
 30
0.0
210
0.0
220
0.0
230
1.0
  2
SOLID
 70
     1
 71
     0
 91
        1
 92
        3
 72
     0
 73
     1
 93
       56
 10
74.27336296395204
 20
124.9682763460889
 10
74.27709978724707
 20
124.9240198895265
 10
125.2954844577555
 20
81.09274843320512
 10
125.2941630744621
 20
81.1455528255368
 10
124.7956282706875
 20
81.57375400037947
 10
124.2046772270746
 20
83.36978912085992
 10
123.0979654986299
 20
84.31459414168069
 10
122.5854953471086
 20
83.47207772091915
 10
119.9542228183237
 20
85.73212669670808
 10
119.3776496109941
 20
87.49064304690091
 10
118.3136631158939
 20
88.3989739353196
 10
117.8292795821072
 20
87.5572801478857
 10
115.2984633554892
 20
89.73104766047273
 10
114.7356088133754
 20
91.4535734224376
 10
113.7119199469846
 20
92.32750120727532
 10
113.2538766457628
 20
91.48718050282632
 10
110.8178685300077
 20
93.57951339829603
 10
110.2681190994171
 20
95.26748627963231
 10
109.2824827266004
 20
96.10892917150419
 10
108.8491663234507
 20
95.27046889566209
 10
106.5027400879725
 20
97.28585972515397
 10
105.9655194694021
 20
98.94063456189656
 10
105.0158508761259
 20
99.7513701178451
 10
104.6057734843366
 20
98.91519983422367
 10
102.3440746801549
 20
100.8578142243569
 10
101.8188453488702
 20
102.4806683030035
 10
100.9032133995965
 20
103.2623478720005
 10
100.5149935729972
 20
102.4288469651012
 10
98.33351672404969
 20
104.3025593515852
 10
97.81977232718914
 20
105.894693929675
 10
96.93637589589844
 20
106.6488517760969
 10
96.56874014943949
 20
105.8183585747836
 10
94.46328845723409
 20
107.6267696890782
 10
93.96055533438819
 20
109.189323680405
 10
93.10772406486902
 20
109.9173891486657
 10
92.75948710709226
 20
109.0901978850065
 10
90.72615648462588
 20
110.8366628850367
 10
90.23398530465171
 20
112.3707113390694
 10
89.41015984297162
 20
113.0740141756475
 10
89.08022001427285
 20
112.2503886701275
 10
87.11536791415861
 20
113.9380369078123
 10
86.63333823691744
 20
115.4445986125906
 10
85.83706414910621
 20
116.1243811306631
 10
85.52439962028738
 20
115.3045494701567
 10
83.62462298635668
 20
116.936303498649
 10
83.1523387009763
 20
118.4163425013627
 10
82.38225582897195
 20
119.0737656631211
 10
82.0859147174765
 20
118.2579293243676
 10
80.24803325840828
 20
119.8365201038455
 10
79.7851203024144
 20
121.2909510328617
 10
79.0399566817464
 20
121.9270997715394
 10
78.75905096934268
 20
121.1154343814322
 10
76.98008891171338
 20
122.6434187657597
 10
76.52619299016082
 20
124.0731106320704
 10
75.80475876763352
 20
124.6890014548384
 10
75.53846125925642
 20
123.8816598315834
 97
        0
 75
     0
 76
     1
 98
        0
  0
HATCH
  5
137
330
E3
100
AcDbEntity
  8
0
  6
Continuous
100
AcDbHatch
 10
0.0
 20
0.0
 30
0.0
210
0.0
220
0.0
230
1.0
  2
Steel_0002
 70
     0
 71
     0
 91
        1
 92
        3
 72
     0
 73
     1
 93
       56
 10
74.27336296395204
 20
124.9682763460889
 10
74.27709978724707
 20
124.9240198895265
 10
125.2954844577555
 20
81.09274843320512
 10
125.2941630744621
 20
81.1455528255368
 10
124.7956282706875
 20
81.57375400037947
 10
124.2046772270746
 20
83.36978912085992
 10
123.0979654986299
 20
84.31459414168069
 10
122.5854953471086
 20
83.47207772091915
 10
119.9542228183237
 20
85.73212669670808
 10
119.3776496109941
 20
87.49064304690091
 10
118.3136631158939
 20
88.3989739353196
 10
117.8292795821072
 20
87.5572801478857
 10
115.2984633554892
 20
89.73104766047273
 10
114.7356088133754
 20
91.4535734224376
 10
113.7119199469846
 20
92.32750120727532
 10
113.2538766457628
 20
91.48718050282632
 10
110.8178685300077
 20
93.57951339829603
 10
110.2681190994171
 20
95.26748627963231
 10
109.2824827266004
 20
96.10892917150419
 10
108.8491663234507
 20
95.27046889566209
 10
106.5027400879725
 20
97.28585972515397
 10
105.9655194694021
 20
98.94063456189656
 10
105.0158508761259
 20
99.7513701178451
 10
104.6057734843366
 20
98.91519983422367
 10
102.3440746801549
 20
100.8578142243569
 10
101.8188453488702
 20
102.4806683030035
 10
100.9032133995965
 20
103.2623478720005
 10
100.5149935729972
 20
102.4288469651012
 10
98.33351672404969
 20
104.3025593515852
 10
97.81977232718914
 20
105.894693929675
 10
96.93637589589844
 20
106.6488517760969
 10
96.56874014943949
 20
105.8183585747836
 10
94.46328845723409
 20
107.6267696890782
 10
93.96055533438819
 20
109.189323680405
 10
93.10772406486902
 20
109.9173891486657
 10
92.75948710709226
 20
109.0901978850065
 10
90.72615648462588
 20
110.8366628850367
 10
90.23398530465171
 20
112.3707113390694
 10
89.41015984297162
 20
113.0740141756475
 10
89.08022001427285
 20
112.2503886701275
 10
87.11536791415861
 20
113.9380369078123
 10
86.63333823691744
 20
115.4445986125906
 10
85.83706414910621
 20
116.1243811306631
 10
85.52439962028738
 20
115.3045494701567
 10
83.62462298635668
 20
116.936303498649
 10
83.1523387009763
 20
118.4163425013627
 10
82.38225582897195
 20
119.0737656631211
 10
82.0859147174765
 20
118.2579293243676
 10
80.24803325840828
 20
119.8365201038455
 10
79.7851203024144
 20
121.2909510328617
 10
79.0399566817464
 20
121.9270997715394
 10
78.75905096934268
 20
121.1154343814322
 10
76.98008891171338
 20
122.6434187657597
 10
76.52619299016082
 20
124.0731106320704
 10
75.80475876763352
 20
124.6890014548384
 10
75.53846125925642
 20
123.8816598315834
 97
        0
 75
     0
 76
     2
 52
0.0
 41
1.0
 77
     0
 78
     2
 53
52.43878612773376
 43
145.2277640610102
 44
160.7933108349203
 45
-1.249710418787275
 46
3.010390804471541
 79
     0
 53
52.43878612773376
 43
144.8111939214145
 44
161.7967744364108
 45
-1.249710418787275
 46
3.010390804471541
 79
     0
 98
        0
  0
HATCH
  5
138
330
E3
100
AcDbEntity
  8
0
  6
Continuous
 62
   255
370
     0
100
AcDbHatch
 10
0.0
 20
0.0
 30
0.0
210
0.0
220
0.0
230
1.0
  2
SOLID
 70
     1
 71
     0
 91
        1
 92
        3
 72
     0
 73
     1
 93
        4
 10
212.3158025979504
 20
149.2006640235537
 10
125.2941633846039
 20
81.14555364595095
 10
125.2954848808304
 20
81.09274696798794
 10
212.324610843652
 20
149.160582096301
 97
        0
 75
     0
 76
     1
 98
        0
  0
HATCH
  5
139
330
E3
100
AcDbEntity
  8
0
  6
Continuous
100
AcDbHatch
 10
0.0
 20
0.0
 30
0.0
210
0.0
220
0.0
230
1.0
  2
Steel_0002
 70
     0
 71
     0
 91
        1
 92
        3
 72
     0
 73
     1
 93
        4
 10
212.3158025979504
 20
149.2006640235537
 10
125.2941633846039
 20
81.14555364595095
 10
125.2954848808304
 20
81.09274696798794
 10
212.324610843652
 20
149.160582096301
 97
        0
 75
     0
 76
     2
 52
0.0
 41
1.0
 77
     0
 78
     2
 53
58.69251973515013
 43
145.2277640610102
 44
160.7933108349203
 45
-1.394111186840707
 46
1.846374658783892
 79
     0
 53
58.69251973515013
 43
144.7630603320633
 44
161.4087690545149
 45
-1.394111186840707
 46
1.846374658783892
 79
     0
 98
        0
  0
HATCH
  5
13A
330
E3
100
AcDbEntity
  8
0
  6
Continuous
 62
   254
370
    13
100
AcDbHatch
 10
0.0
 20
0.0
 30
0.0
210
0.0
220
0.0
230
1.0
  2
SOLID
 70
     1
 71
     0
 91
        1
 92
        3
 72
     0
 73
     1
 93
        4
 10
155.36692211201
 20
176.5496755863418
 10
150.5949690573072
 20
177.4952107741855
 10
212.4723957411984
 20
151.0648928859027
 10
217.4051790090401
 20
150.2943008373159
 97
        0
 75
     0
 76
     1
 98
        0
  0
HATCH
  5
13B
330
E3
100
AcDbEntity
  8
0
  6
Continuous
 62
   254
370
    13
100
AcDbHatch
 10
0.0
 20
0.0
 30
0.0
210
0.0
220
0.0
230
1.0
  2
SOLID
 70
     1
 71
     0
 91
        1
 92
        3
 72
     0
 73
     1
 93
        3
 10
215.450843505362
 20
150.4484817416745
 10
217.123711033133
 20
149.7371758336221
 10
217.2639334773534
 20
150.1660618169309
 97
        0
 75
     0
 76
     1
 98
        0
  0
HATCH
  5
13C
330
E3
100
AcDbEntity
  8
0
  6
Continuous
 62
   254
370
    13
100
AcDbHatch
 10
0.0
 20
0.0
 30
0.0
210
0.0
220
0.0
230
1.0
  2
SOLID
 70
     1
 71
     0
 91
        1
 92
        3
 72
     0
 73
     1
 93
        7
 10
212.1440216050545
 20
150.6674371712953
 10
211.3321097897425
 20
150.0346659599781
 10
211.7281772752182
 20
149.4550477983349
 10
212.3158028969457
 20
149.2006623789766
 10
212.3246106281742
 20
149.160582340777
 10
212.6213024490528
 20
150.0741844920865
 10
212.545435061728
 20
150.4953332216755
 97
        0
 75
     0
 76
     1
 98
        0
  0
HATCH
  5
13D
330
E3
100
AcDbEntity
  8
0
  6
Continuous
 62
   253
370
    25
100
AcDbHatch
 10
0.0
 20
0.0
 30
0.0
210
0.0
220
0.0
230
1.0
  2
SOLID
 70
     1
 71
     0
 91
        1
 92
        3
 72
     0
 73
     1
 93
        8
 10
212.5454350367334
 20
150.4953330694019
 10
212.6213024061476
 20
150.0741842785973
 10
230.6855506909208
 20
147.3039498704418
 10
230.5324495398688
 20
147.7151434494198
 10
217.2339473183222
 20
149.770646142443
 10
217.2182301988877
 20
149.7225805989482
 10
217.1237109647348
 20
149.7371759358452
 10
216.9370790578588
 20
149.816531913797
 97
        0
 75
     0
 76
     1
 98
        0
  0
HATCH
  5
13E
330
E3
100
AcDbEntity
  8
0
  6
Continuous
 62
   254
370
    13
100
AcDbHatch
 10
0.0
 20
0.0
 30
0.0
210
0.0
220
0.0
230
1.0
  2
SOLID
 70
     1
 71
     0
 91
        1
 92
        3
 72
     0
 73
     1
 93
        5
 10
212.1440215349712
 20
150.667436937951
 10
212.5454348633139
 20
150.4953328603199
 10
216.9370791052236
 20
149.8165320803706
 10
215.6222013325937
 20
150.3756201622793
 10
212.4108588106476
 20
150.8753989545201
 97
        0
 75
     0
 76
     1
 98
        0
  0
HATCH
  5
13F
330
E3
100
AcDbEntity
  8
0
  6
Continuous
 62
   254
370
    13
100
AcDbHatch
 10
0.0
 20
0.0
 30
0.0
210
0.0
220
0.0
230
1.0
  2
SOLID
 70
     1
 71
     0
 91
        1
 92
        3
 72
     0
 73
     1
 93
        4
 10
217.2339475143642
 20
149.7706459530139
 10
230.5324496175151
 20
147.7151432544
 10
229.2205056613069
 20
148.259325236249
 10
217.3441405850467
 20
150.1076356101148
 97
        0
 75
     0
 76
     1
 98
        0
  0
HATCH
  5
140
330
E3
100
AcDbEntity
  8
0
  6
Continuous
 62
   253
370
    25
100
AcDbHatch
 10
0.0
 20
0.0
 30
0.0
210
0.0
220
0.0
230
1.0
  2
SOLID
 70
     1
 71
     0
 91
        1
 92
        3
 72
     0
 73
     1
 93
        5
 10
213.7065374387249
 20
151.8596130223435
 10
217.4051789352817
 20
150.2943013463309
 10
217.3441405617378
 20
150.1076357694508
 10
225.2465606034507
 20
148.8777874396802
 10
224.7954315194615
 20
150.0948042929749
 97
        0
 75
     0
 76
     1
 98
        0
  0
HATCH
  5
141
330
E3
100
AcDbEntity
  8
0
  6
Continuous
 62
   253
370
    25
100
AcDbHatch
 10
0.0
 20
0.0
 30
0.0
210
0.0
220
0.0
230
1.0
  2
SOLID
 70
     1
 71
     0
 91
        1
 92
        3
 72
     0
 73
     1
 93
        5
 10
212.4607049664312
 20
150.9142472524316
 10
212.410858493361
 20
150.8753992237754
 10
214.0683089446946
 20
150.6174512730597
 10
215.622202277544
 20
150.3756199723908
 10
215.4508436512249
 20
150.4484818987949
 97
        0
 75
     0
 76
     1
 98
        0
  0
HATCH
  5
142
330
E3
100
AcDbEntity
  8
0
  6
Continuous
 62
   254
370
    13
100
AcDbHatch
 10
0.0
 20
0.0
 30
0.0
210
0.0
220
0.0
230
1.0
  2
SOLID
 70
     1
 71
     0
 91
        1
 92
        3
 72
     0
 73
     1
 93
        4
 10
212.4355653302382
 20
152.3975044900378
 10
213.7065396200853
 20
151.8596122309353
 10
224.7954311272642
 20
150.094804406117
 10
223.5256588924648
 20
150.6214937068399
 97
        0
 75
     0
 76
     1
 98
        0
  0
HATCH
  5
143
330
E3
100
AcDbEntity
  8
0
  6
Continuous
 62
   253
370
    25
100
AcDbHatch
 10
0.0
 20
0.0
 30
0.0
210
0.0
220
0.0
230
1.0
  2
SOLID
 70
     1
 71
     0
 91
        1
 92
        3
 72
     0
 73
     1
 93
        4
 10
208.1498755599589
 20
154.2112622084424
 10
212.4355651556035
 20
152.3975046384264
 10
219.6696252349776
 20
151.2390141637692
 10
219.2416975195983
 20
152.3984405517697
 97
        0
 75
     0
 76
     1
 98
        0
  0
HATCH
  5
144
330
E3
100
AcDbEntity
  8
0
  6
Continuous
 62
   254
370
    13
100
AcDbHatch
 10
0.0
 20
0.0
 30
0.0
210
0.0
220
0.0
230
1.0
  2
SOLID
 70
     1
 71
     0
 91
        1
 92
        3
 72
     0
 73
     1
 93
        4
 10
218.0120963175411
 20
152.9084680317094
 10
206.9204424459035
 20
154.7315741497927
 10
208.1498753972834
 20
154.211262712525
 10
219.2416974514149
 20
152.3984409539474
 97
        0
 75
     0
 76
     1
 98
        0
  0
HATCH
  5
145
330
E3
100
AcDbEntity
  8
0
  6
Continuous
 62
   253
370
    25
100
AcDbHatch
 10
0.0
 20
0.0
 30
0.0
210
0.0
220
0.0
230
1.0
  2
SOLID
 70
     1
 71
     0
 91
        1
 92
        3
 72
     0
 73
     1
 93
        4
 10
202.7737005626625
 20
156.4865278918346
 10
206.9204415314686
 20
154.7315741446237
 10
214.2690747160511
 20
153.5236985050079
 10
213.8626037731498
 20
154.6296382468055
 97
        0
 75
     0
 76
     1
 98
        0
  0
HATCH
  5
146
330
E3
100
AcDbEntity
  8
0
  6
Continuous
 62
   254
370
    13
100
AcDbHatch
 10
0.0
 20
0.0
 30
0.0
210
0.0
220
0.0
230
1.0
  2
SOLID
 70
     1
 71
     0
 91
        1
 92
        3
 72
     0
 73
     1
 93
        4
 10
201.5838049308232
 20
156.9901064371076
 10
202.7737004426214
 20
156.4865278020638
 10
213.8626032412677
 20
154.6296382560461
 10
212.6712958193047
 20
155.123781405341
 97
        0
 75
     0
 76
     1
 98
        0
  0
HATCH
  5
147
330
E3
100
AcDbEntity
  8
0
  6
Continuous
 62
   253
370
    25
100
AcDbHatch
 10
0.0
 20
0.0
 30
0.0
210
0.0
220
0.0
230
1.0
  2
SOLID
 70
     1
 71
     0
 91
        1
 92
        3
 72
     0
 73
     1
 93
        4
 10
197.5693616395908
 20
158.6890698834512
 10
201.5838045212056
 20
156.9901065687534
 10
209.0366274966428
 20
155.7355944711763
 10
208.6500390769622
 20
156.7917608448509
 97
        0
 75
     0
 76
     1
 98
        0
  0
HATCH
  5
148
330
E3
100
AcDbEntity
  8
0
  6
Continuous
 62
   254
370
    13
100
AcDbHatch
 10
0.0
 20
0.0
 30
0.0
210
0.0
220
0.0
230
1.0
  2
SOLID
 70
     1
 71
     0
 91
        1
 92
        3
 72
     0
 73
     1
 93
        4
 10
196.4171264371988
 20
159.1767104190449
 10
197.5693616296082
 20
158.689069842754
 10
208.6500390001897
 20
156.7917607588507
 10
207.4952643985683
 20
157.2707504642511
 97
        0
 75
     0
 76
     1
 98
        0
  0
HATCH
  5
149
330
E3
100
AcDbEntity
  8
0
  6
Continuous
 62
   253
370
    25
100
AcDbHatch
 10
0.0
 20
0.0
 30
0.0
210
0.0
220
0.0
230
1.0
  2
SOLID
 70
     1
 71
     0
 91
        1
 92
        3
 72
     0
 73
     1
 93
        4
 10
192.5287487605711
 20
160.8223210215255
 10
196.4171268532053
 20
159.1767101944527
 10
203.9645163926501
 20
157.8782048929036
 10
203.5963886841349
 20
158.8879673202067
 97
        0
 75
     0
 76
     1
 98
        0
  0
HATCH
  5
14A
330
E3
100
AcDbEntity
  8
0
  6
Continuous
 62
   254
370
    13
100
AcDbHatch
 10
0.0
 20
0.0
 30
0.0
210
0.0
220
0.0
230
1.0
  2
SOLID
 70
     1
 71
     0
 91
        1
 92
        3
 72
     0
 73
     1
 93
        4
 10
191.4124155618964
 20
161.2947673963529
 10
192.5287487325225
 20
160.8223210713455
 10
203.5963888767947
 20
158.8879671582983
 10
202.4764917712425
 20
159.3524898555939
 97
        0
 75
     0
 76
     1
 98
        0
  0
HATCH
  5
14B
330
E3
100
AcDbEntity
  8
0
  6
Continuous
 62
   253
370
    25
100
AcDbHatch
 10
0.0
 20
0.0
 30
0.0
210
0.0
220
0.0
230
1.0
  2
SOLID
 70
     1
 71
     0
 91
        1
 92
        3
 72
     0
 73
     1
 93
        5
 10
187.6442554932722
 20
162.8895000393663
 10
191.412414069314
 20
161.2947678170222
 10
192.125689469495
 20
161.1695535726106
 10
199.0454505144862
 20
159.9548026849741
 10
198.6944951652727
 20
160.9212266384455
 97
        0
 75
     0
 76
     1
 98
        0
  0
HATCH
  5
14C
330
E3
100
AcDbEntity
  8
0
  6
Continuous
 62
   254
370
    13
100
AcDbHatch
 10
0.0
 20
0.0
 30
0.0
210
0.0
220
0.0
230
1.0
  2
SOLID
 70
     1
 71
     0
 91
        1
 92
        3
 72
     0
 73
     1
 93
        4
 10
186.5621698507269
 20
163.347452658746
 10
187.6442530183136
 20
162.8895010415667
 10
198.6944951857698
 20
160.9212270285847
 10
197.6079187162152
 20
161.3719277845998
 97
        0
 75
     0
 76
     1
 98
        0
  0
HATCH
  5
14D
330
E3
100
AcDbEntity
  8
0
  6
Continuous
 62
   253
370
    25
100
AcDbHatch
 10
0.0
 20
0.0
 30
0.0
210
0.0
220
0.0
230
1.0
  2
SOLID
 70
     1
 71
     0
 91
        1
 92
        3
 72
     0
 73
     1
 93
        4
 10
182.9087388208998
 20
164.8936312022015
 10
186.5621697487689
 20
163.3474526581218
 10
194.2725785743067
 20
161.9684511917294
 10
193.937623450545
 20
162.8943324851158
 97
        0
 75
     0
 76
     1
 98
        0
  0
HATCH
  5
14E
330
E3
100
AcDbEntity
  8
0
  6
Continuous
 62
   254
370
    13
100
AcDbHatch
 10
0.0
 20
0.0
 30
0.0
210
0.0
220
0.0
230
1.0
  2
SOLID
 70
     1
 71
     0
 91
        1
 92
        3
 72
     0
 73
     1
 93
        4
 10
192.8829024248263
 20
163.3318199094467
 10
181.8593554102429
 20
165.3377432440558
 10
182.908740408336
 20
164.8936306634151
 10
193.9376231214353
 20
162.8943325867859
 97
        0
 75
     0
 76
     1
 98
        0
  0
HATCH
  5
14F
330
E3
100
AcDbEntity
  8
0
  6
Continuous
 62
   253
370
    25
100
AcDbHatch
 10
0.0
 20
0.0
 30
0.0
210
0.0
220
0.0
230
1.0
  2
SOLID
 70
     1
 71
     0
 91
        1
 92
        3
 72
     0
 73
     1
 93
        4
 10
178.3154874940566
 20
166.8375533631754
 10
181.8593553691396
 20
165.3377435160098
 10
189.639452868578
 20
163.922021225845
 10
189.3194308048312
 20
164.8099151255487
 97
        0
 75
     0
 76
     1
 98
        0
  0
HATCH
  5
150
330
E3
100
AcDbEntity
  8
0
  6
Continuous
 62
   254
370
    13
100
AcDbHatch
 10
0.0
 20
0.0
 30
0.0
210
0.0
220
0.0
230
1.0
  2
SOLID
 70
     1
 71
     0
 91
        1
 92
        3
 72
     0
 73
     1
 93
        4
 10
177.297337862178
 20
167.2684470726508
 10
178.3154895078335
 20
166.8375522534304
 10
189.3194299369117
 20
164.8099148402462
 10
188.2951845526704
 20
165.2347619607094
 97
        0
 75
     0
 76
     1
 98
        0
  0
HATCH
  5
151
330
E3
100
AcDbEntity
  8
0
  6
Continuous
 62
   253
370
    25
100
AcDbHatch
 10
0.0
 20
0.0
 30
0.0
210
0.0
220
0.0
230
1.0
  2
SOLID
 70
     1
 71
     0
 91
        1
 92
        3
 72
     0
 73
     1
 93
        4
 10
173.8581871141555
 20
168.7239389016742
 10
177.2973368985899
 20
167.2684471902371
 10
185.1400028442785
 20
165.8182074756353
 10
184.8339397489072
 20
166.6704538655984
 97
        0
 75
     0
 76
     1
 98
        0
  0
HATCH
  5
152
330
E3
100
AcDbEntity
  8
0
  6
Continuous
 62
   254
370
    13
100
AcDbHatch
 10
0.0
 20
0.0
 30
0.0
210
0.0
220
0.0
230
1.0
  2
SOLID
 70
     1
 71
     0
 91
        1
 92
        3
 72
     0
 73
     1
 93
        4
 10
172.8698921532181
 20
169.1421975750418
 10
173.8581856333432
 20
168.7239393930337
 10
184.8339399520925
 20
166.6704534820399
 10
183.838867615044
 20
167.0832012577613
 97
        0
 75
     0
 76
     1
 98
        0
  0
HATCH
  5
153
330
E3
100
AcDbEntity
  8
0
  6
Continuous
 62
   253
370
    25
100
AcDbHatch
 10
0.0
 20
0.0
 30
0.0
210
0.0
220
0.0
230
1.0
  2
SOLID
 70
     1
 71
     0
 91
        1
 92
        3
 72
     0
 73
     1
 93
        4
 10
180.4755141231535
 20
168.4782879561334
 10
169.5308812574893
 20
170.5553091149811
 10
172.8698920176332
 20
169.1421975173665
 10
180.7685076745415
 20
167.6595411339014
 97
        0
 75
     0
 76
     1
 98
        0
  0
HATCH
  5
154
330
E3
100
AcDbEntity
  8
0
  6
Continuous
 62
   254
370
    13
100
AcDbHatch
 10
0.0
 20
0.0
 30
0.0
210
0.0
220
0.0
230
1.0
  2
SOLID
 70
     1
 71
     0
 91
        1
 92
        3
 72
     0
 73
     1
 93
        4
 10
179.5083857335293
 20
168.8794433169714
 10
168.5711569421154
 20
170.9614766514315
 10
169.5308808071364
 20
170.5553095563369
 10
180.4755140954961
 20
168.4782879840829
 97
        0
 75
     0
 76
     1
 98
        0
  0
HATCH
  5
155
330
E3
100
AcDbEntity
  8
0
  6
Continuous
 62
   253
370
    25
100
AcDbHatch
 10
0.0
 20
0.0
 30
0.0
210
0.0
220
0.0
230
1.0
  2
SOLID
 70
     1
 71
     0
 91
        1
 92
        3
 72
     0
 73
     1
 93
        4
 10
176.2388274106649
 20
170.2356250291589
 10
165.327974758222
 20
172.3340320928783
 10
168.5711583995648
 20
170.9614760613945
 10
176.5195687643493
 20
169.448400805605
 97
        0
 75
     0
 76
     1
 98
        0
  0
HATCH
  5
156
330
E3
100
AcDbEntity
  8
0
  6
Continuous
 62
   254
370
    13
100
AcDbHatch
 10
0.0
 20
0.0
 30
0.0
210
0.0
220
0.0
230
1.0
  2
SOLID
 70
     1
 71
     0
 91
        1
 92
        3
 72
     0
 73
     1
 93
        4
 10
175.2984830998708
 20
170.6256716738418
 10
164.3955951000418
 20
172.7286268898857
 10
165.3279728567829
 20
172.3340330513689
 10
176.2388278526204
 20
170.2356250757586
 97
        0
 75
     0
 76
     1
 98
        0
  0
HATCH
  5
157
330
E3
100
AcDbEntity
  8
0
  6
Continuous
 62
   253
370
    25
100
AcDbHatch
 10
0.0
 20
0.0
 30
0.0
210
0.0
220
0.0
230
1.0
  2
SOLID
 70
     1
 71
     0
 91
        1
 92
        3
 72
     0
 73
     1
 93
        4
 10
172.1188509386387
 20
171.944553027872
 10
161.2441709982901
 20
174.0623494127536
 10
164.3955948560958
 20
172.7286270232009
 10
172.3880892623281
 20
171.1870300672529
 97
        0
 75
     0
 76
     1
 98
        0
  0
HATCH
  5
158
330
E3
100
AcDbEntity
  8
0
  6
Continuous
 62
   254
370
    13
100
AcDbHatch
 10
0.0
 20
0.0
 30
0.0
210
0.0
220
0.0
230
1.0
  2
SOLID
 70
     1
 71
     0
 91
        1
 92
        3
 72
     0
 73
     1
 93
        4
 10
171.2041921767537
 20
172.3239448718922
 10
160.337986973891
 20
174.4458579475937
 10
161.2441709745435
 20
174.0623494685896
 10
172.1188509643458
 20
171.9445529311216
 97
        0
 75
     0
 76
     1
 98
        0
  0
HATCH
  5
159
330
E3
100
AcDbEntity
  8
0
  6
Continuous
 62
   255
370
     0
100
AcDbHatch
 10
0.0
 20
0.0
 30
0.0
210
0.0
220
0.0
230
1.0
  2
SOLID
 70
     1
 71
     0
 91
        1
 92
        3
 72
     0
 73
     1
 93
        6
 10
212.460704901825
 20
150.9142472570815
 10
217.2639335356404
 20
150.1660617854473
 10
217.1237110916996
 20
149.7371758406738
 10
217.2182302612911
 20
149.7225806503476
 10
217.4051790052191
 20
150.2943013094249
 10
212.4723956866313
 20
151.0648925529368
 97
        0
 75
     0
 76
     1
 98
        0
  0
HATCH
  5
15A
330
E3
100
AcDbEntity
  8
0
  6
Continuous
100
AcDbHatch
 10
0.0
 20
0.0
 30
0.0
210
0.0
220
0.0
230
1.0
  2
Steel_0002
 70
     0
 71
     0
 91
        1
 92
        3
 72
     0
 73
     1
 93
        6
 10
212.460704901825
 20
150.9142472570815
 10
217.2639335356404
 20
150.1660617854473
 10
217.1237110916996
 20
149.7371758406738
 10
217.2182302612911
 20
149.7225806503476
 10
217.4051790052191
 20
150.2943013094249
 10
212.4723956866313
 20
151.0648925529368
 97
        0
 75
     0
 76
     2
 52
0.0
 41
1.0
 77
     0
 78
     2
 53
58.68587171712116
 43
145.2277640610102
 44
160.7933108349203
 45
-1.395649781915465
 46
1.86124507243651
 79
     0
 53
58.68587171712116
 43
144.7625474670384
 44
161.4137258590658
 45
-1.395649781915465
 46
1.86124507243651
 79
     0
 98
        0
  0
HATCH
  5
15B
330
E3
100
AcDbEntity
  8
0
  6
Continuous
 62
   255
370
     0
100
AcDbHatch
 10
0.0
 20
0.0
 30
0.0
210
0.0
220
0.0
230
1.0
  2
SOLID
 70
     1
 71
     0
 91
        1
 92
        3
 72
     0
 73
     1
 93
        4
 10
212.6213025677802
 20
150.0741843369793
 10
212.3246117391948
 20
149.1605820144388
 10
230.5970264550295
 20
146.4102559705111
 10
230.6855506909208
 20
147.3039498202012
 97
        0
 75
     0
 76
     1
 98
        0
  0
HATCH
  5
15C
330
E3
100
AcDbEntity
  8
0
  6
Continuous
100
AcDbHatch
 10
0.0
 20
0.0
 30
0.0
210
0.0
220
0.0
230
1.0
  2
Steel_0002
 70
     0
 71
     0
 91
        1
 92
        3
 72
     0
 73
     1
 93
        4
 10
212.6213025677802
 20
150.0741843369793
 10
212.3246117391948
 20
149.1605820144388
 10
230.5970264550295
 20
146.4102559705111
 10
230.6855506909208
 20
147.3039498202012
 97
        0
 75
     0
 76
     2
 52
0.0
 41
1.0
 77
     0
 78
     2
 53
58.690520078148
 43
145.2277640610102
 44
160.7933108349203
 45
-1.392616254129909
 46
1.852657121855187
 79
     0
 53
58.690520078148
 43
144.763558642967
 44
161.410863208872
 45
-1.392616254129909
 46
1.852657121855187
 79
     0
 98
        0
  0
HATCH
  5
15D
330
E3
100
AcDbEntity
  8
Des_ Walls
  6
Continuous
 62
   255
370
    18
100
AcDbHatch
 10
0.0
 20
0.0
 30
0.0
210
0.0
220
0.0
230
1.0
  2
SOLID
 70
     1
 71
     0
 91
        1
 92
        3
 72
     0
 73
     1
 93
        4
 10
130.3718534902302
 20
123.4410939967213
 10
155.2919414693166
 20
131.6660583634329
 10
147.8525650815999
 20
132.1777325073301
 10
131.873178057799
 20
126.9984621038318
 97
        0
 75
     0
 76
     1
 98
        0
  0
HATCH
  5
15F
330
E3
100
AcDbEntity
  8
Des_ Walls
  6
Continuous
 62
   252
370
    13
100
AcDbHatch
 10
0.0
 20
0.0
 30
0.0
210
0.0
220
0.0
230
1.0
  2
SOLID
 70
     1
 71
     0
 91
        1
 92
        3
 72
     0
 73
     1
 93
        4
 10
155.2919411982669
 20
131.6660577985032
 10
130.3718531062092
 20
123.4410933763556
 10
130.7002480937088
 20
104.8975147058599
 10
155.1930888770385
 20
123.3456985708558
 97
        0
 75
     0
 76
     1
 98
        0
  0
HATCH
  5
160
330
E3
100
AcDbEntity
  8
Des_ Walls
  6
Continuous
 62
   255
370
    18
100
AcDbHatch
 10
0.0
 20
0.0
 30
0.0
210
0.0
220
0.0
230
1.0
  2
SOLID
 70
     1
 71
     0
 91
        1
 92
        3
 72
     0
 73
     1
 93
        4
 10
138.0881476361128
 20
141.724744867764
 10
136.841812649619
 20
138.7715716654105
 10
147.8525645346842
 20
132.1777321697337
 10
155.2919420346361
 20
131.6660581269774
 97
        0
 75
     0
 76
     1
 98
        0
  0
HATCH
  5
161
330
E3
100
AcDbEntity
  8
Des_ Walls
  6
Continuous
 62
   253
370
    25
100
AcDbHatch
 10
0.0
 20
0.0
 30
0.0
210
0.0
220
0.0
230
1.0
  2
SOLID
 70
     1
 71
     0
 91
        1
 92
        3
 72
     0
 73
     1
 93
        4
 10
136.8418128907781
 20
138.7715717917956
 10
136.9367787519755
 20
129.0981753708303
 10
137.4143767921891
 20
128.7944864905892
 10
147.8525643842528
 20
132.1777325416394
 97
        0
 75
     0
 76
     1
 98
        0
  0
HATCH
  5
162
330
E3
100
AcDbEntity
  8
Des_ Walls
  6
Continuous
 62
   255
370
    18
100
AcDbHatch
 10
0.0
 20
0.0
 30
0.0
210
0.0
220
0.0
230
1.0
  2
SOLID
 70
     1
 71
     0
 91
        1
 92
        3
 72
     0
 73
     1
 93
        4
 10
113.9684895550618
 20
134.5082501958687
 10
121.195202569438
 20
134.0112024007167
 10
136.8418128649963
 20
138.7715714078326
 10
138.0881475870196
 20
141.7247451482641
 97
        0
 75
     0
 76
     1
 98
        0
  0
HATCH
  5
163
330
E3
100
AcDbEntity
  8
Des_ Walls
  6
Continuous
 62
   252
370
    13
100
AcDbHatch
 10
0.0
 20
0.0
 30
0.0
210
0.0
220
0.0
230
1.0
  2
SOLID
 70
     1
 71
     0
 91
        1
 92
        3
 72
     0
 73
     1
 93
        5
 10
136.8418132732916
 20
138.7715718278369
 10
121.195202447093
 20
134.0112025780859
 10
131.8731779069813
 20
126.9984622213983
 10
135.7905775879476
 20
128.2681775827571
 10
136.9367788280709
 20
129.0981753070825
 97
        0
 75
     0
 76
     1
 98
        0
  0
HATCH
  5
164
330
E3
100
AcDbEntity
  8
Des_ Walls
  6
Continuous
 62
   255
370
    18
100
AcDbHatch
 10
0.0
 20
0.0
 30
0.0
210
0.0
220
0.0
230
1.0
  2
SOLID
 70
     1
 71
     0
 91
        1
 92
        3
 72
     0
 73
     1
 93
        4
 10
121.1952023891288
 20
134.0112028350533
 10
113.9684895550618
 20
134.5082505369965
 10
130.3718537166965
 20
123.4410938211767
 10
131.8731787458149
 20
126.9984627333679
 97
        0
 75
     0
 76
     1
 98
        0
  0
HATCH
  5
165
330
E3
100
AcDbEntity
  8
Des_ Walls
  6
Continuous
 62
   253
370
    25
100
AcDbHatch
 10
0.0
 20
0.0
 30
0.0
210
0.0
220
0.0
230
1.0
  2
SOLID
 70
     1
 71
     0
 91
        1
 92
        3
 72
     0
 73
     1
 93
       18
 10
130.3718533172897
 20
123.4410945186703
 10
113.9684895550618
 20
134.5082500291907
 10
114.6598954623478
 20
115.7088610974043
 10
116.3472417086306
 20
114.4402021106579
 10
117.1483284393424
 20
115.0200013865603
 10
118.107765514962
 20
114.3033575190903
 10
118.6295050477369
 20
112.7242452712804
 10
120.6459090271108
 20
111.2081796665054
 10
121.4563024828993
 20
111.8021971511361
 10
122.450559872238
 20
111.0595458981114
 10
122.9840522204303
 20
109.4502092391165
 10
125.1018883702643
 20
107.8578802924977
 10
125.9217402814535
 20
108.4667772248128
 10
126.9527478326255
 20
107.6966749036246
 10
127.4985105851804
 20
106.055940841325
 10
129.7239769545357
 20
104.3826880078235
 10
130.5534354601991
 20
105.0071727619388
 10
130.7002480157996
 20
104.8975130371083
 97
        0
 75
     0
 76
     1
 98
        0
  0
LINE
  5
166
330
E3
100
AcDbEntity
  8
0
  6
Continuous
100
AcDbLine
 10
147.5017773838766
 20
98.46089112451473
 30
0.0
 11
145.1950244488825
 21
94.31161212056341
 31
0.0
  0
LINE
  5
167
330
E3
100
AcDbEntity
  8
0
  6
Continuous
100
AcDbLine
 10
143.6604430651761
 20
95.45647891574187
 30
0.0
 11
145.1950244488825
 21
94.31161212056341
 31
0.0
  0
LINE
  5
168
330
E3
100
AcDbEntity
  8
0
  6
Continuous
100
AcDbLine
 10
145.1950244488825
 20
94.31161212056341
 30
0.0
 11
144.4870876195852
 21
96.10301812461962
 31
0.0
  0
LINE
  5
169
330
E3
100
AcDbEntity
  8
0
  6
Continuous
100
AcDbLine
 10
148.1946504770994
 20
96.66831959081428
 30
0.0
 11
145.1950244488825
 21
94.31161212056341
 31
0.0
  0
LINE
  5
16A
330
E3
100
AcDbEntity
  8
0
  6
Continuous
100
AcDbLine
 10
148.1946504770994
 20
96.66831959081428
 30
0.0
 11
147.5017773838766
 21
98.46089112451473
 31
0.0
  0
LINE
  5
16B
330
E3
100
AcDbEntity
  8
0
  6
Continuous
100
AcDbLine
 10
147.5017773838766
 20
98.46089112451473
 30
0.0
 11
144.4870876195852
 21
96.10301812461962
 31
0.0
  0
LINE
  5
16C
330
E3
100
AcDbEntity
  8
0
  6
Continuous
100
AcDbLine
 10
148.1946504770994
 20
96.66831959081428
 30
0.0
 11
144.4870876195852
 21
96.10301812461962
 31
0.0
  0
LINE
  5
16D
330
E3
100
AcDbEntity
  8
0
  6
Continuous
100
AcDbLine
 10
183.9553036952027
 20
126.9721784906089
 30
0.0
 11
181.7965501715059
 21
123.0682222556442
 31
0.0
  0
LINE
  5
16E
330
E3
100
AcDbEntity
  8
0
  6
Continuous
100
AcDbLine
 10
180.1482823080459
 20
123.994606111543
 30
0.0
 11
181.7965501715059
 21
123.0682222556442
 31
0.0
  0
LINE
  5
16F
330
E3
100
AcDbEntity
  8
0
  6
Continuous
100
AcDbLine
 10
181.7965501715059
 20
123.0682222556442
 30
0.0
 11
181.2650360058388
 21
124.8680481503237
 31
0.0
  0
LINE
  5
170
330
E3
100
AcDbEntity
  8
0
  6
Continuous
100
AcDbLine
 10
184.4745389897437
 20
125.1722317987393
 30
0.0
 11
181.7965501715059
 21
123.0682222556442
 31
0.0
  0
LINE
  5
171
330
E3
100
AcDbEntity
  8
0
  6
Continuous
100
AcDbLine
 10
184.4745389897437
 20
125.1722317987393
 30
0.0
 11
183.9553036952027
 21
126.9721784906089
 31
0.0
  0
LINE
  5
172
330
E3
100
AcDbEntity
  8
0
  6
Continuous
100
AcDbLine
 10
184.4745389897437
 20
125.1722317987393
 30
0.0
 11
181.2650360058388
 21
124.8680481503237
 31
0.0
  0
LINE
  5
173
330
E3
100
AcDbEntity
  8
0
  6
Continuous
100
AcDbLine
 10
146.789191495158
 20
173.4007351847729
 30
0.0
 11
74.2733617935144
 21
124.9682771701513
 31
0.0
  0
LINE
  5
174
330
E3
100
AcDbEntity
  8
0
  6
Continuous
100
AcDbLine
 10
74.2733617935144
 20
124.9682771701513
 30
0.0
 11
75.53846097023006
 21
123.881660738874
 31
0.0
  0
LINE
  5
175
330
E3
100
AcDbEntity
  8
0
  6
Continuous
100
AcDbLine
 10
74.2733617935144
 20
124.9682771701513
 30
0.0
 11
74.27709997682719
 21
124.924019691559
 31
0.0
  0
LINE
  5
176
330
E3
100
AcDbEntity
  8
0
  6
Continuous
100
AcDbLine
 10
125.2954862917354
 20
81.09274623354354
 30
0.0
 11
74.27709997682719
 21
124.924019691559
 31
0.0
  0
LINE
  5
177
330
E3
100
AcDbEntity
  8
0
  6
Continuous
100
AcDbLine
 10
125.294164052223
 20
81.14555092952699
 30
0.0
 11
125.2954862917354
 21
81.09274623354354
 31
0.0
  0
LINE
  5
178
330
E3
100
AcDbEntity
  8
0
  6
Continuous
100
AcDbLine
 10
125.294164052223
 20
81.14555092952699
 30
0.0
 11
124.7956275194315
 21
81.57375411462647
 31
0.0
  0
LINE
  5
179
330
E3
100
AcDbEntity
  8
0
  6
Continuous
100
AcDbLine
 10
124.7956275194315
 20
81.57375411462647
 30
0.0
 11
124.2046778714855
 21
83.36978958937047
 31
0.0
  0
LINE
  5
17A
330
E3
100
AcDbEntity
  8
0
  6
Continuous
100
AcDbLine
 10
124.2046778714855
 20
83.36978958937047
 30
0.0
 11
123.09796339962
 21
84.3145933843529
 31
0.0
  0
LINE
  5
17B
330
E3
100
AcDbEntity
  8
0
  6
Continuous
100
AcDbLine
 10
123.09796339962
 20
84.3145933843529
 30
0.0
 11
122.585496012509
 21
83.4720786910063
 31
0.0
  0
LINE
  5
17C
330
E3
100
AcDbEntity
  8
0
  6
Continuous
100
AcDbLine
 10
122.585496012509
 20
83.4720786910063
 30
0.0
 11
119.9542230589199
 21
85.7321288205074
 31
0.0
  0
LINE
  5
17D
330
E3
100
AcDbEntity
  8
0
  6
Continuous
100
AcDbLine
 10
119.9542230589199
 20
85.7321288205074
 30
0.0
 11
119.3776482765863
 21
87.49064207619998
 31
0.0
  0
LINE
  5
17E
330
E3
100
AcDbEntity
  8
0
  6
Continuous
100
AcDbLine
 10
119.3776482765863
 20
87.49064207619998
 30
0.0
 11
118.3136633620988
 21
88.39897491416305
 31
0.0
  0
LINE
  5
17F
330
E3
100
AcDbEntity
  8
0
  6
Continuous
100
AcDbLine
 10
118.3136633620988
 20
88.39897491416305
 30
0.0
 11
117.8292796892731
 21
87.55727968283522
 31
0.0
  0
LINE
  5
180
330
E3
100
AcDbEntity
  8
0
  6
Continuous
100
AcDbLine
 10
117.8292796892731
 20
87.55727968283522
 30
0.0
 11
115.2984610259471
 21
89.73104797077266
 31
0.0
  0
LINE
  5
181
330
E3
100
AcDbEntity
  8
0
  6
Continuous
100
AcDbLine
 10
115.2984610259471
 20
89.73104797077266
 30
0.0
 11
114.735608151442
 21
91.45357345820595
 31
0.0
  0
LINE
  5
182
330
E3
100
AcDbEntity
  8
0
  6
Continuous
100
AcDbLine
 10
114.735608151442
 20
91.45357345820595
 30
0.0
 11
113.7119205265874
 21
92.32750195053566
 31
0.0
  0
LINE
  5
183
330
E3
100
AcDbEntity
  8
0
  6
Continuous
100
AcDbLine
 10
113.7119205265874
 20
92.32750195053566
 30
0.0
 11
113.253877170764
 21
91.48718119534294
 31
0.0
  0
LINE
  5
184
330
E3
100
AcDbEntity
  8
0
  6
Continuous
100
AcDbLine
 10
113.253877170764
 20
91.48718119534294
 30
0.0
 11
110.8178679776593
 21
93.5795125884732
 31
0.0
  0
LINE
  5
185
330
E3
100
AcDbEntity
  8
0
  6
Continuous
100
AcDbLine
 10
110.8178679776593
 20
93.5795125884732
 30
0.0
 11
110.268119965877
 21
95.26748681477176
 31
0.0
  0
LINE
  5
186
330
E3
100
AcDbEntity
  8
0
  6
Continuous
100
AcDbLine
 10
110.268119965877
 20
95.26748681477176
 30
0.0
 11
109.2824834558788
 21
96.10893065735277
 31
0.0
  0
LINE
  5
187
330
E3
100
AcDbEntity
  8
0
  6
Continuous
100
AcDbLine
 10
109.2824834558788
 20
96.10893065735277
 30
0.0
 11
108.8491676113315
 21
95.27046756705523
 31
0.0
  0
LINE
  5
188
330
E3
100
AcDbEntity
  8
0
  6
Continuous
100
AcDbLine
 10
108.8491676113315
 20
95.27046756705523
 30
0.0
 11
106.502740961388
 21
97.2858576797204
 31
0.0
  0
LINE
  5
189
330
E3
100
AcDbEntity
  8
0
  6
Continuous
100
AcDbLine
 10
106.502740961388
 20
97.2858576797204
 30
0.0
 11
105.9655199446897
 21
98.94063553228582
 31
0.0
  0
LINE
  5
18A
330
E3
100
AcDbEntity
  8
0
  6
Continuous
100
AcDbLine
 10
105.9655199446897
 20
98.94063553228582
 30
0.0
 11
105.0158516142173
 21
99.75137077029032
 31
0.0
  0
LINE
  5
18B
330
E3
100
AcDbEntity
  8
0
  6
Continuous
100
AcDbLine
 10
105.0158516142173
 20
99.75137077029032
 30
0.0
 11
104.6057745371987
 21
98.91519956181426
 31
0.0
  0
LINE
  5
18C
330
E3
100
AcDbEntity
  8
0
  6
Continuous
100
AcDbLine
 10
104.6057745371987
 20
98.91519956181426
 30
0.0
 11
102.3440756892932
 21
100.8578142646756
 31
0.0
  0
LINE
  5
18D
330
E3
100
AcDbEntity
  8
0
  6
Continuous
100
AcDbLine
 10
102.3440756892932
 20
100.8578142646756
 30
0.0
 11
101.8188462422961
 21
102.4806690111864
 31
0.0
  0
LINE
  5
18E
330
E3
100
AcDbEntity
  8
0
  6
Continuous
100
AcDbLine
 10
101.8188462422961
 20
102.4806690111864
 30
0.0
 11
100.9032133363091
 21
103.2623476278077
 31
0.0
  0
LINE
  5
18F
330
E3
100
AcDbEntity
  8
0
  6
Continuous
100
AcDbLine
 10
100.9032133363091
 20
103.2623476278077
 30
0.0
 11
100.5149940211064
 21
102.4288470166677
 31
0.0
  0
LINE
  5
190
330
E3
100
AcDbEntity
  8
0
  6
Continuous
100
AcDbLine
 10
100.5149940211064
 20
102.4288470166677
 30
0.0
 11
98.33351430174115
 21
104.3025583493837
 31
0.0
  0
LINE
  5
191
330
E3
100
AcDbEntity
  8
0
  6
Continuous
100
AcDbLine
 10
98.33351430174115
 20
104.3025583493837
 30
0.0
 11
97.81977038216272
 21
105.8946946969513
 31
0.0
  0
LINE
  5
192
330
E3
100
AcDbEntity
  8
0
  6
Continuous
100
AcDbLine
 10
97.81977038216272
 20
105.8946946969513
 30
0.0
 11
96.93637726675547
 21
106.6488511429815
 31
0.0
  0
LINE
  5
193
330
E3
100
AcDbEntity
  8
0
  6
Continuous
100
AcDbLine
 10
96.93637726675547
 20
106.6488511429815
 30
0.0
 11
96.56873918090103
 21
105.8183574024363
 31
0.0
  0
LINE
  5
194
330
E3
100
AcDbEntity
  8
0
  6
Continuous
100
AcDbLine
 10
96.56873918090103
 20
105.8183574024363
 30
0.0
 11
94.46328986589236
 21
107.6267696919741
 31
0.0
  0
LINE
  5
195
330
E3
100
AcDbEntity
  8
0
  6
Continuous
100
AcDbLine
 10
94.46328986589236
 20
107.6267696919741
 30
0.0
 11
93.96055481455039
 21
109.1893237871424
 31
0.0
  0
LINE
  5
196
330
E3
100
AcDbEntity
  8
0
  6
Continuous
100
AcDbLine
 10
93.96055481455039
 20
109.1893237871424
 30
0.0
 11
93.10772338821826
 21
109.9173880401281
 31
0.0
  0
LINE
  5
197
330
E3
100
AcDbEntity
  8
0
  6
Continuous
100
AcDbLine
 10
93.10772338821826
 20
109.9173880401281
 30
0.0
 11
92.75948794291222
 21
109.0901982659695
 31
0.0
  0
LINE
  5
198
330
E3
100
AcDbEntity
  8
0
  6
Continuous
100
AcDbLine
 10
92.75948794291222
 20
109.0901982659695
 30
0.0
 11
90.72615781513458
 21
110.8366644505493
 31
0.0
  0
LINE
  5
199
330
E3
100
AcDbEntity
  8
0
  6
Continuous
100
AcDbLine
 10
90.72615781513458
 20
110.8366644505493
 30
0.0
 11
90.23398435594709
 21
112.3707104088728
 31
0.0
  0
LINE
  5
19A
330
E3
100
AcDbEntity
  8
0
  6
Continuous
100
AcDbLine
 10
90.23398435594709
 20
112.3707104088728
 30
0.0
 11
89.41016057916443
 21
113.0740145026933
 31
0.0
  0
LINE
  5
19B
330
E3
100
AcDbEntity
  8
0
  6
Continuous
100
AcDbLine
 10
89.41016057916443
 20
113.0740145026933
 30
0.0
 11
89.08022101096307
 21
112.2503898780348
 31
0.0
  0
LINE
  5
19C
330
E3
100
AcDbEntity
  8
0
  6
Continuous
100
AcDbLine
 10
89.08022101096307
 20
112.2503898780348
 30
0.0
 11
87.11536656598234
 21
113.9380376254414
 31
0.0
  0
LINE
  5
19D
330
E3
100
AcDbEntity
  8
0
  6
Continuous
100
AcDbLine
 10
87.11536656598234
 20
113.9380376254414
 30
0.0
 11
86.63334007075655
 21
115.4445973258519
 31
0.0
  0
LINE
  5
19E
330
E3
100
AcDbEntity
  8
0
  6
Continuous
100
AcDbLine
 10
86.63334007075655
 20
115.4445973258519
 30
0.0
 11
85.83706458287635
 21
116.1243818802966
 31
0.0
  0
LINE
  5
19F
330
E3
100
AcDbEntity
  8
0
  6
Continuous
100
AcDbLine
 10
85.83706458287635
 20
116.1243818802966
 30
0.0
 11
85.52439901284791
 21
115.3045509403624
 31
0.0
  0
LINE
  5
1A0
330
E3
100
AcDbEntity
  8
0
  6
Continuous
100
AcDbLine
 10
85.52439901284791
 20
115.3045509403624
 30
0.0
 11
83.62462487018782
 21
116.9363022366789
 31
0.0
  0
LINE
  5
1A1
330
E3
100
AcDbEntity
  8
0
  6
Continuous
100
AcDbLine
 10
83.62462487018782
 20
116.9363022366789
 30
0.0
 11
83.15234050509771
 21
118.4163420566966
 31
0.0
  0
LINE
  5
1A2
330
E3
100
AcDbEntity
  8
0
  6
Continuous
100
AcDbLine
 10
83.15234050509771
 20
118.4163420566966
 30
0.0
 11
82.38225515392949
 21
119.0737660718318
 31
0.0
  0
LINE
  5
1A3
330
E3
100
AcDbEntity
  8
0
  6
Continuous
100
AcDbLine
 10
82.38225515392949
 20
119.0737660718318
 30
0.0
 11
82.08591352849838
 21
118.2579279687462
 31
0.0
  0
LINE
  5
1A4
330
E3
100
AcDbEntity
  8
0
  6
Continuous
100
AcDbLine
 10
82.08591352849838
 20
118.2579279687462
 30
0.0
 11
80.24803325417356
 21
119.8365187070869
 31
0.0
  0
LINE
  5
1A5
330
E3
100
AcDbEntity
  8
0
  6
Continuous
100
AcDbLine
 10
80.24803325417356
 20
119.8365187070869
 30
0.0
 11
79.78511883328233
 21
121.2909495228203
 31
0.0
  0
LINE
  5
1A6
330
E3
100
AcDbEntity
  8
0
  6
Continuous
100
AcDbLine
 10
79.78511883328233
 20
121.2909495228203
 30
0.0
 11
79.03995688072531
 21
121.9271001733563
 31
0.0
  0
LINE
  5
1A7
330
E3
100
AcDbEntity
  8
0
  6
Continuous
100
AcDbLine
 10
79.03995688072531
 20
121.9271001733563
 30
0.0
 11
78.75905117730545
 21
121.1154344705098
 31
0.0
  0
LINE
  5
1A8
330
E3
100
AcDbEntity
  8
0
  6
Continuous
100
AcDbLine
 10
78.75905117730545
 20
121.1154344705098
 30
0.0
 11
76.98009054861024
 21
122.6434177158099
 31
0.0
  0
LINE
  5
1A9
330
E3
100
AcDbEntity
  8
0
  6
Continuous
100
AcDbLine
 10
76.98009054861024
 20
122.6434177158099
 30
0.0
 11
76.52619347471456
 21
124.0731112259005
 31
0.0
  0
LINE
  5
1AA
330
E3
100
AcDbEntity
  8
0
  6
Continuous
100
AcDbLine
 10
76.52619347471456
 20
124.0731112259005
 30
0.0
 11
75.80476000802425
 21
124.6890005964023
 31
0.0
  0
LINE
  5
1AB
330
E3
100
AcDbEntity
  8
0
  6
Continuous
100
AcDbLine
 10
75.80476000802425
 20
124.6890005964023
 30
0.0
 11
75.53846097023006
 21
123.881660738874
 31
0.0
  0
LINE
  5
1AC
330
E3
100
AcDbEntity
  8
0
  6
Continuous
100
AcDbLine
 10
147.840913862464
 20
172.9292572225459
 30
0.0
 11
75.80476000802425
 21
124.6890005964023
 31
0.0
  0
LINE
  5
1AD
330
E3
100
AcDbEntity
  8
0
  6
Continuous
100
AcDbLine
 10
211.7281774274364
 20
149.4550461760627
 30
0.0
 11
211.3321095596712
 21
150.0346670064581
 31
0.0
  0
LINE
  5
1AE
330
E3
100
AcDbEntity
  8
0
  6
Continuous
100
AcDbLine
 10
212.3158002554734
 20
149.2006636178246
 30
0.0
 11
211.7281774274364
 21
149.4550461760627
 31
0.0
  0
LINE
  5
1AF
330
E3
100
AcDbEntity
  8
0
  6
Continuous
100
AcDbLine
 10
212.324611920767
 20
149.1605818042603
 30
0.0
 11
212.3158002554734
 21
149.2006636178246
 31
0.0
  0
LINE
  5
1B0
330
E3
100
AcDbEntity
  8
0
  6
Continuous
100
AcDbLine
 10
212.324611920767
 20
149.1605818042603
 30
0.0
 11
147.5017773838766
 21
98.46089112451473
 31
0.0
  0
LINE
  5
1B1
330
E3
100
AcDbEntity
  8
0
  6
Continuous
100
AcDbLine
 10
144.4870876195852
 20
96.10301812461962
 30
0.0
 11
125.2954862917354
 21
81.09274623354354
 31
0.0
  0
LINE
  5
1B2
330
E3
100
AcDbEntity
  8
0
  6
Continuous
100
AcDbLine
 10
125.294164052223
 20
81.14555092952699
 30
0.0
 11
212.3158002554734
 21
149.2006636178246
 31
0.0
  0
LINE
  5
1B3
330
E3
100
AcDbEntity
  8
0
  6
Continuous
100
AcDbLine
 10
211.7281774274364
 20
149.4550461760627
 30
0.0
 11
124.7956275194315
 21
81.57375411462647
 31
0.0
  0
LINE
  5
1B4
330
E3
100
AcDbEntity
  8
0
  6
Continuous
100
AcDbLine
 10
204.6080580391711
 20
147.4775700571193
 30
0.0
 11
123.09796339962
 21
84.3145933843529
 31
0.0
  0
LINE
  5
1B5
330
E3
100
AcDbEntity
  8
0
  6
Continuous
100
AcDbLine
 10
201.832827482967
 20
148.7218496748955
 30
0.0
 11
119.9542230589199
 21
85.7321288205074
 31
0.0
  0
LINE
  5
1B6
330
E3
100
AcDbEntity
  8
0
  6
Continuous
100
AcDbLine
 10
198.9837833140826
 20
149.9992211931595
 30
0.0
 11
118.3136633620988
 21
88.39897491416305
 31
0.0
  0
LINE
  5
1B7
330
E3
100
AcDbEntity
  8
0
  6
Continuous
100
AcDbLine
 10
196.3359187032048
 20
151.1863963879453
 30
0.0
 11
115.2984610259471
 21
89.73104797077266
 31
0.0
  0
LINE
  5
1B8
330
E3
100
AcDbEntity
  8
0
  6
Continuous
100
AcDbLine
 10
193.5494311548063
 20
152.4357201046021
 30
0.0
 11
155.1956344529044
 21
123.5598407007154
 31
0.0
  0
LINE
  5
1B9
330
E3
100
AcDbEntity
  8
0
  6
Continuous
100
AcDbLine
 10
130.5534908775267
 20
105.0072140658169
 30
0.0
 11
113.7119205265874
 21
92.32750195053566
 31
0.0
  0
LINE
  5
1BA
330
E3
100
AcDbEntity
  8
0
  6
Continuous
100
AcDbLine
 10
191.0220209311123
 20
153.5688891610821
 30
0.0
 11
155.2341426382095
 21
126.8010415202393
 31
0.0
  0
LINE
  5
1BB
330
E3
100
AcDbEntity
  8
0
  6
Continuous
100
AcDbLine
 10
127.4985658545918
 20
106.0559817991509
 30
0.0
 11
110.8178679776593
 21
93.5795125884732
 31
0.0
  0
LINE
  5
1BC
330
E3
100
AcDbEntity
  8
0
  6
Continuous
100
AcDbLine
 10
188.2955369382647
 20
154.7913110170425
 30
0.0
 11
155.2753246856397
 21
130.2674572737949
 31
0.0
  0
LINE
  5
1BD
330
E3
100
AcDbEntity
  8
0
  6
Continuous
100
AcDbLine
 10
125.9217968684682
 20
108.4668194696865
 30
0.0
 11
109.2824834558788
 21
96.10893065735277
 31
0.0
  0
LINE
  5
1BE
330
E3
100
AcDbEntity
  8
0
  6
Continuous
100
AcDbLine
 10
185.8821429380052
 20
155.8733600086215
 30
0.0
 11
154.0599515089564
 21
132.3863771078853
 31
0.0
  0
LINE
  5
1BF
330
E3
100
AcDbEntity
  8
0
  6
Continuous
100
AcDbLine
 10
122.9841071508424
 20
109.4502489823751
 30
0.0
 11
106.502740961388
 21
97.2858576797204
 31
0.0
  0
LINE
  5
1C0
330
E3
100
AcDbEntity
  8
0
  6
Continuous
100
AcDbLine
 10
183.2132628808527
 20
157.0699573842289
 30
0.0
 11
151.5447320070876
 21
133.856971893559
 31
0.0
  0
LINE
  5
1C1
330
E3
100
AcDbEntity
  8
0
  6
Continuous
100
AcDbLine
 10
121.4563589703446
 20
111.8022388326373
 30
0.0
 11
105.0158516142173
 21
99.75137077029032
 31
0.0
  0
LINE
  5
1C2
330
E3
100
AcDbEntity
  8
0
  6
Continuous
100
AcDbLine
 10
180.9078778924158
 20
158.1035764969765
 30
0.0
 11
149.3738726460774
 21
135.1262238817802
 31
0.0
  0
LINE
  5
1C3
330
E3
100
AcDbEntity
  8
0
  6
Continuous
100
AcDbLine
 10
118.6295610731575
 20
112.7242870488511
 30
0.0
 11
102.3440756892932
 21
100.8578142646756
 31
0.0
  0
LINE
  5
1C4
330
E3
100
AcDbEntity
  8
0
  6
Continuous
100
AcDbLine
 10
178.2943294778705
 20
159.2753647415848
 30
0.0
 11
146.9148368967237
 21
136.5639716261351
 31
0.0
  0
LINE
  5
1C5
330
E3
100
AcDbEntity
  8
0
  6
Continuous
100
AcDbLine
 10
117.1483851065958
 20
115.0200409099755
 30
0.0
 11
100.9032133363091
 21
103.2623476278077
 31
0.0
  0
LINE
  5
1C6
330
E3
100
AcDbEntity
  8
0
  6
Continuous
100
AcDbLine
 10
176.0913445938928
 20
160.2630776573359
 30
0.0
 11
144.8437396907256
 21
137.7748948955212
 31
0.0
  0
LINE
  5
1C7
330
E3
100
AcDbEntity
  8
0
  6
Continuous
100
AcDbLine
 10
114.6475894421732
 20
116.0434249094606
 30
0.0
 11
98.33351430174115
 21
104.3025583493837
 31
0.0
  0
LINE
  5
1C8
330
E3
100
AcDbEntity
  8
0
  6
Continuous
100
AcDbLine
 10
173.5309926500013
 20
161.4110133540986
 30
0.0
 11
142.4385729585431
 21
139.18114722117
 31
0.0
  0
LINE
  5
1C9
330
E3
100
AcDbEntity
  8
0
  6
Continuous
100
AcDbLine
 10
114.5304716692651
 20
119.2279424637647
 30
0.0
 11
96.93637726675547
 21
106.6488511429815
 31
0.0
  0
LINE
  5
1CA
330
E3
100
AcDbEntity
  8
0
  6
Continuous
100
AcDbLine
 10
171.4251580899001
 20
162.3551674560861
 30
0.0
 11
140.461896712885
 21
140.3368661747167
 31
0.0
  0
LINE
  5
1CB
330
E3
100
AcDbEntity
  8
0
  6
Continuous
100
AcDbLine
 10
114.4348166187137
 20
121.8287353480017
 30
0.0
 11
94.46328986589236
 21
107.6267696919741
 31
0.0
  0
LINE
  5
1CC
330
E3
100
AcDbEntity
  8
0
  6
Continuous
100
AcDbLine
 10
168.9159849771101
 20
163.4801582163228
 30
0.0
 11
138.1084181188755
 21
141.7128930845492
 31
0.0
  0
LINE
  5
1CD
330
E3
100
AcDbEntity
  8
0
  6
Continuous
100
AcDbLine
 10
114.3216361812425
 20
124.9062004736366
 30
0.0
 11
93.10772338821826
 21
109.9173880401281
 31
0.0
  0
LINE
  5
1CE
330
E3
100
AcDbEntity
  8
0
  6
Continuous
100
AcDbLine
 10
166.9023872335617
 20
164.3829572370674
 30
0.0
 11
132.1338870441399
 21
139.943256693008
 31
0.0
  0
LINE
  5
1CF
330
E3
100
AcDbEntity
  8
0
  6
Continuous
100
AcDbLine
 10
114.2314202690309
 20
127.3591375972887
 30
0.0
 11
90.72615781513458
 21
110.8366644505493
 31
0.0
  0
LINE
  5
1D0
330
E3
100
AcDbEntity
  8
0
  6
Continuous
100
AcDbLine
 10
164.4424797855665
 20
165.4858617002639
 30
0.0
 11
124.6856498398903
 21
137.7147770723581
 31
0.0
  0
LINE
  5
1D1
330
E3
100
AcDbEntity
  8
0
  6
Continuous
100
AcDbLine
 10
114.1219453669833
 20
130.3357795115126
 30
0.0
 11
89.41016057916443
 21
113.0740145026933
 31
0.0
  0
LINE
  5
1D2
330
E3
100
AcDbEntity
  8
0
  6
Continuous
100
AcDbLine
 10
162.5165220357723
 20
166.3493657215738
 30
0.0
 11
118.7792810282153
 21
135.9476186556068
 31
0.0
  0
LINE
  5
1D3
330
E3
100
AcDbEntity
  8
0
  6
Continuous
100
AcDbLine
 10
114.0367931423857
 20
132.6511155765759
 30
0.0
 11
87.11536656598234
 21
113.9380376254414
 31
0.0
  0
LINE
  5
1D4
330
E3
100
AcDbEntity
  8
0
  6
Continuous
100
AcDbLine
 10
160.1040682947216
 20
167.4309935553821
 30
0.0
 11
85.83706458287635
 21
116.1243818802966
 31
0.0
  0
LINE
  5
1D5
330
E3
100
AcDbEntity
  8
0
  6
Continuous
100
AcDbLine
 10
158.2614377525189
 20
168.2571385970865
 30
0.0
 11
83.62462487018782
 21
116.9363022366789
 31
0.0
  0
LINE
  5
1D6
330
E3
100
AcDbEntity
  8
0
  6
Continuous
100
AcDbLine
 10
155.8947237042299
 20
169.3182602916917
 30
0.0
 11
82.38225515392949
 21
119.0737660718318
 31
0.0
  0
LINE
  5
1D7
330
E3
100
AcDbEntity
  8
0
  6
Continuous
100
AcDbLine
 10
154.1313687665698
 20
170.1088615764299
 30
0.0
 11
80.24803325417356
 21
119.8365187070869
 31
0.0
  0
LINE
  5
1D8
330
E3
100
AcDbEntity
  8
0
  6
Continuous
100
AcDbLine
 10
151.8087685461605
 20
171.1502019149721
 30
0.0
 11
79.03995688072531
 21
121.9271001733563
 31
0.0
  0
LINE
  5
1D9
330
E3
100
AcDbEntity
  8
0
  6
Continuous
100
AcDbLine
 10
150.1208889987407
 20
171.9069669273489
 30
0.0
 11
76.98009054861024
 21
122.6434177158099
 31
0.0
  0
LINE
  5
1DA
330
E3
100
AcDbEntity
  8
0
  6
Continuous
100
AcDbLine
 10
145.8430981085524
 20
173.8249161499236
 30
0.0
 11
145.7040670724168
 21
174.2401940356909
 31
0.0
  0
LINE
  5
1DB
330
E3
100
AcDbEntity
  8
0
  6
Continuous
100
AcDbLine
 10
207.1423928801634
 20
146.3412994511658
 30
0.0
 11
145.8430981085524
 21
173.8249161499236
 31
0.0
  0
LINE
  5
1DC
330
E3
100
AcDbEntity
  8
0
  6
Continuous
100
AcDbLine
 10
207.1423928801634
 20
146.3412994511658
 30
0.0
 11
207.0305020343154
 21
146.8249942535294
 31
0.0
  0
LINE
  5
1DD
330
E3
100
AcDbEntity
  8
0
  6
Continuous
100
AcDbLine
 10
207.0305020343154
 20
146.8249942535294
 30
0.0
 11
145.7040670724168
 21
174.2401940356909
 31
0.0
  0
LINE
  5
1DE
330
E3
100
AcDbEntity
  8
0
  6
Continuous
100
AcDbLine
 10
150.5949689977365
 20
177.495211441922
 30
0.0
 11
145.7040670724168
 21
174.2401940356909
 31
0.0
  0
LINE
  5
1DF
330
E3
100
AcDbEntity
  8
0
  6
Continuous
100
AcDbLine
 10
207.2489784440172
 20
146.4244405657889
 30
0.0
 11
207.1423928801634
 21
146.3412994511658
 31
0.0
  0
LINE
  5
1E0
330
E3
100
AcDbEntity
  8
0
  6
Continuous
100
AcDbLine
 10
207.2489784440172
 20
146.4244405657889
 30
0.0
 11
207.1651713124545
 21
146.7871227020636
 31
0.0
  0
LINE
  5
1E1
330
E3
100
AcDbEntity
  8
0
  6
Continuous
100
AcDbLine
 10
212.460704646875
 20
150.9142468484074
 30
0.0
 11
207.1651713124545
 21
146.7871227020636
 31
0.0
  0
LINE
  5
1E2
330
E3
100
AcDbEntity
  8
0
  6
Continuous
100
AcDbLine
 10
212.460704646875
 20
150.9142468484074
 30
0.0
 11
212.4723958559957
 21
151.0648940035184
 31
0.0
  0
LINE
  5
1E3
330
E3
100
AcDbEntity
  8
0
  6
Continuous
100
AcDbLine
 10
212.4723958559957
 20
151.0648940035184
 30
0.0
 11
207.0305020343154
 21
146.8249942535294
 31
0.0
  0
LINE
  5
1E4
330
E3
100
AcDbEntity
  8
0
  6
Continuous
100
AcDbLine
 10
212.4723958559957
 20
151.0648940035184
 30
0.0
 11
150.5949689977365
 21
177.495211441922
 31
0.0
  0
LINE
  5
1E5
330
E3
100
AcDbEntity
  8
0
  6
Continuous
100
AcDbLine
 10
207.1423928801634
 20
146.3412994511658
 30
0.0
 11
207.0305020343154
 21
146.8249942535294
 31
0.0
  0
LINE
  5
1E6
330
E3
100
AcDbEntity
  8
0
  6
Continuous
100
AcDbLine
 10
207.1423928801634
 20
146.3412994511658
 30
0.0
 11
207.2489784440172
 21
146.4244405657889
 31
0.0
  0
LINE
  5
1E7
330
E3
100
AcDbEntity
  8
0
  6
Continuous
100
AcDbLine
 10
207.2489784440172
 20
146.4244405657889
 30
0.0
 11
207.1651713124545
 21
146.7871227020636
 31
0.0
  0
LINE
  5
1E8
330
E3
100
AcDbEntity
  8
0
  6
Continuous
100
AcDbLine
 10
207.1651713124545
 20
146.7871227020636
 30
0.0
 11
212.460704646875
 21
150.9142468484074
 31
0.0
  0
LINE
  5
1E9
330
E3
100
AcDbEntity
  8
0
  6
Continuous
100
AcDbLine
 10
207.0305020343154
 20
146.8249942535294
 30
0.0
 11
212.4723958559957
 21
151.0648940035184
 31
0.0
  0
LINE
  5
1EA
330
E3
100
AcDbEntity
  8
0
  6
Continuous
100
AcDbLine
 10
74.27709997682719
 20
124.924019691559
 30
0.0
 11
74.2733617935144
 21
124.9682771701513
 31
0.0
  0
LINE
  5
1EB
330
E3
100
AcDbEntity
  8
0
  6
Continuous
100
AcDbLine
 10
125.2954830269465
 20
81.09274949833245
 30
0.0
 11
74.27709997682719
 21
124.924019691559
 31
0.0
  0
LINE
  5
1EC
330
E3
100
AcDbEntity
  8
0
  6
Continuous
100
AcDbLine
 10
125.294164052223
 20
81.14555419431592
 30
0.0
 11
124.7956275194315
 21
81.57375411462647
 31
0.0
  0
LINE
  5
1ED
330
E3
100
AcDbEntity
  8
0
  6
Continuous
100
AcDbLine
 10
124.7956275194315
 20
81.57375411462647
 30
0.0
 11
124.2046778714855
 21
83.36978958937047
 31
0.0
  0
LINE
  5
1EE
330
E3
100
AcDbEntity
  8
0
  6
Continuous
100
AcDbLine
 10
124.2046778714855
 20
83.36978958937047
 30
0.0
 11
123.0979666644089
 21
84.3145933843529
 31
0.0
  0
LINE
  5
1EF
330
E3
100
AcDbEntity
  8
0
  6
Continuous
100
AcDbLine
 10
122.585496012509
 20
83.4720786910063
 30
0.0
 11
123.0979666644089
 21
84.3145933843529
 31
0.0
  0
LINE
  5
1F0
330
E3
100
AcDbEntity
  8
0
  6
Continuous
100
AcDbLine
 10
122.585496012509
 20
83.4720786910063
 30
0.0
 11
119.9542230589199
 21
85.7321255557185
 31
0.0
  0
LINE
  5
1F1
330
E3
100
AcDbEntity
  8
0
  6
Continuous
100
AcDbLine
 10
119.9542230589199
 20
85.7321255557185
 30
0.0
 11
119.3776482765863
 21
87.49064207619998
 31
0.0
  0
LINE
  5
1F2
330
E3
100
AcDbEntity
  8
0
  6
Continuous
100
AcDbLine
 10
119.3776482765863
 20
87.49064207619998
 30
0.0
 11
118.3136633620988
 21
88.39897491416305
 31
0.0
  0
LINE
  5
1F3
330
E3
100
AcDbEntity
  8
0
  6
Continuous
100
AcDbLine
 10
117.8292796892731
 20
87.55727968283522
 30
0.0
 11
118.3136633620988
 21
88.39897491416305
 31
0.0
  0
LINE
  5
1F4
330
E3
100
AcDbEntity
  8
0
  6
Continuous
100
AcDbLine
 10
117.8292796892731
 20
87.55727968283522
 30
0.0
 11
115.298464290736
 21
89.73104797077266
 31
0.0
  0
LINE
  5
1F5
330
E3
100
AcDbEntity
  8
0
  6
Continuous
100
AcDbLine
 10
115.298464290736
 20
89.73104797077266
 30
0.0
 11
114.735608151442
 21
91.45357345820595
 31
0.0
  0
LINE
  5
1F6
330
E3
100
AcDbEntity
  8
0
  6
Continuous
100
AcDbLine
 10
114.735608151442
 20
91.45357345820595
 30
0.0
 11
113.7119205265874
 21
92.32750195053566
 31
0.0
  0
LINE
  5
1F7
330
E3
100
AcDbEntity
  8
0
  6
Continuous
100
AcDbLine
 10
113.253877170764
 20
91.48718119534294
 30
0.0
 11
113.7119205265874
 21
92.32750195053566
 31
0.0
  0
LINE
  5
1F8
330
E3
100
AcDbEntity
  8
0
  6
Continuous
100
AcDbLine
 10
113.253877170764
 20
91.48718119534294
 30
0.0
 11
110.8178679776593
 21
93.5795125884732
 31
0.0
  0
LINE
  5
1F9
330
E3
100
AcDbEntity
  8
0
  6
Continuous
100
AcDbLine
 10
110.8178679776593
 20
93.5795125884732
 30
0.0
 11
110.268119965877
 21
95.26748681477176
 31
0.0
  0
LINE
  5
1FA
330
E3
100
AcDbEntity
  8
0
  6
Continuous
100
AcDbLine
 10
110.268119965877
 20
95.26748681477176
 30
0.0
 11
109.2824834558788
 21
96.10893065735277
 31
0.0
  0
LINE
  5
1FB
330
E3
100
AcDbEntity
  8
0
  6
Continuous
100
AcDbLine
 10
108.8491676113315
 20
95.27046756705523
 30
0.0
 11
109.2824834558788
 21
96.10893065735277
 31
0.0
  0
LINE
  5
1FC
330
E3
100
AcDbEntity
  8
0
  6
Continuous
100
AcDbLine
 10
108.8491676113315
 20
95.27046756705523
 30
0.0
 11
106.502740961388
 21
97.28586094450932
 31
0.0
  0
LINE
  5
1FD
330
E3
100
AcDbEntity
  8
0
  6
Continuous
100
AcDbLine
 10
106.502740961388
 20
97.28586094450932
 30
0.0
 11
105.9655199446897
 21
98.94063553228582
 31
0.0
  0
LINE
  5
1FE
330
E3
100
AcDbEntity
  8
0
  6
Continuous
100
AcDbLine
 10
105.9655199446897
 20
98.94063553228582
 30
0.0
 11
105.0158516142173
 21
99.75137077029032
 31
0.0
  0
LINE
  5
1FF
330
E3
100
AcDbEntity
  8
0
  6
Continuous
100
AcDbLine
 10
104.6057745371987
 20
98.91519956181426
 30
0.0
 11
105.0158516142173
 21
99.75137077029032
 31
0.0
  0
LINE
  5
200
330
E3
100
AcDbEntity
  8
0
  6
Continuous
100
AcDbLine
 10
104.6057745371987
 20
98.91519956181426
 30
0.0
 11
102.3440756892932
 21
100.8578142646756
 31
0.0
  0
LINE
  5
201
330
E3
100
AcDbEntity
  8
0
  6
Continuous
100
AcDbLine
 10
102.3440756892932
 20
100.8578142646756
 30
0.0
 11
101.8188462422961
 21
102.4806690111864
 31
0.0
  0
LINE
  5
202
330
E3
100
AcDbEntity
  8
0
  6
Continuous
100
AcDbLine
 10
101.8188462422961
 20
102.4806690111864
 30
0.0
 11
100.9032133363091
 21
103.2623476278077
 31
0.0
  0
LINE
  5
203
330
E3
100
AcDbEntity
  8
0
  6
Continuous
100
AcDbLine
 10
100.5149940211064
 20
102.4288470166677
 30
0.0
 11
100.9032133363091
 21
103.2623476278077
 31
0.0
  0
LINE
  5
204
330
E3
100
AcDbEntity
  8
0
  6
Continuous
100
AcDbLine
 10
100.5149940211064
 20
102.4288470166677
 30
0.0
 11
98.33351756653006
 21
104.3025583493837
 31
0.0
  0
LINE
  5
205
330
E3
100
AcDbEntity
  8
0
  6
Continuous
100
AcDbLine
 10
98.33351756653006
 20
104.3025583493837
 30
0.0
 11
97.81977364695165
 21
105.8946946969513
 31
0.0
  0
LINE
  5
206
330
E3
100
AcDbEntity
  8
0
  6
Continuous
100
AcDbLine
 10
97.81977364695165
 20
105.8946946969513
 30
0.0
 11
96.93637726675547
 21
106.6488511429815
 31
0.0
  0
LINE
  5
207
330
E3
100
AcDbEntity
  8
0
  6
Continuous
100
AcDbLine
 10
96.56873918090103
 20
105.8183574024363
 30
0.0
 11
96.93637726675547
 21
106.6488511429815
 31
0.0
  0
LINE
  5
208
330
E3
100
AcDbEntity
  8
0
  6
Continuous
100
AcDbLine
 10
96.56873918090103
 20
105.8183574024363
 30
0.0
 11
94.46328986589236
 21
107.6267696919741
 31
0.0
  0
LINE
  5
209
330
E3
100
AcDbEntity
  8
0
  6
Continuous
100
AcDbLine
 10
94.46328986589236
 20
107.6267696919741
 30
0.0
 11
93.96055481455039
 21
109.1893237871424
 31
0.0
  0
LINE
  5
20A
330
E3
100
AcDbEntity
  8
0
  6
Continuous
100
AcDbLine
 10
93.96055481455039
 20
109.1893237871424
 30
0.0
 11
93.10772338821826
 21
109.9173880401281
 31
0.0
  0
LINE
  5
20B
330
E3
100
AcDbEntity
  8
0
  6
Continuous
100
AcDbLine
 10
92.75948794291222
 20
109.0901982659695
 30
0.0
 11
93.10772338821826
 21
109.9173880401281
 31
0.0
  0
LINE
  5
20C
330
E3
100
AcDbEntity
  8
0
  6
Continuous
100
AcDbLine
 10
92.75948794291222
 20
109.0901982659695
 30
0.0
 11
90.72615781513458
 21
110.8366644505493
 31
0.0
  0
LINE
  5
20D
330
E3
100
AcDbEntity
  8
0
  6
Continuous
100
AcDbLine
 10
90.72615781513458
 20
110.8366644505493
 30
0.0
 11
90.23398435594709
 21
112.3707104088728
 31
0.0
  0
LINE
  5
20E
330
E3
100
AcDbEntity
  8
0
  6
Continuous
100
AcDbLine
 10
90.23398435594709
 20
112.3707104088728
 30
0.0
 11
89.41016057916443
 21
113.0740145026933
 31
0.0
  0
LINE
  5
20F
330
E3
100
AcDbEntity
  8
0
  6
Continuous
100
AcDbLine
 10
89.08022101096307
 20
112.2503898780348
 30
0.0
 11
89.41016057916443
 21
113.0740145026933
 31
0.0
  0
LINE
  5
210
330
E3
100
AcDbEntity
  8
0
  6
Continuous
100
AcDbLine
 10
89.08022101096307
 20
112.2503898780348
 30
0.0
 11
87.11536656598234
 21
113.9380376254414
 31
0.0
  0
LINE
  5
211
330
E3
100
AcDbEntity
  8
0
  6
Continuous
100
AcDbLine
 10
87.11536656598234
 20
113.9380376254414
 30
0.0
 11
86.63333680596763
 21
115.4445973258519
 31
0.0
  0
LINE
  5
212
330
E3
100
AcDbEntity
  8
0
  6
Continuous
100
AcDbLine
 10
86.63333680596763
 20
115.4445973258519
 30
0.0
 11
85.83706458287635
 21
116.1243818802966
 31
0.0
  0
LINE
  5
213
330
E3
100
AcDbEntity
  8
0
  6
Continuous
100
AcDbLine
 10
85.52439901284791
 20
115.3045509403624
 30
0.0
 11
85.83706458287635
 21
116.1243818802966
 31
0.0
  0
LINE
  5
214
330
E3
100
AcDbEntity
  8
0
  6
Continuous
100
AcDbLine
 10
85.52439901284791
 20
115.3045509403624
 30
0.0
 11
83.62462160539891
 21
116.9363022366789
 31
0.0
  0
LINE
  5
215
330
E3
100
AcDbEntity
  8
0
  6
Continuous
100
AcDbLine
 10
83.62462160539891
 20
116.9363022366789
 30
0.0
 11
83.1523372403088
 21
118.4163420566966
 31
0.0
  0
LINE
  5
216
330
E3
100
AcDbEntity
  8
0
  6
Continuous
100
AcDbLine
 10
83.1523372403088
 20
118.4163420566966
 30
0.0
 11
82.38225515392949
 21
119.0737660718318
 31
0.0
  0
LINE
  5
217
330
E3
100
AcDbEntity
  8
0
  6
Continuous
100
AcDbLine
 10
82.08591352849838
 20
118.2579279687462
 30
0.0
 11
82.38225515392949
 21
119.0737660718318
 31
0.0
  0
LINE
  5
218
330
E3
100
AcDbEntity
  8
0
  6
Continuous
100
AcDbLine
 10
82.08591352849838
 20
118.2579279687462
 30
0.0
 11
80.24803325417356
 21
119.8365187070869
 31
0.0
  0
LINE
  5
219
330
E3
100
AcDbEntity
  8
0
  6
Continuous
100
AcDbLine
 10
80.24803325417356
 20
119.8365187070869
 30
0.0
 11
79.78511883328233
 21
121.2909495228203
 31
0.0
  0
LINE
  5
21A
330
E3
100
AcDbEntity
  8
0
  6
Continuous
100
AcDbLine
 10
79.78511883328233
 20
121.2909495228203
 30
0.0
 11
79.03995688072531
 21
121.9271001733563
 31
0.0
  0
LINE
  5
21B
330
E3
100
AcDbEntity
  8
0
  6
Continuous
100
AcDbLine
 10
78.75905117730545
 20
121.1154344705098
 30
0.0
 11
79.03995688072531
 21
121.9271001733563
 31
0.0
  0
LINE
  5
21C
330
E3
100
AcDbEntity
  8
0
  6
Continuous
100
AcDbLine
 10
78.75905117730545
 20
121.1154344705098
 30
0.0
 11
76.98008728382133
 21
122.6434177158099
 31
0.0
  0
LINE
  5
21D
330
E3
100
AcDbEntity
  8
0
  6
Continuous
100
AcDbLine
 10
76.98008728382133
 20
122.6434177158099
 30
0.0
 11
76.52619347471456
 21
124.0731112259005
 31
0.0
  0
LINE
  5
21E
330
E3
100
AcDbEntity
  8
0
  6
Continuous
100
AcDbLine
 10
76.52619347471456
 20
124.0731112259005
 30
0.0
 11
75.80476000802425
 21
124.6890005964023
 31
0.0
  0
LINE
  5
21F
330
E3
100
AcDbEntity
  8
0
  6
Continuous
100
AcDbLine
 10
75.53846097023006
 20
123.881660738874
 30
0.0
 11
75.80476000802425
 21
124.6890005964023
 31
0.0
  0
LINE
  5
220
330
E3
100
AcDbEntity
  8
0
  6
Continuous
100
AcDbLine
 10
75.53846097023006
 20
123.881660738874
 30
0.0
 11
74.2733617935144
 21
124.9682771701513
 31
0.0
  0
LINE
  5
221
330
E3
100
AcDbEntity
  8
0
  6
Continuous
100
AcDbLine
 10
125.294164052223
 20
81.14555419431592
 30
0.0
 11
212.3158035202623
 21
149.2006636178246
 31
0.0
  0
LINE
  5
222
330
E3
100
AcDbEntity
  8
0
  6
Continuous
100
AcDbLine
 10
125.2954862917354
 20
81.09274623354354
 30
0.0
 11
212.324611920767
 21
149.1605818042603
 31
0.0
  0
LINE
  5
223
330
E3
100
AcDbEntity
  8
0
  6
Continuous
100
AcDbLine
 10
212.324611920767
 20
149.1605818042603
 30
0.0
 11
212.3158035202623
 21
149.2006636178246
 31
0.0
  0
LINE
  5
224
330
E3
100
AcDbEntity
  8
0
  6
Continuous
100
AcDbLine
 10
145.1950244488825
 20
94.31161212056341
 30
0.0
 11
144.4870876195852
 21
96.10301812461962
 31
0.0
  0
LINE
  5
225
330
E3
100
AcDbEntity
  8
0
  6
Continuous
100
AcDbLine
 10
145.1950244488825
 20
94.31161212056341
 30
0.0
 11
148.1946504770994
 21
96.66831959081428
 31
0.0
  0
LINE
  5
226
330
E3
100
AcDbEntity
  8
0
  6
Continuous
100
AcDbLine
 10
148.1946504770994
 20
96.66831959081428
 30
0.0
 11
147.5017773838766
 21
98.46089112451473
 31
0.0
  0
LINE
  5
227
330
E3
100
AcDbEntity
  8
0
  6
Continuous
100
AcDbLine
 10
144.4870876195852
 20
96.10301812461962
 30
0.0
 11
147.5017773838766
 21
98.46089112451473
 31
0.0
  0
LINE
  5
228
330
E3
100
AcDbEntity
  8
0
  6
Continuous
100
AcDbLine
 10
181.7965501715059
 20
123.0682222556442
 30
0.0
 11
181.2650360058388
 21
124.8680481503237
 31
0.0
  0
LINE
  5
229
330
E3
100
AcDbEntity
  8
0
  6
Continuous
100
AcDbLine
 10
181.7965501715059
 20
123.0682222556442
 30
0.0
 11
184.4745389897437
 21
125.1722317987393
 31
0.0
  0
LINE
  5
22A
330
E3
100
AcDbEntity
  8
0
  6
Continuous
100
AcDbLine
 10
184.4745389897437
 20
125.1722317987393
 30
0.0
 11
183.9553036952027
 21
126.9721784906089
 31
0.0
  0
LINE
  5
22B
330
E3
100
AcDbEntity
  8
0
  6
Continuous
100
AcDbLine
 10
181.2650360058388
 20
124.8680481503237
 30
0.0
 11
183.9553036952027
 21
126.9721784906089
 31
0.0
  0
LINE
  5
22C
330
E3
100
AcDbEntity
  8
0
  6
Continuous
100
AcDbLine
 10
155.3669216035642
 20
176.5496763342216
 30
0.0
 11
150.5949689977365
 21
177.495211441922
 31
0.0
  0
LINE
  5
22D
330
E3
100
AcDbEntity
  8
0
  6
Continuous
100
AcDbLine
 10
217.2639339305513
 20
150.166061701311
 30
0.0
 11
212.460704646875
 21
150.9142468484074
 31
0.0
  0
LINE
  5
22E
330
E3
100
AcDbEntity
  8
0
  6
Continuous
100
AcDbLine
 10
217.2639339305513
 20
150.166061701311
 30
0.0
 11
217.1237112464602
 21
149.7371761753273
 31
0.0
  0
LINE
  5
22F
330
E3
100
AcDbEntity
  8
0
  6
Continuous
100
AcDbLine
 10
217.2182301504677
 20
149.7225793040684
 30
0.0
 11
217.1237112464602
 21
149.7371761753273
 31
0.0
  0
LINE
  5
230
330
E3
100
AcDbEntity
  8
0
  6
Continuous
100
AcDbLine
 10
217.4051784935742
 20
150.2943026100677
 30
0.0
 11
217.2182301504677
 21
149.7225793040684
 31
0.0
  0
LINE
  5
231
330
E3
100
AcDbEntity
  8
0
  6
Continuous
100
AcDbLine
 10
217.4051784935742
 20
150.2943026100677
 30
0.0
 11
212.4723958559957
 21
151.0648940035184
 31
0.0
  0
LINE
  5
232
330
E3
100
AcDbEntity
  8
0
  6
Continuous
100
AcDbLine
 10
155.3669216035642
 20
176.5496763342216
 30
0.0
 11
217.4051784935742
 21
150.2943026100677
 31
0.0
  0
LINE
  5
233
330
E3
100
AcDbEntity
  8
0
  6
Continuous
100
AcDbLine
 10
217.1237112464602
 20
149.7371761753273
 30
0.0
 11
215.450843198492
 21
150.4484822667895
 31
0.0
  0
LINE
  5
234
330
E3
100
AcDbEntity
  8
0
  6
Continuous
100
AcDbLine
 10
212.6213028786126
 20
150.0741840115393
 30
0.0
 11
212.324611920767
 21
149.1605818042603
 31
0.0
  0
LINE
  5
235
330
E3
100
AcDbEntity
  8
0
  6
Continuous
100
AcDbLine
 10
212.545435713702
 20
150.4953319877838
 30
0.0
 11
212.6213028786126
 21
150.0741840115393
 31
0.0
  0
LINE
  5
236
330
E3
100
AcDbEntity
  8
0
  6
Continuous
100
AcDbLine
 10
212.1440201216867
 20
150.6674386004624
 30
0.0
 11
212.545435713702
 21
150.4953319877838
 31
0.0
  0
LINE
  5
237
330
E3
100
AcDbEntity
  8
0
  6
Continuous
100
AcDbLine
 10
230.5970249874966
 20
146.4102550579339
 30
0.0
 11
212.324611920767
 21
149.1605818042603
 31
0.0
  0
LINE
  5
238
330
E3
100
AcDbEntity
  8
0
  6
Continuous
100
AcDbLine
 10
230.6855497390479
 20
147.303948582382
 30
0.0
 11
230.5970249874966
 21
146.4102550579339
 31
0.0
  0
LINE
  5
239
330
E3
100
AcDbEntity
  8
0
  6
Continuous
100
AcDbLine
 10
230.6855497390479
 20
147.303948582382
 30
0.0
 11
212.6213028786126
 21
150.0741840115393
 31
0.0
  0
LINE
  5
23A
330
E3
100
AcDbEntity
  8
0
  6
Continuous
100
AcDbLine
 10
230.6855497390479
 20
147.303948582382
 30
0.0
 11
230.5324507274584
 21
147.7151422172111
 31
0.0
  0
LINE
  5
23B
330
E3
100
AcDbEntity
  8
0
  6
Continuous
100
AcDbLine
 10
230.5324507274584
 20
147.7151422172111
 30
0.0
 11
229.2205050945373
 21
148.2593237638857
 31
0.0
  0
LINE
  5
23C
330
E3
100
AcDbEntity
  8
0
  6
Continuous
100
AcDbLine
 10
212.4108578496526
 20
150.8753991250547
 30
0.0
 11
215.6222021745081
 21
150.3756187076848
 31
0.0
  0
LINE
  5
23D
330
E3
100
AcDbEntity
  8
0
  6
Continuous
100
AcDbLine
 10
217.3441399999359
 20
150.1076350388082
 30
0.0
 11
229.2205050945373
 21
148.2593237638857
 31
0.0
  0
LINE
  5
23E
330
E3
100
AcDbEntity
  8
0
  6
Continuous
100
AcDbLine
 10
225.246561579506
 20
148.8777890528449
 30
0.0
 11
224.7954297818251
 21
150.0948044183547
 31
0.0
  0
LINE
  5
23F
330
E3
100
AcDbEntity
  8
0
  6
Continuous
100
AcDbLine
 10
224.7954297818251
 20
150.0948044183547
 30
0.0
 11
223.5256586921657
 21
150.6214932259988
 31
0.0
  0
LINE
  5
240
330
E3
100
AcDbEntity
  8
0
  6
Continuous
100
AcDbLine
 10
212.4355657721951
 20
152.3975057502997
 30
0.0
 11
223.5256586921657
 21
150.6214932259988
 31
0.0
  0
LINE
  5
241
330
E3
100
AcDbEntity
  8
0
  6
Continuous
100
AcDbLine
 10
219.6696262937498
 20
151.2390149909603
 30
0.0
 11
219.2416973509196
 21
152.3984394799307
 31
0.0
  0
LINE
  5
242
330
E3
100
AcDbEntity
  8
0
  6
Continuous
100
AcDbLine
 10
219.2416973509196
 20
152.3984394799307
 30
0.0
 11
218.0120962241253
 21
152.9084680697187
 31
0.0
  0
LINE
  5
243
330
E3
100
AcDbEntity
  8
0
  6
Continuous
100
AcDbLine
 10
206.9204427350512
 20
154.731575174183
 30
0.0
 11
218.0120962241253
 21
152.9084680697187
 31
0.0
  0
LINE
  5
244
330
E3
100
AcDbEntity
  8
0
  6
Continuous
100
AcDbLine
 10
214.2690744941568
 20
153.5236979528588
 30
0.0
 11
213.8626050088942
 21
154.6296386697505
 31
0.0
  0
LINE
  5
245
330
E3
100
AcDbEntity
  8
0
  6
Continuous
100
AcDbLine
 10
213.8626050088942
 20
154.6296386697505
 30
0.0
 11
212.6712965913364
 21
155.1237807966564
 31
0.0
  0
LINE
  5
246
330
E3
100
AcDbEntity
  8
0
  6
Continuous
100
AcDbLine
 10
201.5838057081346
 20
156.9901071768366
 30
0.0
 11
212.6712965913364
 21
155.1237807966564
 31
0.0
  0
LINE
  5
247
330
E3
100
AcDbEntity
  8
0
  6
Continuous
100
AcDbLine
 10
209.0366266760271
 20
155.7355957105867
 30
0.0
 11
208.6500397552841
 21
156.7917614556122
 31
0.0
  0
LINE
  5
248
330
E3
100
AcDbEntity
  8
0
  6
Continuous
100
AcDbLine
 10
208.6500397552841
 20
156.7917614556122
 30
0.0
 11
207.4952643257351
 21
157.2707516971429
 31
0.0
  0
LINE
  5
249
330
E3
100
AcDbEntity
  8
0
  6
Continuous
100
AcDbLine
 10
196.4171270627876
 20
159.1767093500164
 30
0.0
 11
207.4952643257351
 21
157.2707516971429
 31
0.0
  0
LINE
  5
24A
330
E3
100
AcDbEntity
  8
0
  6
Continuous
100
AcDbLine
 10
203.9645159065214
 20
157.8782048530767
 30
0.0
 11
203.5963881023291
 21
158.8879681531898
 31
0.0
  0
LINE
  5
24B
330
E3
100
AcDbEntity
  8
0
  6
Continuous
100
AcDbLine
 10
203.5963881023291
 20
158.8879681531898
 30
0.0
 11
202.4764904128067
 21
159.3524888502294
 31
0.0
  0
LINE
  5
24C
330
E3
100
AcDbEntity
  8
0
  6
Continuous
100
AcDbLine
 10
191.4124145957354
 20
161.2947672798321
 30
0.0
 11
202.4764904128067
 21
159.3524888502294
 31
0.0
  0
LINE
  5
24D
330
E3
100
AcDbEntity
  8
0
  6
Continuous
100
AcDbLine
 10
199.0454519119825
 20
159.9548032284041
 30
0.0
 11
198.6944936327176
 21
160.9212264556112
 31
0.0
  0
LINE
  5
24E
330
E3
100
AcDbEntity
  8
0
  6
Continuous
100
AcDbLine
 10
198.6944936327176
 20
160.9212264556112
 30
0.0
 11
197.6079196436962
 21
161.3719273011547
 31
0.0
  0
LINE
  5
24F
330
E3
100
AcDbEntity
  8
0
  6
Continuous
100
AcDbLine
 10
186.5621690868299
 20
163.3474510763243
 30
0.0
 11
197.6079196436962
 21
161.3719273011547
 31
0.0
  0
LINE
  5
250
330
E3
100
AcDbEntity
  8
0
  6
Continuous
100
AcDbLine
 10
194.2725786356794
 20
161.9684499437863
 30
0.0
 11
193.9376210869088
 21
162.8943310221915
 31
0.0
  0
LINE
  5
251
330
E3
100
AcDbEntity
  8
0
  6
Continuous
100
AcDbLine
 10
193.9376210869088
 20
162.8943310221915
 30
0.0
 11
192.8829016433747
 21
163.3318192669779
 31
0.0
  0
LINE
  5
252
330
E3
100
AcDbEntity
  8
0
  6
Continuous
100
AcDbLine
 10
181.8593483863718
 20
165.3377447565655
 30
0.0
 11
192.8829016433747
 21
163.3318192669779
 31
0.0
  0
LINE
  5
253
330
E3
100
AcDbEntity
  8
0
  6
Continuous
100
AcDbLine
 10
189.6394513842852
 20
163.9220212782613
 30
0.0
 11
189.3194302448212
 21
164.8099165375885
 31
0.0
  0
LINE
  5
254
330
E3
100
AcDbEntity
  8
0
  6
Continuous
100
AcDbLine
 10
189.3194302448212
 20
164.8099165375885
 30
0.0
 11
188.2951843410614
 21
165.2347635196788
 31
0.0
  0
LINE
  5
255
330
E3
100
AcDbEntity
  8
0
  6
Continuous
100
AcDbLine
 10
177.2973347672215
 20
167.2684462446597
 30
0.0
 11
188.2951843410614
 21
165.2347635196788
 31
0.0
  0
LINE
  5
256
330
E3
100
AcDbEntity
  8
0
  6
Continuous
100
AcDbLine
 10
185.1400041799876
 20
165.8182074178989
 30
0.0
 11
184.8339400131543
 21
166.6704544470144
 31
0.0
  0
LINE
  5
257
330
E3
100
AcDbEntity
  8
0
  6
Continuous
100
AcDbLine
 10
184.8339400131543
 20
166.6704544470144
 30
0.0
 11
183.8388682631788
 21
167.0831988565802
 31
0.0
  0
LINE
  5
258
330
E3
100
AcDbEntity
  8
0
  6
Continuous
100
AcDbLine
 10
172.8698924825427
 20
169.1421967548427
 30
0.0
 11
183.8388682631788
 21
167.0831988565802
 31
0.0
  0
LINE
  5
259
330
E3
100
AcDbEntity
  8
0
  6
Continuous
100
AcDbLine
 10
180.7685073182327
 20
167.6595418389005
 30
0.0
 11
180.475515366233
 21
168.4782888689134
 31
0.0
  0
LINE
  5
25A
330
E3
100
AcDbEntity
  8
0
  6
Continuous
100
AcDbLine
 10
180.475515366233
 20
168.4782888689134
 30
0.0
 11
179.5083869446192
 21
168.8794432778151
 31
0.0
  0
LINE
  5
25B
330
E3
100
AcDbEntity
  8
0
  6
Continuous
100
AcDbLine
 10
168.571157971436
 20
170.9614775266933
 30
0.0
 11
179.5083869446192
 21
168.8794432778151
 31
0.0
  0
LINE
  5
25C
330
E3
100
AcDbEntity
  8
0
  6
Continuous
100
AcDbLine
 10
176.5195673677258
 20
169.4484013075995
 30
0.0
 11
176.2388281685408
 21
170.235626800595
 31
0.0
  0
LINE
  5
25D
330
E3
100
AcDbEntity
  8
0
  6
Continuous
100
AcDbLine
 10
176.2388281685408
 20
170.235626800595
 30
0.0
 11
175.2984840752223
 21
170.6256711328037
 31
0.0
  0
LINE
  5
25E
330
E3
100
AcDbEntity
  8
0
  6
Continuous
100
AcDbLine
 10
164.395594151894
 20
172.7286261490779
 30
0.0
 11
175.2984840752223
 21
170.6256711328037
 31
0.0
  0
LINE
  5
25F
330
E3
100
AcDbEntity
  8
0
  6
Continuous
100
AcDbLine
 10
172.3880879929634
 20
171.1870287339837
 30
0.0
 11
172.1188506451417
 21
171.9445544421787
 31
0.0
  0
LINE
  5
260
330
E3
100
AcDbEntity
  8
0
  6
Continuous
100
AcDbLine
 10
172.1188506451417
 20
171.9445544421787
 30
0.0
 11
171.2041906462527
 21
172.3239457681432
 31
0.0
  0
LINE
  5
261
330
E3
100
AcDbEntity
  8
0
  6
Continuous
100
AcDbLine
 10
160.3379871560124
 20
174.4458561488838
 30
0.0
 11
171.2041906462527
 21
172.3239457681432
 31
0.0
  0
LINE
  5
262
330
E3
100
AcDbEntity
  8
0
  6
Continuous
100
AcDbLine
 10
217.2639339305513
 20
150.166061701311
 30
0.0
 11
212.460704646875
 21
150.9142468484074
 31
0.0
  0
LINE
  5
263
330
E3
100
AcDbEntity
  8
0
  6
Continuous
100
AcDbLine
 10
217.1237112464602
 20
149.7371761753273
 30
0.0
 11
217.2639339305513
 21
150.166061701311
 31
0.0
  0
LINE
  5
264
330
E3
100
AcDbEntity
  8
0
  6
Continuous
100
AcDbLine
 10
217.2182301504677
 20
149.7225793040684
 30
0.0
 11
217.1237112464602
 21
149.7371761753273
 31
0.0
  0
LINE
  5
265
330
E3
100
AcDbEntity
  8
0
  6
Continuous
100
AcDbLine
 10
217.2182301504677
 20
149.7225793040684
 30
0.0
 11
217.4051784935742
 21
150.2943026100677
 31
0.0
  0
LINE
  5
266
330
E3
100
AcDbEntity
  8
0
  6
Continuous
100
AcDbLine
 10
217.4051784935742
 20
150.2943026100677
 30
0.0
 11
212.4723958559957
 21
151.0648940035184
 31
0.0
  0
LINE
  5
267
330
E3
100
AcDbEntity
  8
0
  6
Continuous
100
AcDbLine
 10
212.324611920767
 20
149.1605818042603
 30
0.0
 11
212.6213028786126
 21
150.0741840115393
 31
0.0
  0
LINE
  5
268
330
E3
100
AcDbEntity
  8
0
  6
Continuous
100
AcDbLine
 10
230.5970249874966
 20
146.4102550579339
 30
0.0
 11
212.324611920767
 21
149.1605818042603
 31
0.0
  0
LINE
  5
269
330
E3
100
AcDbEntity
  8
0
  6
Continuous
100
AcDbLine
 10
230.5970249874966
 20
146.4102550579339
 30
0.0
 11
230.6855497390479
 21
147.303948582382
 31
0.0
  0
LINE
  5
26A
330
E3
100
AcDbEntity
  8
0
  6
Continuous
100
AcDbLine
 10
230.6855497390479
 20
147.303948582382
 30
0.0
 11
212.6213028786126
 21
150.0741840115393
 31
0.0
  0
LINE
  5
26B
330
E3
100
AcDbEntity
  8
Des_ Walls
  6
Continuous
 62
   251
370
    18
100
AcDbLine
 10
147.8525658941176
 20
132.17773097762
 30
0.0
 11
131.8731773249758
 21
126.9984633061995
 31
0.0
  0
LINE
  5
26C
330
E3
100
AcDbEntity
  8
Des_ Walls
  6
Continuous
 62
   251
370
    18
100
AcDbLine
 10
155.2919424612398
 20
131.6660569342165
 30
0.0
 11
130.3718543459921
 21
123.4410937981365
 31
0.0
  0
LINE
  5
26D
330
E3
100
AcDbEntity
  8
Des_ Walls
  6
Continuous
 62
   251
370
    18
100
AcDbLine
 10
155.2919424612398
 20
131.6660569342165
 30
0.0
 11
155.1930879175472
 21
123.3456117813978
 31
0.0
  0
LINE
  5
26E
330
E3
100
AcDbEntity
  8
Des_ Walls
  6
Continuous
 62
   251
370
    18
100
AcDbLine
 10
130.7002496690346
 20
104.897429008822
 30
0.0
 11
130.3718543459921
 21
123.4410937981365
 31
0.0
  0
LINE
  5
26F
330
E3
100
AcDbEntity
  8
Des_ Walls
  6
Continuous
 62
   251
370
    18
100
AcDbLine
 10
138.0881470444746
 20
141.7247442683268
 30
0.0
 11
155.2919424612398
 21
131.6660569342165
 31
0.0
  0
LINE
  5
270
330
E3
100
AcDbEntity
  8
Des_ Walls
  6
Continuous
 62
   251
370
    18
100
AcDbLine
 10
136.841813874468
 20
138.771572921645
 30
0.0
 11
136.9367800545574
 21
129.0980882377758
 31
0.0
  0
LINE
  5
271
330
E3
100
AcDbEntity
  8
Des_ Walls
  6
Continuous
 62
   251
370
    18
100
AcDbLine
 10
136.841813874468
 20
138.771572921645
 30
0.0
 11
147.8525658941176
 21
132.17773097762
 31
0.0
  0
LINE
  5
272
330
E3
100
AcDbEntity
  8
Des_ Walls
  6
Continuous
 62
   251
370
    18
100
AcDbLine
 10
113.9684904934016
 20
134.5082515759478
 30
0.0
 11
138.0881470444746
 21
141.7247442683268
 31
0.0
  0
LINE
  5
273
330
E3
100
AcDbEntity
  8
Des_ Walls
  6
Continuous
 62
   251
370
    18
100
AcDbLine
 10
121.1952019750986
 20
134.0112037869035
 30
0.0
 11
136.841813874468
 21
138.771572921645
 31
0.0
  0
LINE
  5
274
330
E3
100
AcDbEntity
  8
Des_ Walls
  6
Continuous
 62
   251
370
    18
100
AcDbLine
 10
131.8731773249758
 20
126.9984633061995
 30
0.0
 11
121.1952019750986
 21
134.0112037869035
 31
0.0
  0
LINE
  5
275
330
E3
100
AcDbEntity
  8
Des_ Walls
  6
Continuous
 62
   251
370
    18
100
AcDbLine
 10
130.3718543459921
 20
123.4410937981365
 30
0.0
 11
113.9684904934016
 21
134.5082515759478
 31
0.0
  0
LINE
  5
276
330
E3
100
AcDbEntity
  8
Des_ Walls
  6
Continuous
 62
   251
370
    18
100
AcDbLine
 10
114.6598976963996
 20
115.7087742508484
 30
0.0
 11
113.9684904934016
 21
134.5082515759478
 31
0.0
  0
HATCH
  5
277
330
E3
100
AcDbEntity
  8
0
  6
Continuous
 62
   255
370
    18
100
AcDbHatch
 10
0.0
 20
0.0
 30
0.0
210
0.0
220
0.0
230
1.0
  2
SOLID
 70
     1
 71
     0
 91
        1
 92
        3
 72
     0
 73
     1
 93
       11
 10
114.6154007701938
 20
116.9186801767593
 10
114.3249441927753
 20
124.8162187232343
 10
99.63096412756825
 20
114.4006807910808
 10
126.5214417432101
 20
92.64007483945682
 10
200.3502377971513
 20
149.3865703546961
 10
168.2524146752495
 20
163.9624065602709
 10
136.1203420179157
 20
141.1359862522412
 10
138.0881475870196
 20
141.7247449699057
 10
155.291941600546
 20
131.6660582395162
 10
155.1880333997692
 20
122.9201229071582
 10
130.705334656987
 20
104.6102691678443
 97
        0
 75
     0
 76
     1
 98
        0
  0
LINE
  5
278
330
E3
100
AcDbEntity
  8
0
  6
Continuous
100
AcDbLine
 10
114.3249434124179
 20
124.8162196262271
 30
0.0
 11
114.6154018882162
 21
116.9186789060916
 31
0.0
  0
LINE
  5
279
330
E3
100
AcDbEntity
  8
0
  6
Continuous
100
AcDbLine
 10
99.63096427185981
 20
114.4006810688523
 30
0.0
 11
114.3249434124179
 21
124.8162196262271
 31
0.0
  0
LINE
  5
27A
330
E3
100
AcDbEntity
  8
0
  6
Continuous
100
AcDbLine
 10
126.5214406493067
 20
92.64007610647435
 30
0.0
 11
99.63096427185981
 21
114.4006810688523
 31
0.0
  0
LINE
  5
27B
330
E3
100
AcDbEntity
  8
0
  6
Continuous
100
AcDbLine
 10
200.3502378628031
 20
149.3865704932658
 30
0.0
 11
126.5214406493067
 21
92.64007610647435
 31
0.0
  0
LINE
  5
27C
330
E3
100
AcDbEntity
  8
0
  6
Continuous
100
AcDbLine
 10
168.2524133644395
 20
163.9624067171951
 30
0.0
 11
200.3502378628031
 21
149.3865704932658
 31
0.0
  0
LINE
  5
27D
330
E3
100
AcDbEntity
  8
0
  6
Continuous
100
AcDbLine
 10
136.1203412303106
 20
141.1359852937458
 30
0.0
 11
168.2524133644395
 21
163.9624067171951
 31
0.0
  0
LINE
  5
27E
330
E3
100
AcDbEntity
  8
0
  6
Continuous
100
AcDbLine
 10
138.0881470444746
 20
141.7247442683268
 30
0.0
 11
136.1203412303106
 21
141.1359852937458
 31
0.0
  0
LINE
  5
27F
330
E3
100
AcDbEntity
  8
0
  6
Continuous
100
AcDbLine
 10
155.2919424612398
 20
131.6660569342165
 30
0.0
 11
138.0881470444746
 21
141.7247442683268
 31
0.0
  0
LINE
  5
280
330
E3
100
AcDbEntity
  8
0
  6
Continuous
100
AcDbLine
 10
155.1880340242999
 20
122.9201216358904
 30
0.0
 11
155.2919424612398
 21
131.6660569342165
 31
0.0
  0
LINE
  5
281
330
E3
100
AcDbEntity
  8
0
  6
Continuous
100
AcDbLine
 10
130.7053362101711
 20
104.6102679698324
 30
0.0
 11
155.1880340242999
 21
122.9201216358904
 31
0.0
  0
LINE
  5
282
330
E3
100
AcDbEntity
  8
0
  6
Continuous
100
AcDbLine
 10
114.6154018882162
 20
116.9186789060916
 30
0.0
 11
130.7053362101711
 21
104.6102679698324
 31
0.0
  0
HATCH
  5
283
330
E3
100
AcDbEntity
  8
0
  6
Continuous
 62
   255
370
    18
100
AcDbHatch
 10
0.0
 20
0.0
 30
0.0
210
0.0
220
0.0
230
1.0
  2
SOLID
 70
     1
 71
     0
 91
        1
 92
        3
 72
     0
 73
     1
 93
        4
 10
155.1880333997692
 20
122.9201229071582
 10
157.4779601827992
 20
138.9368224534898
 10
149.7309461779027
 20
134.917452136788
 10
155.291941600546
 20
131.6660582395162
 97
        0
 75
     0
 76
     1
 98
        0
  0
LINE
  5
284
330
E3
100
AcDbEntity
  8
0
  6
Continuous
100
AcDbLine
 10
155.1880340242999
 20
122.9201216358904
 30
0.0
 11
157.477960237203
 21
138.9368234775928
 31
0.0
  0
LINE
  5
285
330
E3
100
AcDbEntity
  8
0
  6
Continuous
100
AcDbLine
 10
157.477960237203
 20
138.9368234775928
 30
0.0
 11
149.7309458749884
 21
134.917453689536
 31
0.0
  0
LINE
  5
286
330
E3
100
AcDbEntity
  8
0
  6
Continuous
100
AcDbLine
 10
149.7309458749884
 20
134.917453689536
 30
0.0
 11
155.2919424612398
 21
131.6660569342165
 31
0.0
  0
LINE
  5
287
330
E3
100
AcDbEntity
  8
0
  6
Continuous
100
AcDbLine
 10
155.2919424612398
 20
131.6660569342165
 30
0.0
 11
155.1880340242999
 21
122.9201216358904
 31
0.0
  0
LINE
  5
288
330
E3
100
AcDbEntity
  8
0
  6
Continuous
100
AcDbLine
 10
137.6350204607639
 20
81.2242911086867
 30
0.0
 11
151.5113821882752
 21
92.72403668311631
 31
0.0
  0
LINE
  5
28A
330
E3
100
AcDbEntity
  8
0
  6
Contour Line
100
AcDbLine
 10
200.6327531071603
 20
148.6675562351648
 30
0.0
 11
204.2852095925028
 21
151.6530685808828
 31
0.0
  0
LINE
  5
28B
330
E3
100
AcDbEntity
  8
0
  6
Contour Line
100
AcDbLine
 10
203.894522096877
 20
152.454776677525
 30
0.0
 11
171.8515852298274
 21
166.4127842463344
 31
0.0
  0
LINE
  5
28C
330
E3
100
AcDbEntity
  8
0
  6
Contour Line
100
AcDbLine
 10
167.7646016632484
 20
163.6302960643623
 30
0.0
 11
171.8515852298274
 21
166.4127842463344
 31
0.0
  0
LINE
  5
28D
330
E3
100
AcDbEntity
  8
0
  6
Contour Line
100
AcDbLine
 10
203.894522096877
 20
152.454776677525
 30
0.0
 11
204.2852095925028
 21
151.6530685808828
 31
0.0
  0
LINE
  5
28E
330
E3
100
AcDbEntity
  8
0
  6
Contour Line
100
AcDbLine
 10
203.4121985058595
 20
152.0372395578254
 30
0.0
 11
171.4169602049233
 21
166.1168833674074
 31
0.0
  0
LINE
  5
28F
330
E3
100
AcDbEntity
  8
0
  6
Contour Line
100
AcDbLine
 10
165.9063229877547
 20
162.5527492167033
 30
0.0
 11
171.397714274243
 21
166.3173250831181
 31
0.0
  0
LINE
  5
290
330
E3
100
AcDbEntity
  8
0
  6
Contour Line
100
AcDbLine
 10
171.397714274243
 20
166.3173250831181
 30
0.0
 11
171.8515852298274
 21
166.4127842463344
 31
0.0
  0
LINE
  5
291
330
E3
100
AcDbEntity
  8
0
  6
Contour Line
100
AcDbLine
 10
201.0048117172117
 20
149.9532203172842
 30
0.0
 11
168.552793533764
 21
164.3670152727736
 31
0.0
  0
ELLIPSE
  5
292
330
E3
100
AcDbEntity
  8
0
  6
Continuous
100
AcDbEllipse
 10
148.8386472430126
 20
173.5299863456887
 30
0.0
 11
0.299541041128192
 21
0.0
 31
0.0
210
0.0
220
0.0
230
1.0
 40
0.5714285714285678
 41
0.0
 42
6.283185307179586
  0
ELLIPSE
  5
293
330
E3
100
AcDbEntity
  8
0
  6
Continuous
100
AcDbEllipse
 10
148.8386472430126
 20
173.6570191692837
 30
0.0
 11
0.1809583230519508
 21
0.0
 31
0.0
210
0.0
220
0.0
230
1.0
 40
0.7020004465807895
 41
0.0
 42
6.283185307179586
  0
ELLIPSE
  5
294
330
E3
100
AcDbEntity
  8
0
  6
Continuous
100
AcDbEllipse
 10
152.850449465738
 20
171.7312611347627
 30
0.0
 11
0.299541041128192
 21
0.0
 31
0.0
210
0.0
220
0.0
230
1.0
 40
0.5714285714285678
 41
0.0
 42
6.283185307179586
  0
ELLIPSE
  5
295
330
E3
100
AcDbEntity
  8
0
  6
Continuous
100
AcDbEllipse
 10
152.850449465738
 20
171.8582939583577
 30
0.0
 11
0.1809583230519508
 21
0.0
 31
0.0
210
0.0
220
0.0
230
1.0
 40
0.7020004465807893
 41
0.0
 42
6.283185307179586
  0
ELLIPSE
  5
296
330
E3
100
AcDbEntity
  8
0
  6
Continuous
100
AcDbEllipse
 10
161.1635380403257
 20
168.0208627925038
 30
0.0
 11
0.299541041128192
 21
0.0
 31
0.0
210
0.0
220
0.0
230
1.0
 40
0.5714285714285678
 41
0.0
 42
6.283185307179586
  0
ELLIPSE
  5
297
330
E3
100
AcDbEntity
  8
0
  6
Continuous
100
AcDbEllipse
 10
161.1635380403257
 20
168.1478956160987
 30
0.0
 11
0.1809583230519508
 21
0.0
 31
0.0
210
0.0
220
0.0
230
1.0
 40
0.7020004465807893
 41
0.0
 42
6.283185307179586
  0
ELLIPSE
  5
298
330
E3
100
AcDbEntity
  8
0
  6
Continuous
100
AcDbEllipse
 10
169.7268344276531
 20
164.0652315934854
 30
0.0
 11
0.299541041128192
 21
0.0
 31
0.0
210
0.0
220
0.0
230
1.0
 40
0.5714285714285678
 41
0.0
 42
6.283185307179586
  0
ELLIPSE
  5
299
330
E3
100
AcDbEntity
  8
0
  6
Continuous
100
AcDbEllipse
 10
169.7268344276531
 20
164.1922644170804
 30
0.0
 11
0.1809583230519508
 21
0.0
 31
0.0
210
0.0
220
0.0
230
1.0
 40
0.7020004465807895
 41
0.0
 42
6.283185307179586
  0
ELLIPSE
  5
29A
330
E3
100
AcDbEntity
  8
0
  6
Continuous
100
AcDbEllipse
 10
178.4177238982131
 20
160.2708805852799
 30
0.0
 11
0.299541041128192
 21
0.0
 31
0.0
210
0.0
220
0.0
230
1.0
 40
0.5714285714285678
 41
0.0
 42
6.283185307179586
  0
ELLIPSE
  5
29B
330
E3
100
AcDbEntity
  8
0
  6
Continuous
100
AcDbEllipse
 10
178.4177238982131
 20
160.3979134088748
 30
0.0
 11
0.1809583230519508
 21
0.0
 31
0.0
210
0.0
220
0.0
230
1.0
 40
0.7020004465807893
 41
0.0
 42
6.283185307179586
  0
ELLIPSE
  5
29C
330
E3
100
AcDbEntity
  8
0
  6
Continuous
100
AcDbEllipse
 10
189.7516425930624
 20
155.1225616380628
 30
0.0
 11
0.299541041128192
 21
0.0
 31
0.0
210
0.0
220
0.0
230
1.0
 40
0.5714285714285678
 41
0.0
 42
6.283185307179586
  0
ELLIPSE
  5
29D
330
E3
100
AcDbEntity
  8
0
  6
Continuous
100
AcDbEllipse
 10
189.7516425930624
 20
155.2495944616578
 30
0.0
 11
0.1809583230519508
 21
0.0
 31
0.0
210
0.0
220
0.0
230
1.0
 40
0.7020004465807893
 41
0.0
 42
6.283185307179586
  0
ELLIPSE
  5
29E
330
E3
100
AcDbEntity
  8
0
  6
Continuous
100
AcDbEllipse
 10
200.5976478845907
 20
150.454020049957
 30
0.0
 11
0.299541041128192
 21
0.0
 31
0.0
210
0.0
220
0.0
230
1.0
 40
0.5714285714285678
 41
0.0
 42
6.283185307179586
  0
ELLIPSE
  5
29F
330
E3
100
AcDbEntity
  8
0
  6
Continuous
100
AcDbEllipse
 10
200.5976478845907
 20
150.581052873552
 30
0.0
 11
0.1809583230519508
 21
0.0
 31
0.0
210
0.0
220
0.0
230
1.0
 40
0.7020004465807893
 41
0.0
 42
6.283185307179586
  0
ELLIPSE
  5
2A0
330
E3
100
AcDbEntity
  8
0
  6
Continuous
100
AcDbEllipse
 10
100.481510900488
 20
114.3113798586244
 30
0.0
 11
0.2891162173178097
 21
-0.0783367615108149
 31
0.0
210
0.0
220
0.0
230
1.0
 40
0.5714285714285678
 41
0.0
 42
6.283185307179586
  0
ELLIPSE
  5
2A1
330
E3
100
AcDbEntity
  8
0
  6
Continuous
100
AcDbEllipse
 10
100.5147328588832
 20
114.4339916025598
 30
0.0
 11
0.1746604927855751
 21
-0.04732469695279904
 31
0.0
210
0.0
220
0.0
230
1.0
 40
0.7020004465807894
 41
0.0
 42
6.283185307179586
  0
ELLIPSE
  5
2A2
330
E3
100
AcDbEntity
  8
0
  6
Continuous
100
AcDbEllipse
 10
108.1908247031978
 20
108.3397355212254
 30
0.0
 11
0.2891162173178097
 21
-0.0783367615108149
 31
0.0
210
0.0
220
0.0
230
1.0
 40
0.5714285714285678
 41
0.0
 42
6.283185307179586
  0
ELLIPSE
  5
2A3
330
E3
100
AcDbEntity
  8
0
  6
Continuous
100
AcDbEllipse
 10
108.224046661593
 20
108.4623472651609
 30
0.0
 11
0.174660492785575
 21
-0.0473246969527991
 31
0.0
210
0.0
220
0.0
230
1.0
 40
0.7020004465807895
 41
0.0
 42
6.283185307179586
  0
ELLIPSE
  5
2A4
330
E3
100
AcDbEntity
  8
0
  6
Continuous
100
AcDbEllipse
 10
116.815184764047
 20
101.2230955896861
 30
0.0
 11
0.2891162173178097
 21
-0.0783367615108149
 31
0.0
210
0.0
220
0.0
230
1.0
 40
0.5714285714285678
 41
0.0
 42
6.283185307179586
  0
ELLIPSE
  5
2A5
330
E3
100
AcDbEntity
  8
0
  6
Continuous
100
AcDbEllipse
 10
116.8484067224422
 20
101.3457073336215
 30
0.0
 11
0.1746604927855751
 21
-0.04732469695279904
 31
0.0
210
0.0
220
0.0
230
1.0
 40
0.7020004465807894
 41
0.0
 42
6.283185307179586
  0
ELLIPSE
  5
2A6
330
E3
100
AcDbEntity
  8
0
  6
Continuous
100
AcDbEllipse
 10
126.1406006576851
 20
93.73111034633524
 30
0.0
 11
0.2891162173178097
 21
-0.0783367615108149
 31
0.0
210
0.0
220
0.0
230
1.0
 40
0.5714285714285678
 41
0.0
 42
6.283185307179586
  0
ELLIPSE
  5
2A7
330
E3
100
AcDbEntity
  8
0
  6
Continuous
100
AcDbEllipse
 10
126.1738226160802
 20
93.85372209027074
 30
0.0
 11
0.174660492785575
 21
-0.0473246969527991
 31
0.0
210
0.0
220
0.0
230
1.0
 40
0.7020004465807895
 41
0.0
 42
6.283185307179586
  0
HATCH
  5
2A8
330
E3
100
AcDbEntity
  8
0
  6
Continuous
 62
   255
370
    18
100
AcDbHatch
 10
0.0
 20
0.0
 30
0.0
210
0.0
220
0.0
230
1.0
  2
SOLID
 70
     1
 71
     0
 91
        1
 92
        3
 72
     0
 73
     1
 93
        3
 10
157.4779601827992
 20
138.9368224534898
 10
146.3756943994794
 20
136.8791953728559
 10
149.7309461779027
 20
134.917452136788
 97
        0
 75
     0
 76
     1
 98
        0
  0
LINE
  5
2A9
330
E3
100
AcDbEntity
  8
0
  6
Continuous
100
AcDbLine
 10
157.477960237203
 20
138.9368234775928
 30
0.0
 11
146.3756929193518
 21
136.8791967906764
 31
0.0
  0
LINE
  5
2AA
330
E3
100
AcDbEntity
  8
0
  6
Continuous
100
AcDbLine
 10
146.3756929193518
 20
136.8791967906764
 30
0.0
 11
149.7309458749884
 21
134.917453689536
 31
0.0
  0
LINE
  5
2AB
330
E3
100
AcDbEntity
  8
0
  6
Continuous
100
AcDbLine
 10
149.7309458749884
 20
134.917453689536
 30
0.0
 11
157.477960237203
 21
138.9368234775928
 31
0.0
  0
MTEXT
  5
2AD
330
E3
100
AcDbEntity
  8
Doc_ Floor
  6
Continuous
100
AcDbMText
 10
106.8271092870214
 20
172.5955696551869
 30
0.0
 40
2.5
 41
56.68353220040037
 71
     6
 72
     1
  1
\A1;{\fCentury Gothic|b0|i0|c0|p34;TRS 7\PMIN. ROOF PITCH 3\fArial|b0|i0|c0|p34;\H1.029412x;\U+00B0}
  7
GENERATED_STYLE_1
 73
     1
 44
1.056356172275315
  0
LINE
  5
2AE
330
E3
100
AcDbEntity
  8
Doc_ Floor
  6
Continuous
100
AcDbLine
 10
136.5036633621341
 20
156.0257472962265
 30
0.0
 11
133.2124198580526
 21
158.0495866826153
 31
0.0
  0
LINE
  5
2AF
330
E3
100
AcDbEntity
  8
Doc_ Floor
  6
Continuous
100
AcDbLine
 10
136.5036633621341
 20
156.0257472962265
 30
0.0
 11
134.6652803103158
 21
159.4240660824998
 31
0.0
  0
LINE
  5
2B0
330
E3
100
AcDbEntity
  8
Doc_ Floor
  6
Continuous
100
AcDbLine
 10
133.2124198580526
 20
158.0495866826153
 30
0.0
 11
134.6652803103158
 21
159.4240660824998
 31
0.0
  0
LWPOLYLINE
  5
2B1
330
E3
100
AcDbEntity
  8
Doc_ Floor
  6
Continuous
100
AcDbPolyline
 90
       12
 70
   128
 43
0.0
 10
133.9388498491403
 20
158.7368249540498
 10
130.3126751301486
 20
162.3019834816216
 10
126.9223335521212
 20
165.2675931196719
 10
123.7016524229653
 20
167.6719329700022
 10
120.5844590505886
 20
169.5532821344142
 10
119.0439913069135
 20
170.3097974287139
 10
117.5045807428984
 20
170.9499197147097
 10
115.9579557720318
 20
171.4784338801267
 10
114.3958448078021
 20
171.9001248126901
 10
112.8099762636978
 20
172.2197774001252
 10
111.1920785532073
 20
172.4421765301572
 10
107.8271092870214
 20
172.6143539689124
  0
MTEXT
  5
2B2
330
E3
100
AcDbEntity
  8
Doc_ Floor
  6
Continuous
100
AcDbMText
 10
81.44304027756073
 20
102.9972606322075
 30
0.0
 40
2.5
 41
35.02466725567862
 71
     6
 72
     1
  1
{NOTCHED TURN-DOWN OVER TRS 7. 5MM MAX. GAP BETWEEN PAN AND EDGE OF FLASHING}
  7
GENERATED_STYLE_1
 73
     1
 44
0.8499748026595386
  0
LINE
  5
2B3
330
E3
100
AcDbEntity
  8
Doc_ Floor
  6
Continuous
100
AcDbLine
 10
101.6147544925735
 20
111.9614168811949
 30
0.0
 11
98.95533579370962
 21
109.1586151825659
 31
0.0
  0
LINE
  5
2B4
330
E3
100
AcDbEntity
  8
Doc_ Floor
  6
Continuous
100
AcDbLine
 10
101.6147544925735
 20
111.9614168811949
 30
0.0
 11
97.91022788875439
 21
110.8638307591481
 31
0.0
  0
LINE
  5
2B5
330
E3
100
AcDbEntity
  8
Doc_ Floor
  6
Continuous
100
AcDbLine
 10
98.95533579370962
 20
109.1586151825659
 30
0.0
 11
97.91022788875439
 21
110.8638307591481
 31
0.0
  0
LWPOLYLINE
  5
2B6
330
E3
100
AcDbEntity
  8
Doc_ Floor
  6
Continuous
100
AcDbPolyline
 90
        8
 70
   128
 43
0.0
 10
98.43278265017994
 20
110.0112225864212
 10
92.75148216764116
 20
106.7245699497036
 10
90.43281211810584
 20
105.5128371539626
 10
88.40825474605293
 20
104.5636959639992
 10
86.6374044637272
 20
103.8582933228373
 10
85.07985568337341
 20
103.3777761735013
 10
83.69520281723634
 20
103.1032914590154
 10
82.44304027756074
 20
103.0159861224035
  0
MTEXT
  5
2B7
330
E3
100
AcDbEntity
  8
0
  6
Continuous
100
AcDbMText
 10
145.6665570800898
 20
83.05087946046882
 30
0.0
 40
2.5
 41
0.0
 71
     7
 72
     1
  1
{A}
  7
GENERATED_STYLE_1
 73
     1
 44
1.0
  0
HATCH
  5
2B8
330
E3
100
AcDbEntity
  8
0
  6
Continuous
 62
   255
370
    18
100
AcDbHatch
 10
0.0
 20
0.0
 30
0.0
210
0.0
220
0.0
230
1.0
  2
SOLID
 70
     1
 71
     0
 91
        1
 92
        3
 72
     0
 73
     1
 93
        8
 10
155.2504251064727
 20
128.1716220961011
 10
130.4415386921706
 20
119.5061499317856
 10
114.1136274396885
 20
130.561938850668
 10
114.0956674300039
 20
131.0502730107673
 10
113.2397730383964
 20
130.7523124575184
 10
130.4528530466214
 20
118.8672573886913
 10
156.1893072177945
 20
128.1619117334775
 10
155.2554865888409
 20
128.5976461937861
 97
        0
 75
     0
 76
     1
 98
        0
  0
LINE
  5
2B9
330
E3
100
AcDbEntity
  8
0
  6
Continuous
100
AcDbLine
 10
155.2504241405509
 20
128.171622762154
 30
0.0
 11
130.4415380006892
 21
119.5061514515371
 31
0.0
  0
LINE
  5
2BA
330
E3
100
AcDbEntity
  8
0
  6
Continuous
100
AcDbLine
 10
130.4415380006892
 20
119.5061514515371
 30
0.0
 11
114.1136266848165
 21
130.5619379695419
 31
0.0
  0
LINE
  5
2BB
330
E3
100
AcDbEntity
  8
0
  6
Continuous
100
AcDbLine
 10
114.1136266848165
 20
130.5619379695419
 30
0.0
 11
114.0956670809705
 21
131.0502720369601
 31
0.0
  0
LINE
  5
2BC
330
E3
100
AcDbEntity
  8
0
  6
Continuous
100
AcDbLine
 10
114.0956670809705
 20
131.0502720369601
 30
0.0
 11
113.2397732826319
 21
130.752311076225
 31
0.0
  0
LINE
  5
2BD
330
E3
100
AcDbEntity
  8
0
  6
Continuous
100
AcDbLine
 10
113.2397732826319
 20
130.752311076225
 30
0.0
 11
130.4528537590841
 21
118.8672583783088
 31
0.0
  0
LINE
  5
2BE
330
E3
100
AcDbEntity
  8
0
  6
Continuous
100
AcDbLine
 10
130.4528537590841
 20
118.8672583783088
 30
0.0
 11
156.1893056084334
 21
128.1619132799076
 31
0.0
  0
LINE
  5
2BF
330
E3
100
AcDbEntity
  8
0
  6
Continuous
100
AcDbLine
 10
156.1893056084334
 20
128.1619132799076
 30
0.0
 11
155.255487828165
 21
128.5976450682553
 31
0.0
  0
LINE
  5
2C0
330
E3
100
AcDbEntity
  8
0
  6
Continuous
100
AcDbLine
 10
155.255487828165
 20
128.5976450682553
 30
0.0
 11
155.2504241405509
 21
128.171622762154
 31
0.0
  0
HATCH
  5
2C1
330
E3
100
AcDbEntity
  8
0
  6
Continuous
 62
   255
370
    18
100
AcDbHatch
 10
0.0
 20
0.0
 30
0.0
210
0.0
220
0.0
230
1.0
  2
SOLID
 70
     1
 71
     0
 91
        1
 92
        3
 72
     0
 73
     1
 93
        4
 10
113.2397730383964
 20
130.7523124575184
 10
113.4898417035042
 20
126.770085576871
 10
130.5222655264882
 20
114.9477128863921
 10
130.4528530466214
 20
118.8672573886913
 97
        0
 75
     0
 76
     1
 98
        0
  0
LINE
  5
2C2
330
E3
100
AcDbEntity
  8
0
  6
Continuous
100
AcDbLine
 10
113.2397732826319
 20
130.752311076225
 30
0.0
 11
113.4898430547074
 21
126.7700847917049
 31
0.0
  0
LINE
  5
2C3
330
E3
100
AcDbEntity
  8
0
  6
Continuous
100
AcDbLine
 10
113.4898430547074
 20
126.7700847917049
 30
0.0
 11
130.5222664363009
 21
114.9477127762536
 31
0.0
  0
LINE
  5
2C4
330
E3
100
AcDbEntity
  8
0
  6
Continuous
100
AcDbLine
 10
130.5222664363009
 20
114.9477127762536
 30
0.0
 11
130.4528537590841
 21
118.8672583783088
 31
0.0
  0
LINE
  5
2C5
330
E3
100
AcDbEntity
  8
0
  6
Continuous
100
AcDbLine
 10
130.4528537590841
 20
118.8672583783088
 30
0.0
 11
113.2397732826319
 21
130.752311076225
 31
0.0
  0
HATCH
  5
2C6
330
E3
100
AcDbEntity
  8
0
  6
Continuous
 62
   255
370
    18
100
AcDbHatch
 10
0.0
 20
0.0
 30
0.0
210
0.0
220
0.0
230
1.0
  2
SOLID
 70
     1
 71
     0
 91
        1
 92
        3
 72
     0
 73
     1
 93
        4
 10
130.4528530466214
 20
118.8672573886913
 10
130.5222655264882
 20
114.9477128863921
 10
156.173992314189
 20
124.6658786608676
 10
156.1893072177945
 20
128.1619117334775
 97
        0
 75
     0
 76
     1
 98
        0
  0
LINE
  5
2C7
330
E3
100
AcDbEntity
  8
0
  6
Continuous
100
AcDbLine
 10
130.4528537590841
 20
118.8672583783088
 30
0.0
 11
130.5222664363009
 21
114.9477127762536
 31
0.0
  0
LINE
  5
2C8
330
E3
100
AcDbEntity
  8
0
  6
Continuous
100
AcDbLine
 10
130.5222664363009
 20
114.9477127762536
 30
0.0
 11
156.1739937484011
 21
124.6658793612746
 31
0.0
  0
LINE
  5
2C9
330
E3
100
AcDbEntity
  8
0
  6
Continuous
100
AcDbLine
 10
156.1739937484011
 20
124.6658793612746
 30
0.0
 11
156.1893056084334
 21
128.1619132799076
 31
0.0
  0
LINE
  5
2CA
330
E3
100
AcDbEntity
  8
0
  6
Continuous
100
AcDbLine
 10
156.1893056084334
 20
128.1619132799076
 30
0.0
 11
130.4528537590841
 21
118.8672583783088
 31
0.0
  0
LINE
  5
2CB
330
E3
100
AcDbEntity
  8
0
  6
Contour Line
100
AcDbLine
 10
156.1893056084334
 20
128.1619132799076
 30
0.0
 11
155.2504241405509
 21
128.171622762154
 31
0.0
  0
LINE
  5
2CC
330
E3
100
AcDbEntity
  8
0
  6
Continuous
100
AcDbLine
 10
51.55023829147702
 20
65.85440598292024
 30
0.0
 11
151.9433235566875
 21
65.85440598292024
 31
0.0
  0
LINE
  5
2CD
330
E3
100
AcDbEntity
  8
0
  6
Continuous
100
AcDbLine
 10
151.9433235566875
 20
73.940772299791
 30
0.0
 11
151.9433235566875
 21
44.3332177863736
 31
0.0
  0
LINE
  5
2CE
330
E3
100
AcDbEntity
  8
0
  6
Continuous
100
AcDbLine
 10
51.55023829147702
 20
44.3332177863736
 30
0.0
 11
51.55023829147702
 21
65.85440598292024
 31
0.0
  0
LINE
  5
2CF
330
E3
100
AcDbEntity
  8
0
  6
Continuous
100
AcDbLine
 10
127.9733053409494
 20
73.940772299791
 30
0.0
 11
127.9733053409494
 21
44.3332177863736
 31
0.0
  0
LINE
  5
2D0
330
E3
100
AcDbEntity
  8
0
  6
Continuous
100
AcDbLine
 10
51.55023829147702
 20
55.09381188464692
 30
0.0
 11
151.9433235566875
 21
55.09381188464692
 31
0.0
  0
LINE
  5
2D1
330
E3
100
AcDbEntity
  8
0
  6
Continuous
100
AcDbLine
 10
51.55023829147702
 20
44.3332177863736
 30
0.0
 11
151.9433235566875
 21
44.3332177863736
 31
0.0
  0
LINE
  5
2D2
330
E3
100
AcDbEntity
  8
0
  6
Continuous
100
AcDbLine
 10
127.9733053409494
 20
73.940772299791
 30
0.0
 11
151.9433235566875
 21
73.940772299791
 31
0.0
  0
LINE
  5
2D3
330
E3
100
AcDbEntity
  8
0
  6
Continuous
100
AcDbLine
 10
164.6321411682651
 20
63.1801782015177
 30
0.0
 11
252.8513378598541
 21
63.1801782015177
 31
0.0
  0
LINE
  5
2D4
330
E3
100
AcDbEntity
  8
0
  6
Continuous
100
AcDbLine
 10
252.8513378598541
 20
73.940772299791
 30
0.0
 11
252.8513378598541
 21
35.90083608066202
 31
0.0
  0
LINE
  5
2D5
330
E3
100
AcDbEntity
  8
0
  6
Continuous
100
AcDbLine
 10
164.6321411682651
 20
35.90083608066202
 30
0.0
 11
164.6321411682651
 21
73.940772299791
 31
0.0
  0
LINE
  5
2D6
330
E3
100
AcDbEntity
  8
0
  6
Continuous
100
AcDbLine
 10
209.30338278427
 20
73.940772299791
 30
0.0
 11
209.30338278427
 21
35.90083608066202
 31
0.0
  0
LINE
  5
2D7
330
E3
100
AcDbEntity
  8
0
  6
Continuous
100
AcDbLine
 10
164.6321411682651
 20
56.36034103890931
 30
0.0
 11
252.8513378598541
 21
56.36034103890931
 31
0.0
  0
LINE
  5
2D8
330
E3
100
AcDbEntity
  8
0
  6
Continuous
100
AcDbLine
 10
164.6321411682651
 20
73.940772299791
 30
0.0
 11
252.8513378598541
 21
73.940772299791
 31
0.0
  0
LINE
  5
2D9
330
E3
100
AcDbEntity
  8
0
  6
Continuous
100
AcDbLine
 10
164.6321411682651
 20
49.54050714108986
 30
0.0
 11
252.8513378598541
 21
49.54050714108986
 31
0.0
  0
LINE
  5
2DA
330
E3
100
AcDbEntity
  8
0
  6
Continuous
100
AcDbLine
 10
164.6321411682651
 20
42.72066997848148
 30
0.0
 11
252.8513378598541
 21
42.72066997848148
 31
0.0
  0
LINE
  5
2DB
330
E3
100
AcDbEntity
  8
0
  6
Continuous
100
AcDbLine
 10
164.6321411682651
 20
35.90083608066202
 30
0.0
 11
252.8513378598541
 21
35.90083608066202
 31
0.0
  0
MTEXT
  5
2DC
330
E3
100
AcDbEntity
  8
0
  6
Continuous
100
AcDbMText
 10
53.8768994644194
 20
58.74572507664619
 30
0.0
 40
2.5
 41
0.0
 71
     7
 72
     1
  1
{LOW, MEDIUM OR HIGH WIND ZONE.}
  7
GENERATED_STYLE_1
 73
     1
 44
1.0
  0
MTEXT
  5
2DD
330
E3
100
AcDbEntity
  8
0
  6
Continuous
100
AcDbMText
 10
53.8768994644194
 20
48.21807288764124
 30
0.0
 40
2.5
 41
0.0
 71
     7
 72
     1
  1
{VERY HIGH OR EXTRA WIND ZONE.}
  7
GENERATED_STYLE_1
 73
     1
 44
1.0
  0
MTEXT
  5
2DE
330
E3
100
AcDbEntity
  8
0
  6
Continuous
100
AcDbMText
 10
140.2030329303552
 20
59.17438397106465
 30
0.0
 40
2.499999999999999
 41
0.0
 71
     8
 72
     1
  1
{150MM}
  7
GENERATED_STYLE_1
 73
     1
 44
1.0
  0
MTEXT
  5
2DF
330
E3
100
AcDbEntity
  8
0
  6
Continuous
100
AcDbMText
 10
140.2030329303552
 20
47.89926976641669
 30
0.0
 40
2.499999999999999
 41
0.0
 71
     8
 72
     1
  1
{200MM}
  7
GENERATED_STYLE_1
 73
     1
 44
1.0
  0
MTEXT
  5
2E0
330
E3
100
AcDbEntity
  8
0
  6
Continuous
100
AcDbMText
 10
140.0363801630465
 20
68.16549034561838
 30
0.0
 40
2.499999999999999
 41
0.0
 71
     8
 72
     1
  1
{A}
  7
GENERATED_STYLE_1
 73
     1
 44
1.0
  0
MTEXT
  5
2E1
330
E3
100
AcDbEntity
  8
0
  6
Continuous
100
AcDbMText
 10
52.17304157145472
 20
28.92122699590726
 30
0.0
 40
2.5
 41
104.3322757116702
 71
     7
 72
     1
  1
{NOTE: \PA) SUITABLE FOR PENERTATIONS UP TO 1200MM WIDE\PB) SUITABLE ONLY FOR ROOF PITCHES OF 10° OR HIGHER}
  7
GENERATED_STYLE_1
 73
     1
 44
1.054457242623121
  0
MTEXT
  5
2E2
330
E3
100
AcDbEntity
  8
0
  6
Continuous
100
AcDbMText
 10
230.1545470884013
 20
58.25265665218548
 30
0.0
 40
2.5
 41
0.0
 71
     8
 72
     1
  1
{12M}
  7
GENERATED_STYLE_1
 73
     1
 44
1.0
  0
MTEXT
  5
2E3
330
E3
100
AcDbEntity
  8
0
  6
Continuous
100
AcDbMText
 10
168.363612796232
 20
67.61263062224958
 30
0.0
 40
2.5
 41
0.0
 71
     7
 72
     1
  1
{CATCHMENT WIDTH}
  7
GENERATED_STYLE_1
 73
     1
 44
1.0
  0
MTEXT
  5
2E4
330
E3
100
AcDbEntity
  8
0
  6
Continuous
100
AcDbMText
 10
212.7817224648872
 20
64.96167537470714
 30
0.0
 40
2.5
 41
38.07069312393557
 71
     7
 72
     1
  1
{MAX ROOF LENGTH ABOVE PENETRATION}
  7
GENERATED_STYLE_1
 73
     1
 44
1.070162922071087
  0
MTEXT
  5
2E5
330
E3
100
AcDbEntity
  8
0
  6
Continuous
100
AcDbMText
 10
178.1517637178269
 20
58.18912790144014
 30
0.0
 40
2.5
 41
0.0
 71
     7
 72
     1
  1
{0-400MM}
  7
GENERATED_STYLE_1
 73
     1
 44
1.0
  0
MTEXT
  5
2E6
330
E3
100
AcDbEntity
  8
0
  6
Continuous
100
AcDbMText
 10
230.1545470884013
 20
51.36929179488465
 30
0.0
 40
2.5
 41
0.0
 71
     8
 72
     1
  1
{8M}
  7
GENERATED_STYLE_1
 73
     1
 44
1.0
  0
MTEXT
  5
2E7
330
E3
100
AcDbEntity
  8
0
  6
Continuous
100
AcDbMText
 10
178.1517637178269
 20
51.36929179488465
 30
0.0
 40
2.5
 41
0.0
 71
     7
 72
     1
  1
{400-600MM}
  7
GENERATED_STYLE_1
 73
     1
 44
1.0
  0
MTEXT
  5
2E8
330
E3
100
AcDbEntity
  8
0
  6
Continuous
100
AcDbMText
 10
230.1545470884013
 20
44.5494563493485
 30
0.0
 40
2.5
 41
0.0
 71
     8
 72
     1
  1
{6M}
  7
GENERATED_STYLE_1
 73
     1
 44
1.0
  0
MTEXT
  5
2E9
330
E3
100
AcDbEntity
  8
0
  6
Continuous
100
AcDbMText
 10
178.1517637178269
 20
44.5494563493485
 30
0.0
 40
2.5
 41
0.0
 71
     7
 72
     1
  1
{600-800MM}
  7
GENERATED_STYLE_1
 73
     1
 44
1.0
  0
MTEXT
  5
2EA
330
E3
100
AcDbEntity
  8
0
  6
Continuous
100
AcDbMText
 10
230.1545470884013
 20
37.79315031557706
 30
0.0
 40
2.5
 41
0.0
 71
     8
 72
     1
  1
{4M}
  7
GENERATED_STYLE_1
 73
     1
 44
1.0
  0
MTEXT
  5
2EB
330
E3
100
AcDbEntity
  8
0
  6
Continuous
100
AcDbMText
 10
178.1517637178269
 20
37.77979552779401
 30
0.0
 40
2.5
 41
0.0
 71
     7
 72
     1
  1
{800-1200MM}
  7
GENERATED_STYLE_1
 73
     1
 44
1.0
  0
HATCH
  5
2EC
330
E3
100
AcDbEntity
  8
0
  6
Continuous
 62
   255
370
    18
100
AcDbHatch
 10
0.0
 20
0.0
 30
0.0
210
0.0
220
0.0
230
1.0
  2
SOLID
 70
     1
 71
     0
 91
        1
 92
        3
 72
     0
 73
     1
 93
        4
 10
155.1880333997692
 20
122.9201229071582
 10
155.2044101615297
 20
124.2985521190913
 10
130.5222655264882
 20
114.9477128863921
 10
130.705334656987
 20
104.6102691678443
 97
        0
 75
     0
 76
     1
 98
        0
  0
LINE
  5
2ED
330
E3
100
AcDbEntity
  8
0
  6
Continuous
100
AcDbLine
 10
155.1880340242999
 20
122.9201216358904
 30
0.0
 11
155.2044102055199
 21
124.2985514303675
 31
0.0
  0
LINE
  5
2EE
330
E3
100
AcDbEntity
  8
0
  6
Continuous
100
AcDbLine
 10
155.2044102055199
 20
124.2985514303675
 30
0.0
 11
130.5222664363009
 21
114.9477127762536
 31
0.0
  0
LINE
  5
2EF
330
E3
100
AcDbEntity
  8
0
  6
Continuous
100
AcDbLine
 10
130.5222664363009
 20
114.9477127762536
 30
0.0
 11
130.7053362101711
 21
104.6102679698324
 31
0.0
  0
LINE
  5
2F0
330
E3
100
AcDbEntity
  8
0
  6
Continuous
100
AcDbLine
 10
130.7053362101711
 20
104.6102679698324
 30
0.0
 11
155.1880340242999
 21
122.9201216358904
 31
0.0
  0
HATCH
  5
2F1
330
E3
100
AcDbEntity
  8
0
  6
Continuous
 62
   255
370
    18
100
AcDbHatch
 10
0.0
 20
0.0
 30
0.0
210
0.0
220
0.0
230
1.0
  2
SOLID
 70
     1
 71
     0
 91
        1
 92
        3
 72
     0
 73
     1
 93
        4
 10
130.705334656987
 20
104.6102691678443
 10
130.5222655264882
 20
114.9477128863921
 10
114.2711789804371
 20
126.2780993274683
 10
114.6154007701938
 20
116.9186801767593
 97
        0
 75
     0
 76
     1
 98
        0
  0
LINE
  5
2F2
330
E3
100
AcDbEntity
  8
0
  6
Continuous
100
AcDbLine
 10
130.5222664363009
 20
114.9477127762536
 30
0.0
 11
130.7053362101711
 21
104.6102679698324
 31
0.0
  0
LINE
  5
2F3
330
E3
100
AcDbEntity
  8
0
  6
Continuous
100
AcDbLine
 10
114.2711788684921
 20
126.2781006902748
 30
0.0
 11
130.5222664363009
 21
114.9477127762536
 31
0.0
  0
LINE
  5
2F4
330
E3
100
AcDbEntity
  8
0
  6
Continuous
100
AcDbLine
 10
114.6154018882162
 20
116.9186789060916
 30
0.0
 11
114.2711788684921
 21
126.2781006902748
 31
0.0
  0
LINE
  5
2F5
330
E3
100
AcDbEntity
  8
0
  6
Continuous
100
AcDbLine
 10
130.7053362101711
 20
104.6102679698324
 30
0.0
 11
114.6154018882162
 21
116.9186789060916
 31
0.0
  0
HATCH
  5
2F6
330
E3
100
AcDbEntity
  8
0
  6
Continuous
 62
   255
370
    18
100
AcDbHatch
 10
0.0
 20
0.0
 30
0.0
210
0.0
220
0.0
230
1.0
  2
SOLID
 70
     1
 71
     0
 91
        1
 92
        3
 72
     0
 73
     1
 93
        4
 10
126.3951988983044
 20
92.7422344530371
 10
126.689724252049
 20
91.57129869100618
 10
201.101014317012
 20
149.0503135215107
 10
200.3502377971513
 20
149.3865703546961
 97
        0
 75
     0
 76
     1
 98
        0
  0
LINE
  5
2F7
330
E3
100
AcDbEntity
  8
0
  6
Continuous
100
AcDbLine
 10
126.3951977913687
 20
92.74223461655342
 30
0.0
 11
126.6897241941606
 21
91.57129848185302
 31
0.0
  0
LINE
  5
2F8
330
E3
100
AcDbEntity
  8
0
  6
Continuous
100
AcDbLine
 10
126.6897241941606
 20
91.57129848185302
 30
0.0
 11
201.1010152523017
 21
149.0503135585053
 31
0.0
  0
LINE
  5
2F9
330
E3
100
AcDbEntity
  8
0
  6
Continuous
100
AcDbLine
 10
201.1010152523017
 20
149.0503135585053
 30
0.0
 11
200.3502378628031
 21
149.3865704932658
 31
0.0
  0
LINE
  5
2FA
330
E3
100
AcDbEntity
  8
0
  6
Continuous
100
AcDbLine
 10
200.3502378628031
 20
149.3865704932658
 30
0.0
 11
126.3951977913687
 21
92.74223461655342
 31
0.0
  0
HATCH
  5
2FB
330
E3
100
AcDbEntity
  8
0
  6
Continuous
 62
   255
370
    18
100
AcDbHatch
 10
0.0
 20
0.0
 30
0.0
210
0.0
220
0.0
230
1.0
  2
SOLID
 70
     1
 71
     0
 91
        1
 92
        3
 72
     0
 73
     1
 93
        4
 10
99.63096412756825
 20
114.4006807910808
 10
114.3249441927753
 20
124.8162187232343
 10
114.3162329039493
 20
125.0530793924076
 10
99.16352178292831
 20
114.3218724750273
 97
        0
 75
     0
 76
     1
 98
        0
  0
LINE
  5
2FC
330
E3
100
AcDbEntity
  8
0
  6
Continuous
100
AcDbLine
 10
114.3249434124179
 20
124.8162196262271
 30
0.0
 11
99.63096427185981
 21
114.4006810688523
 31
0.0
  0
LINE
  5
2FD
330
E3
100
AcDbEntity
  8
0
  6
Continuous
100
AcDbLine
 10
114.3162329555808
 20
125.0530800623345
 30
0.0
 11
114.3249434124179
 21
124.8162196262271
 31
0.0
  0
LINE
  5
2FE
330
E3
100
AcDbEntity
  8
0
  6
Continuous
100
AcDbLine
 10
99.16352158873727
 20
114.3218723291253
 30
0.0
 11
114.3162329555808
 21
125.0530800623345
 31
0.0
  0
LINE
  5
2FF
330
E3
100
AcDbEntity
  8
0
  6
Continuous
100
AcDbLine
 10
99.63096427185981
 20
114.4006810688523
 30
0.0
 11
99.16352158873727
 21
114.3218723291253
 31
0.0
  0
HATCH
  5
300
330
E3
100
AcDbEntity
  8
0
  6
Continuous
 62
   255
370
    18
100
AcDbHatch
 10
0.0
 20
0.0
 30
0.0
210
0.0
220
0.0
230
1.0
  2
SOLID
 70
     1
 71
     0
 91
        1
 92
        3
 72
     0
 73
     1
 93
        4
 10
136.1203420179157
 20
141.1359862522412
 10
168.2855736397148
 20
163.9849817431179
 10
168.0974496059548
 20
164.0548565859741
 10
135.4718084123166
 20
140.9419478675604
 97
        0
 75
     0
 76
     1
 98
        0
  0
LINE
  5
301
330
E3
100
AcDbEntity
  8
0
  6
Continuous
100
AcDbLine
 10
168.2855738254945
 20
163.9849827325732
 30
0.0
 11
136.1203412303106
 21
141.1359852937458
 31
0.0
  0
LINE
  5
302
330
E3
100
AcDbEntity
  8
0
  6
Continuous
100
AcDbLine
 10
168.097450158377
 20
164.0548557450277
 30
0.0
 11
168.2855738254945
 21
163.9849827325732
 31
0.0
  0
LINE
  5
303
330
E3
100
AcDbEntity
  8
0
  6
Continuous
100
AcDbLine
 10
135.471807235403
 20
140.9419490938951
 30
0.0
 11
168.097450158377
 21
164.0548557450277
 31
0.0
  0
LINE
  5
304
330
E3
100
AcDbEntity
  8
0
  6
Continuous
100
AcDbLine
 10
136.1203412303106
 20
141.1359852937458
 30
0.0
 11
135.471807235403
 21
140.9419490938951
 31
0.0
  0
HATCH
  5
305
330
E3
100
AcDbEntity
  8
0
  6
Continuous
 62
   255
370
    18
100
AcDbHatch
 10
0.0
 20
0.0
 30
0.0
210
0.0
220
0.0
230
1.0
  2
SOLID
 70
     1
 71
     0
 91
        1
 92
        3
 72
     0
 73
     1
 93
        5
 10
211.7070068835936
 20
150.5217680229844
 10
212.3779738387793
 20
151.1158153592681
 10
212.8847611877951
 20
150.9613281407294
 10
212.861807442337
 20
152.3166071789826
 10
211.7070068835936
 20
151.8592636265377
 97
        0
 75
     0
 76
     1
 98
        0
  0
LINE
  5
306
330
E3
100
AcDbEntity
  8
0
  6
Continuous
 62
   255
370
    18
100
AcDbLine
 10
212.3779748956557
 20
151.1158149162953
 30
0.0
 11
211.7070052712936
 21
150.5217669836648
 31
0.0
  0
LINE
  5
307
330
E3
100
AcDbEntity
  8
0
  6
Continuous
 62
   255
370
    18
100
AcDbLine
 10
212.8847615500468
 20
150.9613283694151
 30
0.0
 11
212.3779748956557
 21
151.1158149162953
 31
0.0
  0
LINE
  5
308
330
E3
100
AcDbEntity
  8
0
  6
Continuous
 62
   255
370
    18
100
AcDbLine
 10
212.861806819154
 20
152.3166075456642
 30
0.0
 11
212.8847615500468
 21
150.9613283694151
 31
0.0
  0
LINE
  5
309
330
E3
100
AcDbEntity
  8
0
  6
Continuous
 62
   255
370
    18
100
AcDbLine
 10
211.7070052712936
 20
151.8592628546696
 30
0.0
 11
212.861806819154
 21
152.3166075456642
 31
0.0
  0
LINE
  5
30A
330
E3
100
AcDbEntity
  8
0
  6
Continuous
 62
   255
370
    18
100
AcDbLine
 10
211.7070052712936
 20
150.5217669836648
 30
0.0
 11
211.7070052712936
 21
151.8592628546696
 31
0.0
  0
HATCH
  5
30B
330
E3
100
AcDbEntity
  8
0
  6
Continuous
 62
   255
370
    18
100
AcDbHatch
 10
0.0
 20
0.0
 30
0.0
210
0.0
220
0.0
230
1.0
  2
SOLID
 70
     1
 71
     0
 91
        1
 92
        3
 72
     0
 73
     1
 93
        4
 10
211.7070068835936
 20
150.5217680229844
 10
211.7070068835936
 20
151.8592636265377
 10
149.8470458577917
 20
178.3025498474758
 10
149.9129975772506
 20
177.270843967277
 97
        0
 75
     0
 76
     1
 98
        0
  0
LINE
  5
30C
330
E3
100
AcDbEntity
  8
0
  6
Continuous
100
AcDbLine
 10
211.7070052712936
 20
151.8592628546696
 30
0.0
 11
211.7070052712936
 21
150.5217669836648
 31
0.0
  0
LINE
  5
30D
330
E3
100
AcDbEntity
  8
0
  6
Continuous
100
AcDbLine
 10
149.8470450337536
 20
178.3025512994503
 30
0.0
 11
211.7070052712936
 21
151.8592628546696
 31
0.0
  0
LINE
  5
30E
330
E3
100
AcDbEntity
  8
0
  6
Continuous
100
AcDbLine
 10
149.9129970347157
 20
177.2708453530095
 30
0.0
 11
149.8470450337536
 21
178.3025512994503
 31
0.0
  0
LINE
  5
30F
330
E3
100
AcDbEntity
  8
0
  6
Continuous
100
AcDbLine
 10
211.7070052712936
 20
150.5217669836648
 30
0.0
 11
149.9129970347157
 21
177.2708453530095
 31
0.0
  0
HATCH
  5
310
330
E3
100
AcDbEntity
  8
0
  6
Continuous
 62
   255
370
    18
100
AcDbHatch
 10
0.0
 20
0.0
 30
0.0
210
0.0
220
0.0
230
1.0
  2
SOLID
 70
     1
 71
     0
 91
        1
 92
        3
 72
     0
 73
     1
 93
        4
 10
149.8470458577917
 20
178.3025498474758
 10
211.7070068835936
 20
151.8592636265377
 10
212.861807442337
 20
152.3166071789826
 10
150.8960354252337
 20
178.5854600884661
 97
        0
 75
     0
 76
     1
 98
        0
  0
LINE
  5
311
330
E3
100
AcDbEntity
  8
0
  6
Continuous
100
AcDbLine
 10
149.8470450337536
 20
178.3025512994503
 30
0.0
 11
211.7070052712936
 21
151.8592628546696
 31
0.0
  0
LINE
  5
312
330
E3
100
AcDbEntity
  8
0
  6
Continuous
100
AcDbLine
 10
211.7070052712936
 20
151.8592628546696
 30
0.0
 11
212.861806819154
 21
152.3166075456642
 31
0.0
  0
LINE
  5
313
330
E3
100
AcDbEntity
  8
0
  6
Continuous
100
AcDbLine
 10
212.861806819154
 20
152.3166075456642
 30
0.0
 11
150.8960347727341
 21
178.5854615832667
 31
0.0
  0
LINE
  5
314
330
E3
100
AcDbEntity
  8
0
  6
Continuous
100
AcDbLine
 10
150.8960347727341
 20
178.5854615832667
 30
0.0
 11
149.8470450337536
 21
178.3025512994503
 31
0.0
  0
HATCH
  5
315
330
E3
100
AcDbEntity
  8
0
  6
Continuous
 62
   255
370
    18
100
AcDbHatch
 10
0.0
 20
0.0
 30
0.0
210
0.0
220
0.0
230
1.0
  2
SOLID
 70
     1
 71
     0
 91
        1
 92
        3
 72
     0
 73
     1
 93
        5
 10
212.377764608666
 20
148.9657892752718
 10
125.3486375639616
 20
80.89795490365789
 10
126.9064338883713
 20
73.57624747614634
 10
158.5905364503041
 20
98.74689341384905
 10
217.9844290576903
 20
144.2306922135568
 97
        0
 75
     0
 76
     1
 98
        0
  0
LINE
  5
316
330
E3
100
AcDbEntity
  8
0
  6
Continuous
 62
   255
370
    18
100
AcDbLine
 10
212.3777659491649
 20
148.9657881733802
 30
0.0
 11
125.3486370553444
 21
80.89795586745245
 31
0.0
  0
LINE
  5
317
330
E3
100
AcDbEntity
  8
0
  6
Continuous
 62
   255
370
    18
100
AcDbLine
 10
125.3486370553444
 20
80.89795586745245
 30
0.0
 11
126.906434353057
 21
73.57624882256574
 31
0.0
  0
LINE
  5
318
330
E3
100
AcDbEntity
  8
0
  6
Continuous
 62
   255
370
    18
100
AcDbLine
 10
126.906434353057
 20
73.57624882256574
 30
0.0
 11
158.590535005179
 21
98.74689316343787
 31
0.0
  0
LINE
  5
319
330
E3
100
AcDbEntity
  8
0
  6
Continuous
 62
   255
370
    18
100
AcDbLine
 10
158.590535005179
 20
98.74689316343787
 30
0.0
 11
217.9844304028217
 21
144.2306917696644
 31
0.0
  0
LINE
  5
31A
330
E3
100
AcDbEntity
  8
0
  6
Continuous
 62
   255
370
    18
100
AcDbLine
 10
217.9844304028217
 20
144.2306917696644
 30
0.0
 11
212.3777659491649
 21
148.9657881733802
 31
0.0
  0
HATCH
  5
31B
330
E3
100
AcDbEntity
  8
0
  6
Continuous
 62
   255
370
    18
100
AcDbHatch
 10
0.0
 20
0.0
 30
0.0
210
0.0
220
0.0
230
1.0
  2
SOLID
 70
     1
 71
     0
 91
        1
 92
        3
 72
     0
 73
     1
 93
       31
 10
99.16352178292831
 20
114.3218724750273
 10
98.84728053731945
 20
113.9727052097169
 10
99.04484045365265
 20
114.1122923291477
 10
99.94694370600325
 20
113.3788565403127
 10
100.5677830140982
 20
111.9677393413184
 10
102.3057787064661
 20
110.4877650535948
 10
102.8799752844043
 20
110.8982931895875
 10
103.7838376053973
 20
110.1408767971681
 10
104.5012237779331
 20
108.7413165558395
 10
106.3345094078442
 20
107.1933323133479
 10
106.8771156560319
 20
107.586051971373
 10
107.8257074727056
 20
106.8196255670582
 10
108.6183078754456
 20
105.4295545536065
 10
110.5320627454536
 20
103.7947446260389
 10
110.9411712114808
 20
104.0946205282686
 10
111.8611718410165
 20
103.288060453203
 10
112.6476441616337
 20
101.8212244517822
 10
114.6303598664566
 20
100.0807560867587
 10
115.2088713355282
 20
100.5104120672805
 10
116.1742078325447
 20
99.70364997262007
 10
116.771136773007
 20
98.03231043573429
 10
118.8904152055795
 20
96.22629604853252
 10
119.3918072013461
 20
96.60378503871577
 10
120.4178509182685
 20
95.76426808926897
 10
121.1683136384111
 20
94.18249212643504
 10
123.4870507394128
 20
92.34940726465344
 10
124.1489605103095
 20
92.85484603674313
 10
125.3020439037242
 20
91.9049549433843
 10
126.689724252049
 20
91.57129869100618
 10
126.3951988983044
 20
92.7422344530371
 10
99.63096412756825
 20
114.4006807910808
 97
        0
 75
     0
 76
     1
 98
        0
  0
LINE
  5
31C
330
E3
100
AcDbEntity
  8
0
  6
Continuous
100
AcDbLine
 10
99.16352158873727
 20
114.3218723291253
 30
0.0
 11
98.847281074842
 21
113.9727064189772
 31
0.0
  0
LINE
  5
31D
330
E3
100
AcDbEntity
  8
0
  6
Continuous
100
AcDbLine
 10
98.847281074842
 20
113.9727064189772
 30
0.0
 11
99.0448399819368
 21
114.112292469229
 31
0.0
  0
LINE
  5
31E
330
E3
100
AcDbEntity
  8
0
  6
Continuous
100
AcDbLine
 10
99.0448399819368
 20
114.112292469229
 30
0.0
 11
99.94694360264153
 21
113.3788576384707
 31
0.0
  0
LINE
  5
31F
330
E3
100
AcDbEntity
  8
0
  6
Continuous
100
AcDbLine
 10
99.94694360264153
 20
113.3788576384707
 30
0.0
 11
100.5677823931452
 21
111.9677407773319
 31
0.0
  0
LINE
  5
320
330
E3
100
AcDbEntity
  8
0
  6
Continuous
100
AcDbLine
 10
100.5677823931452
 20
111.9677407773319
 30
0.0
 11
102.3057797152679
 21
110.4877662530926
 31
0.0
  0
LINE
  5
321
330
E3
100
AcDbEntity
  8
0
  6
Continuous
100
AcDbLine
 10
102.3057797152679
 20
110.4877662530926
 30
0.0
 11
102.8799744664791
 21
110.898293870982
 31
0.0
  0
LINE
  5
322
330
E3
100
AcDbEntity
  8
0
  6
Continuous
100
AcDbLine
 10
102.8799744664791
 20
110.898293870982
 30
0.0
 11
103.7838378084115
 21
110.1408759008213
 31
0.0
  0
LINE
  5
323
330
E3
100
AcDbEntity
  8
0
  6
Continuous
100
AcDbLine
 10
103.7838378084115
 20
110.1408759008213
 30
0.0
 11
104.5012229368416
 21
108.7413163924574
 31
0.0
  0
LINE
  5
324
330
E3
100
AcDbEntity
  8
0
  6
Continuous
100
AcDbLine
 10
104.5012229368416
 20
108.7413163924574
 30
0.0
 11
106.3345096531568
 21
107.1933330502367
 31
0.0
  0
LINE
  5
325
330
E3
100
AcDbEntity
  8
0
  6
Continuous
100
AcDbLine
 10
106.3345096531568
 20
107.1933330502367
 30
0.0
 11
106.8771143067833
 21
107.5860512445705
 31
0.0
  0
LINE
  5
326
330
E3
100
AcDbEntity
  8
0
  6
Continuous
100
AcDbLine
 10
106.8771143067833
 20
107.5860512445705
 30
0.0
 11
107.8257085217012
 21
106.819625721781
 31
0.0
  0
LINE
  5
327
330
E3
100
AcDbEntity
  8
0
  6
Continuous
100
AcDbLine
 10
107.8257085217012
 20
106.819625721781
 30
0.0
 11
108.6183078572581
 21
105.429553690017
 31
0.0
  0
LINE
  5
328
330
E3
100
AcDbEntity
  8
0
  6
Continuous
100
AcDbLine
 10
108.6183078572581
 20
105.429553690017
 30
0.0
 11
110.5320618260713
 21
103.7947432864831
 31
0.0
  0
LINE
  5
329
330
E3
100
AcDbEntity
  8
0
  6
Continuous
100
AcDbLine
 10
110.5320618260713
 20
103.7947432864831
 30
0.0
 11
110.9411725255698
 21
104.0946206783139
 31
0.0
  0
LINE
  5
32A
330
E3
100
AcDbEntity
  8
0
  6
Continuous
100
AcDbLine
 10
110.9411725255698
 20
104.0946206783139
 30
0.0
 11
111.8611704543421
 21
103.2880611053374
 31
0.0
  0
LINE
  5
32B
330
E3
100
AcDbEntity
  8
0
  6
Continuous
100
AcDbLine
 10
111.8611704543421
 20
103.2880611053374
 30
0.0
 11
112.647645045886
 21
101.8212240917101
 31
0.0
  0
LINE
  5
32C
330
E3
100
AcDbEntity
  8
0
  6
Continuous
100
AcDbLine
 10
112.647645045886
 20
101.8212240917101
 30
0.0
 11
114.6303611510452
 21
100.0807553243754
 31
0.0
  0
LINE
  5
32D
330
E3
100
AcDbEntity
  8
0
  6
Continuous
100
AcDbLine
 10
114.6303611510452
 20
100.0807553243754
 30
0.0
 11
115.208871953208
 21
100.510411340544
 31
0.0
  0
LINE
  5
32E
330
E3
100
AcDbEntity
  8
0
  6
Continuous
100
AcDbLine
 10
115.208871953208
 20
100.510411340544
 30
0.0
 11
116.1742080057049
 21
99.70364935065449
 31
0.0
  0
LINE
  5
32F
330
E3
100
AcDbEntity
  8
0
  6
Continuous
100
AcDbLine
 10
116.1742080057049
 20
99.70364935065449
 30
0.0
 11
116.7711354821624
 21
98.0323092239006
 31
0.0
  0
LINE
  5
330
330
E3
100
AcDbEntity
  8
0
  6
Continuous
100
AcDbLine
 10
116.7711354821624
 20
98.0323092239006
 30
0.0
 11
118.890414443034
 21
96.2262965542187
 31
0.0
  0
LINE
  5
331
330
E3
100
AcDbEntity
  8
0
  6
Continuous
100
AcDbLine
 10
118.890414443034
 20
96.2262965542187
 30
0.0
 11
119.3918076661301
 21
96.60378450824317
 31
0.0
  0
LINE
  5
332
330
E3
100
AcDbEntity
  8
0
  6
Continuous
100
AcDbLine
 10
119.3918076661301
 20
96.60378450824317
 30
0.0
 11
120.4178524685845
 21
95.76426689112463
 31
0.0
  0
LINE
  5
333
330
E3
100
AcDbEntity
  8
0
  6
Continuous
100
AcDbLine
 10
120.4178524685845
 20
95.76426689112463
 30
0.0
 11
121.1683131735578
 21
94.18249298358741
 31
0.0
  0
LINE
  5
334
330
E3
100
AcDbEntity
  8
0
  6
Continuous
100
AcDbLine
 10
121.1683131735578
 20
94.18249298358741
 30
0.0
 11
123.4870511486753
 21
92.34940868418529
 31
0.0
  0
LINE
  5
335
330
E3
100
AcDbEntity
  8
0
  6
Continuous
100
AcDbLine
 10
123.4870511486753
 20
92.34940868418529
 30
0.0
 11
124.1489609837859
 21
92.8548469807526
 31
0.0
  0
LINE
  5
336
330
E3
100
AcDbEntity
  8
0
  6
Continuous
100
AcDbLine
 10
124.1489609837859
 20
92.8548469807526
 30
0.0
 11
125.3020452526746
 21
91.90495337984473
 31
0.0
  0
LINE
  5
337
330
E3
100
AcDbEntity
  8
0
  6
Continuous
100
AcDbLine
 10
125.3020452526746
 20
91.90495337984473
 30
0.0
 11
126.6897241941606
 21
91.57129848185302
 31
0.0
  0
LINE
  5
338
330
E3
100
AcDbEntity
  8
0
  6
Continuous
100
AcDbLine
 10
126.6897241941606
 20
91.57129848185302
 30
0.0
 11
126.3951977913687
 21
92.74223461655342
 31
0.0
  0
LINE
  5
339
330
E3
100
AcDbEntity
  8
0
  6
Continuous
100
AcDbLine
 10
126.3951977913687
 20
92.74223461655342
 30
0.0
 11
99.63096427185981
 21
114.4006810688523
 31
0.0
  0
LINE
  5
33A
330
E3
100
AcDbEntity
  8
0
  6
Continuous
100
AcDbLine
 10
99.63096427185981
 20
114.4006810688523
 30
0.0
 11
99.16352158873727
 21
114.3218723291253
 31
0.0
  0
HATCH
  5
33B
330
E3
100
AcDbEntity
  8
0
  6
Continuous
 62
   255
370
    18
100
AcDbHatch
 10
0.0
 20
0.0
 30
0.0
210
0.0
220
0.0
230
1.0
  2
SOLID
 70
     1
 71
     0
 91
        1
 92
        3
 72
     0
 73
     1
 93
       24
 10
145.6274695862035
 20
173.9685380177648
 10
145.6057423835997
 20
172.865139278307
 10
146.5506134480175
 20
172.0651843837788
 10
147.2135421157726
 20
172.5091260105614
 10
148.0682229133142
 20
172.1082085862493
 10
148.8632759154964
 20
171.0599085922405
 10
150.5175161996996
 20
170.2767581246083
 10
151.114887134017
 20
170.6808385177351
 10
151.970244514398
 20
170.3065475659891
 10
152.8517148305888
 20
169.2381481773879
 10
154.5339064330486
 20
168.4695412141196
 10
155.1087921970104
 20
168.7810892105408
 10
156.0184257030353
 20
168.3375212055442
 10
156.7426340271865
 20
167.2127998067413
 10
158.7272266069506
 20
166.4798170137095
 10
159.3521685944312
 20
166.9115519004269
 10
160.4041884700041
 20
166.5226902669581
 10
161.1424342673447
 20
165.3942389342727
 10
163.0846736961954
 20
164.5374027147757
 10
163.5623711063094
 20
164.871085641507
 10
164.4489751453357
 20
164.5651103303467
 10
165.3323092529476
 20
163.2793083723743
 10
166.4099658061609
 20
162.8593962792493
 10
167.9584743951341
 20
163.9564026937499
 97
        0
 75
     0
 76
     1
 98
        0
  0
LINE
  5
33C
330
E3
100
AcDbEntity
  8
0
  6
Continuous
100
AcDbLine
 10
145.6274685947883
 20
173.9685374792799
 30
0.0
 11
145.6057414245293
 21
172.8651400329565
 31
0.0
  0
LINE
  5
33D
330
E3
100
AcDbEntity
  8
0
  6
Continuous
100
AcDbLine
 10
145.6057414245293
 20
172.8651400329565
 30
0.0
 11
146.550613780079
 21
172.065185127964
 31
0.0
  0
LINE
  5
33E
330
E3
100
AcDbEntity
  8
0
  6
Continuous
100
AcDbLine
 10
146.550613780079
 20
172.065185127964
 30
0.0
 11
147.2135422293325
 21
172.5091245956554
 31
0.0
  0
LINE
  5
33F
330
E3
100
AcDbEntity
  8
0
  6
Continuous
100
AcDbLine
 10
147.2135422293325
 20
172.5091245956554
 30
0.0
 11
148.068221526193
 21
172.1082085163448
 31
0.0
  0
LINE
  5
340
330
E3
100
AcDbEntity
  8
0
  6
Continuous
100
AcDbLine
 10
148.068221526193
 20
172.1082085163448
 30
0.0
 11
148.8632759830173
 21
171.0599076478263
 31
0.0
  0
LINE
  5
341
330
E3
100
AcDbEntity
  8
0
  6
Continuous
100
AcDbLine
 10
148.8632759830173
 20
171.0599076478263
 30
0.0
 11
150.517515145411
 21
170.2767566114024
 31
0.0
  0
LINE
  5
342
330
E3
100
AcDbEntity
  8
0
  6
Continuous
100
AcDbLine
 10
150.517515145411
 20
170.2767566114024
 30
0.0
 11
151.1148866331616
 21
170.6808395359649
 31
0.0
  0
LINE
  5
343
330
E3
100
AcDbEntity
  8
0
  6
Continuous
100
AcDbLine
 10
151.1148866331616
 20
170.6808395359649
 30
0.0
 11
151.9702450061174
 21
170.3065478102926
 31
0.0
  0
LINE
  5
344
330
E3
100
AcDbEntity
  8
0
  6
Continuous
100
AcDbLine
 10
151.9702450061174
 20
170.3065478102926
 30
0.0
 11
152.8517151608511
 21
169.2381489011859
 31
0.0
  0
LINE
  5
345
330
E3
100
AcDbEntity
  8
0
  6
Continuous
100
AcDbLine
 10
152.8517151608511
 20
169.2381489011859
 30
0.0
 11
154.5339074459733
 21
168.4695424993981
 31
0.0
  0
LINE
  5
346
330
E3
100
AcDbEntity
  8
0
  6
Continuous
100
AcDbLine
 10
154.5339074459733
 20
168.4695424993981
 30
0.0
 11
155.1087910676466
 21
168.7810882468272
 31
0.0
  0
LINE
  5
347
330
E3
100
AcDbEntity
  8
0
  6
Continuous
100
AcDbLine
 10
155.1087910676466
 20
168.7810882468272
 30
0.0
 11
156.0184265563885
 21
168.3375209650727
 31
0.0
  0
LINE
  5
348
330
E3
100
AcDbEntity
  8
0
  6
Continuous
100
AcDbLine
 10
156.0184265563885
 20
168.3375209650727
 30
0.0
 11
156.7426350936604
 21
167.2128011823163
 31
0.0
  0
LINE
  5
349
330
E3
100
AcDbEntity
  8
0
  6
Continuous
100
AcDbLine
 10
156.7426350936604
 20
167.2128011823163
 30
0.0
 11
158.7272251876593
 21
166.4798168924289
 31
0.0
  0
LINE
  5
34A
330
E3
100
AcDbEntity
  8
0
  6
Continuous
100
AcDbLine
 10
158.7272251876593
 20
166.4798168924289
 30
0.0
 11
159.3521678178348
 21
166.9115525791393
 31
0.0
  0
LINE
  5
34B
330
E3
100
AcDbEntity
  8
0
  6
Continuous
100
AcDbLine
 10
159.3521678178348
 20
166.9115525791393
 30
0.0
 11
160.4041872809325
 21
166.5226901005194
 31
0.0
  0
LINE
  5
34C
330
E3
100
AcDbEntity
  8
0
  6
Continuous
100
AcDbLine
 10
160.4041872809325
 20
166.5226901005194
 30
0.0
 11
161.1424344105581
 21
165.394238664028
 31
0.0
  0
LINE
  5
34D
330
E3
100
AcDbEntity
  8
0
  6
Continuous
100
AcDbLine
 10
161.1424344105581
 20
165.394238664028
 30
0.0
 11
163.0846736626937
 21
164.5374013416917
 31
0.0
  0
LINE
  5
34E
330
E3
100
AcDbEntity
  8
0
  6
Continuous
100
AcDbLine
 10
163.0846736626937
 20
164.5374013416917
 30
0.0
 11
163.5623710478122
 21
164.8710856227836
 31
0.0
  0
LINE
  5
34F
330
E3
100
AcDbEntity
  8
0
  6
Continuous
100
AcDbLine
 10
163.5623710478122
 20
164.8710856227836
 30
0.0
 11
164.4489767155163
 21
164.5651096052512
 31
0.0
  0
LINE
  5
350
330
E3
100
AcDbEntity
  8
0
  6
Continuous
100
AcDbLine
 10
164.4489767155163
 20
164.5651096052512
 30
0.0
 11
165.332307799934
 21
163.2793084019972
 31
0.0
  0
LINE
  5
351
330
E3
100
AcDbEntity
  8
0
  6
Continuous
100
AcDbLine
 10
165.332307799934
 20
163.2793084019972
 30
0.0
 11
166.4099656504163
 21
162.8593977807531
 31
0.0
  0
LINE
  5
352
330
E3
100
AcDbEntity
  8
0
  6
Continuous
100
AcDbLine
 10
166.4099656504163
 20
162.8593977807531
 30
0.0
 11
167.9584746236531
 21
163.9564027703722
 31
0.0
  0
LINE
  5
353
330
E3
100
AcDbEntity
  8
0
  6
Continuous
100
AcDbLine
 10
167.9584746236531
 20
163.9564027703722
 30
0.0
 11
145.6274685947883
 21
173.9685374792799
 31
0.0
  0
HATCH
  5
354
330
E3
100
AcDbEntity
  8
0
  6
Continuous
 62
   255
370
    18
100
AcDbHatch
 10
0.0
 20
0.0
 30
0.0
210
0.0
220
0.0
230
1.0
  2
SOLID
 70
     1
 71
     0
 91
        1
 92
        3
 72
     0
 73
     1
 93
        8
 10
200.3502377971513
 20
149.3865703546961
 10
200.7407711872933
 20
147.881725243538
 10
203.5448587938666
 20
146.6536890104713
 10
204.0218031440022
 20
147.0232779086813
 10
205.3103127082701
 20
146.4399051553675
 10
206.035788935435
 20
145.0101450528833
 10
206.5173848288264
 20
144.843525930012
 10
207.1385488804216
 20
146.3059234680069
 97
        0
 75
     0
 76
     1
 98
        0
  0
LINE
  5
355
330
E3
100
AcDbEntity
  8
0
  6
Continuous
100
AcDbLine
 10
200.3502378628031
 20
149.3865704932658
 30
0.0
 11
200.7407719133498
 21
147.8817248070379
 31
0.0
  0
LINE
  5
356
330
E3
100
AcDbEntity
  8
0
  6
Continuous
100
AcDbLine
 10
200.7407719133498
 20
147.8817248070379
 30
0.0
 11
203.5448599388131
 21
146.653687514136
 31
0.0
  0
LINE
  5
357
330
E3
100
AcDbEntity
  8
0
  6
Continuous
100
AcDbLine
 10
203.5448599388131
 20
146.653687514136
 30
0.0
 11
204.0218031576913
 21
147.0232779437644
 31
0.0
  0
LINE
  5
358
330
E3
100
AcDbEntity
  8
0
  6
Continuous
100
AcDbLine
 10
204.0218031576913
 20
147.0232779437644
 30
0.0
 11
205.3103141357485
 21
146.4399058709004
 31
0.0
  0
LINE
  5
359
330
E3
100
AcDbEntity
  8
0
  6
Continuous
100
AcDbLine
 10
205.3103141357485
 20
146.4399058709004
 30
0.0
 11
206.0357894111211
 21
145.0101438002425
 31
0.0
  0
LINE
  5
35A
330
E3
100
AcDbEntity
  8
0
  6
Continuous
100
AcDbLine
 10
206.0357894111211
 20
145.0101438002425
 30
0.0
 11
206.5173849542095
 21
144.8435252977375
 31
0.0
  0
LINE
  5
35B
330
E3
100
AcDbEntity
  8
0
  6
Continuous
100
AcDbLine
 10
206.5173849542095
 20
144.8435252977375
 30
0.0
 11
207.1385502236052
 21
146.3059221984344
 31
0.0
  0
LINE
  5
35C
330
E3
100
AcDbEntity
  8
0
  6
Continuous
100
AcDbLine
 10
207.1385502236052
 20
146.3059221984344
 30
0.0
 11
200.3502378628031
 21
149.3865704932658
 31
0.0
  0
LINE
  5
35D
330
E3
100
AcDbEntity
  8
0
  6
Contour Line
100
AcDbLine
 10
130.4415380006892
 20
119.5061514515371
 30
0.0
 11
130.4528537590841
 21
118.8672583783088
 31
0.0
  0
LINE
  5
35E
330
E3
100
AcDbEntity
  8
0
  6
Contour Line
100
AcDbLine
 10
114.1136266848165
 20
130.5619379695419
 30
0.0
 11
113.2397732826319
 21
130.752311076225
 31
0.0
  0
LINE
  5
35F
330
E3
100
AcDbEntity
  8
0
  6
Contour Line
100
AcDbLine
 10
212.861806819154
 20
152.3166075456642
 30
0.0
 11
212.8847615500468
 21
150.9613283694151
 31
0.0
  0
LINE
  5
360
330
E3
100
AcDbEntity
  8
0
  6
Continuous
100
AcDbLine
 10
148.0732852138071
 20
91.50264323566553
 30
0.0
 11
152.001844898069
 21
91.50264323566553
 31
0.0
  0
LINE
  5
361
330
E3
100
AcDbEntity
  8
0
  6
Continuous
100
AcDbLine
 10
137.6205117388057
 20
99.92164583638514
 30
0.0
 11
151.7413767732849
 21
90.34742379482346
 31
0.0
  0
LINE
  5
362
330
E3
100
AcDbEntity
  8
0
  6
Continuous
100
AcDbLine
 10
127.0173784101183
 20
92.1841026268259
 30
0.0
 11
140.8549511804775
 21
81.30095488209363
 31
0.0
  0
LINE
  5
363
330
E3
100
AcDbEntity
  8
0
  6
Continuous
100
AcDbLine
 10
137.2860700266845
 20
82.56296230370256
 30
0.0
 11
141.2146297109463
 21
82.56296230370256
 31
0.0
  0
LINE
  5
364
330
E3
100
AcDbEntity
  8
0
  6
Contour Line
100
AcDbLine
 10
199.5201620152397
 20
148.66799371688
 30
0.0
 11
203.894522096877
 21
152.454776677525
 31
0.0
  0
MTEXT
  5
365
330
E3
100
AcDbEntity
  8
Doc_ Floor
  6
Continuous
100
AcDbMText
 10
223.2888094264331
 20
173.9963803370743
 30
0.0
 40
2.5
 41
0.0
 71
     4
 72
     1
  1
{ROOF FIXING}
  7
GENERATED_STYLE_1
 73
     1
 44
1.0
  0
LINE
  5
366
330
E3
100
AcDbEntity
  8
Doc_ Floor
  6
Continuous
100
AcDbLine
 10
200.5976468319093
 20
150.6251857022667
 30
0.0
 11
201.6570741010653
 21
154.3408027940452
 31
0.0
  0
LINE
  5
367
330
E3
100
AcDbEntity
  8
Doc_ Floor
  6
Continuous
100
AcDbLine
 10
200.5976468319093
 20
150.6251857022667
 30
0.0
 11
203.3729492134696
 21
153.3132921013659
 31
0.0
  0
LINE
  5
368
330
E3
100
AcDbEntity
  8
Doc_ Floor
  6
Continuous
100
AcDbLine
 10
201.6570741010653
 20
154.3408027940452
 30
0.0
 11
203.3729492134696
 21
153.3132921013659
 31
0.0
  0
LWPOLYLINE
  5
369
330
E3
100
AcDbEntity
  8
Doc_ Floor
  6
Continuous
100
AcDbPolyline
 90
       13
 70
   128
 43
0.0
 10
202.5150113364478
 20
153.8270474876626
 10
205.7638362258236
 20
159.0182843134168
 10
208.6862427823379
 20
163.3347500483135
 10
211.3344258684033
 20
166.8327274192985
 10
213.7605803464321
 20
169.5684991533174
 10
214.9067077519368
 20
170.6681462586351
 10
216.016901078837
 20
171.5983479773157
 10
217.0976846849343
 20
172.3661396502276
 10
218.1555829280304
 20
172.978556618239
 10
219.1971201659268
 20
173.442634222218
 10
220.228820756425
 20
173.7654078030329
 10
221.2572090573266
 20
173.9539127015518
 10
222.2888094264331
 20
174.0151842586429
  0
MTEXT
  5
36A
330
E3
100
AcDbEntity
  8
Doc_ Floor
  6
Continuous
100
AcDbMText
 10
185.5701856176042
 20
195.5961919181343
 30
0.0
 40
2.5
 41
0.0
 71
     4
 72
     1
  1
{TOP RIDGE}
  7
GENERATED_STYLE_1
 73
     1
 44
1.0
  0
LINE
  5
36B
330
E3
100
AcDbEntity
  8
Doc_ Floor
  6
Continuous
100
AcDbLine
 10
163.9642730933765
 20
171.7646188656712
 30
0.0
 11
164.8629029786709
 21
175.5223680584554
 31
0.0
  0
LINE
  5
36C
330
E3
100
AcDbEntity
  8
Doc_ Floor
  6
Continuous
100
AcDbLine
 10
163.9642730933765
 20
171.7646188656712
 30
0.0
 11
166.6213835864743
 21
174.5696079728762
 31
0.0
  0
LINE
  5
36D
330
E3
100
AcDbEntity
  8
Doc_ Floor
  6
Continuous
100
AcDbLine
 10
164.8629029786709
 20
175.5223680584554
 30
0.0
 11
166.6213835864743
 21
174.5696079728762
 31
0.0
  0
LWPOLYLINE
  5
36E
330
E3
100
AcDbEntity
  8
Doc_ Floor
  6
Continuous
100
AcDbPolyline
 90
       13
 70
   128
 43
0.0
 10
165.7421443908345
 20
175.045987500095
 10
168.7481949171419
 20
180.3350350080603
 10
171.4687434365614
 20
184.7328756862778
 10
173.953320184971
 20
188.2968384545482
 10
176.2514553982489
 20
191.0842522326715
 10
177.3460856279252
 20
192.2046685378657
 10
178.412679312273
 20
193.1524459404483
 10
179.4574277307768
 20
193.9347505553943
 10
180.4865221629215
 20
194.5587484976789
 10
181.5061538881919
 20
195.031605882277
 10
182.5225141860726
 20
195.3604888241636
 10
183.5417943360485
 20
195.5525634383139
 10
184.5701856176042
 20
195.6149958397029
  0
MTEXT
  5
36F
330
E3
100
AcDbEntity
  8
Doc_ Floor
  6
Continuous
100
AcDbMText
 10
192.1105084062279
 20
120.8342442652592
 30
0.0
 40
2.5
 41
37.87339787365916
 71
     4
 72
     1
  1
{FLOW OR CRICKET FLASHING}
  7
GENERATED_STYLE_1
 73
     1
 44
1.070162922071087
  0
LINE
  5
370
330
E3
100
AcDbEntity
  8
Doc_ Floor
  6
Continuous
100
AcDbLine
 10
155.0694960682119
 20
134.3039737332567
 30
0.0
 11
158.876341156767
 21
133.6435820249937
 31
0.0
  0
LINE
  5
371
330
E3
100
AcDbEntity
  8
Doc_ Floor
  6
Continuous
100
AcDbLine
 10
155.0694960682119
 20
134.3039737332567
 30
0.0
 11
158.0361248748197
 21
131.8286336280392
 31
0.0
  0
LINE
  5
372
330
E3
100
AcDbEntity
  8
Doc_ Floor
  6
Continuous
100
AcDbLine
 10
158.876341156767
 20
133.6435820249937
 30
0.0
 11
158.0361248748197
 21
131.8286336280392
 31
0.0
  0
LWPOLYLINE
  5
373
330
E3
100
AcDbEntity
  8
Doc_ Floor
  6
Continuous
100
AcDbPolyline
 90
        8
 70
   128
 43
0.0
 10
158.4562335092166
 20
132.7361066058312
 10
170.973633636139
 20
127.1365535620694
 10
175.9201947628889
 20
125.0774534259128
 10
180.1112931777215
 20
123.4676146127928
 10
183.6364013150541
 20
122.2736449221247
 10
186.5849916093044
 20
121.4621521533238
 10
189.0465364948898
 20
120.9997441058053
 10
191.1105084062279
 20
120.8530285789847
  0
MTEXT
  5
374
330
E3
100
AcDbEntity
  8
Doc_ Floor
  6
Continuous
100
AcDbMText
 10
179.8771024807336
 20
108.6008187319218
 30
0.0
 40
2.5
 41
0.0
 71
     4
 72
     1
  1
{COVER FLASHING}
  7
GENERATED_STYLE_1
 73
     1
 44
1.0
  0
LINE
  5
375
330
E3
100
AcDbEntity
  8
Doc_ Floor
  6
Continuous
100
AcDbLine
 10
142.8360903925885
 20
122.0705680576334
 30
0.0
 11
146.6429354811437
 21
121.4101730845814
 31
0.0
  0
LINE
  5
376
330
E3
100
AcDbEntity
  8
Doc_ Floor
  6
Continuous
100
AcDbLine
 10
142.8360903925885
 20
122.0705680576334
 30
0.0
 11
145.8027191991964
 21
119.5952279524159
 31
0.0
  0
LINE
  5
377
330
E3
100
AcDbEntity
  8
Doc_ Floor
  6
Continuous
100
AcDbLine
 10
146.6429354811437
 20
121.4101730845814
 30
0.0
 11
145.8027191991964
 21
119.5952279524159
 31
0.0
  0
LWPOLYLINE
  5
378
330
E3
100
AcDbEntity
  8
Doc_ Floor
  6
Continuous
100
AcDbPolyline
 90
        8
 70
   128
 43
0.0
 10
146.2228275837223
 20
120.5027006803369
 10
158.7402277106447
 20
114.9031476365751
 10
163.6867888373947
 20
112.8440475004185
 10
167.8778872522272
 20
111.2342086872985
 10
171.4029953895598
 20
110.0402389966304
 10
174.3515856838101
 20
109.2287462278295
 10
176.8131305693955
 20
108.7663381803111
 10
178.8771024807336
 20
108.6196226534904
  0
MTEXT
  5
379
330
E3
100
AcDbEntity
  8
Doc_ Floor
  6
Continuous
100
AcDbMText
 10
196.3515291039686
 20
188.4931890370204
 30
0.0
 40
2.5
 41
0.0
 71
     4
 72
     1
  1
{HEM TO EDGE}
  7
GENERATED_STYLE_1
 73
     1
 44
1.0
  0
LINE
  5
37A
330
E3
100
AcDbEntity
  8
Doc_ Floor
  6
Continuous
100
AcDbLine
 10
174.745614925233
 20
164.6616167657106
 30
0.0
 11
175.6442480753164
 21
168.4193626937059
 31
0.0
  0
LINE
  5
37B
330
E3
100
AcDbEntity
  8
Doc_ Floor
  6
Continuous
100
AcDbLine
 10
174.745614925233
 20
164.6616167657106
 30
0.0
 11
177.4027286831197
 21
167.4666058729157
 31
0.0
  0
LINE
  5
37C
330
E3
100
AcDbEntity
  8
Doc_ Floor
  6
Continuous
100
AcDbLine
 10
175.6442480753164
 20
168.4193626937059
 30
0.0
 11
177.4027286831197
 21
167.4666058729157
 31
0.0
  0
LWPOLYLINE
  5
37D
330
E3
100
AcDbEntity
  8
Doc_ Floor
  6
Continuous
100
AcDbPolyline
 90
       13
 70
   128
 43
0.0
 10
176.5234878771988
 20
167.9429846189811
 10
179.5295384035063
 20
173.2320321269463
 10
182.2500869229258
 20
177.629872805164
 10
184.7346636713354
 20
181.1938355734342
 10
187.0327988846132
 20
183.9812493515576
 10
188.1274291142896
 20
185.1016656567518
 10
189.1940227986374
 20
186.0494430593344
 10
190.2387712171412
 20
186.8317476742805
 10
191.2678656492859
 20
187.455745616565
 10
192.2874973745563
 20
187.9286030011631
 10
193.303857672437
 20
188.2574859430497
 10
194.3231378224129
 20
188.4495605572
 10
195.3515291039686
 20
188.511992958589
  0
MTEXT
  5
37E
330
E3
100
AcDbEntity
  8
Doc_ Floor
  6
Continuous
100
AcDbMText
 10
203.2144753129163
 20
182.0950826855832
 30
0.0
 40
2.5
 41
0.0
 71
     4
 72
     1
  1
{SEAL AND FASTEN}
  7
GENERATED_STYLE_1
 73
     1
 44
1.0
  0
LINE
  5
37F
330
E3
100
AcDbEntity
  8
Doc_ Floor
  6
Continuous
100
AcDbLine
 10
181.608563625523
 20
158.2635119765633
 30
0.0
 11
182.5071935108174
 21
162.0212579045586
 31
0.0
  0
LINE
  5
380
330
E3
100
AcDbEntity
  8
Doc_ Floor
  6
Continuous
100
AcDbLine
 10
181.608563625523
 20
158.2635119765633
 30
0.0
 11
184.2656741186208
 21
161.0684978189795
 31
0.0
  0
LINE
  5
381
330
E3
100
AcDbEntity
  8
Doc_ Floor
  6
Continuous
100
AcDbLine
 10
182.5071935108174
 20
162.0212579045586
 30
0.0
 11
184.2656741186208
 21
161.0684978189795
 31
0.0
  0
LWPOLYLINE
  5
382
330
E3
100
AcDbEntity
  8
Doc_ Floor
  6
Continuous
100
AcDbPolyline
 90
       13
 70
   128
 43
0.0
 10
183.3864340861466
 20
161.5448782675439
 10
186.392484612454
 20
166.8339257755091
 10
189.1130331318735
 20
171.2317664537267
 10
191.5976098802831
 20
174.795729221997
 10
193.8957450935609
 20
177.5831430001203
 10
194.9903753232373
 20
178.7035593053145
 10
196.0569690075851
 20
179.6513367078971
 10
197.1017174260889
 20
180.4336413228432
 10
198.1308118582336
 20
181.0576392651277
 10
199.150443583504
 20
181.5304966497258
 10
200.1668038813847
 20
181.8593795916125
 10
201.1860840313606
 20
182.0514542057628
 10
202.2144753129163
 20
182.1138866071518
  0
MTEXT
  5
383
330
E3
100
AcDbEntity
  8
Doc_ Floor
  6
Continuous
100
AcDbMText
 10
209.4349520446451
 20
136.2061204950045
 30
0.0
 40
2.5
 41
0.0
 71
     4
 72
     1
  1
{BACK FLASHING}
  7
GENERATED_STYLE_1
 73
     1
 44
1.0
  0
LINE
  5
384
330
E3
100
AcDbEntity
  8
Doc_ Floor
  6
Continuous
100
AcDbLine
 10
170.8373034618498
 20
133.3743348828052
 30
0.0
 11
174.457582187602
 21
134.724076977047
 31
0.0
  0
LINE
  5
385
330
E3
100
AcDbEntity
  8
Doc_ Floor
  6
Continuous
100
AcDbLine
 10
170.8373034618498
 20
133.3743348828052
 30
0.0
 11
174.64742639848
 21
132.7331074854994
 31
0.0
  0
LINE
  5
386
330
E3
100
AcDbEntity
  8
Doc_ Floor
  6
Continuous
100
AcDbLine
 10
174.457582187602
 20
134.724076977047
 30
0.0
 11
174.64742639848
 21
132.7331074854994
 31
0.0
  0
LWPOLYLINE
  5
387
330
E3
100
AcDbEntity
  8
Doc_ Floor
  6
Continuous
100
AcDbPolyline
 90
        5
 70
   128
 43
0.0
 10
174.5525033126299
 20
133.7285909249449
 10
187.3566922878995
 20
134.9046647700981
 10
196.7798470983359
 20
135.6754436592802
 10
203.559942198923
 20
136.0968795542016
 10
208.4349520446451
 20
136.2249244165731
  0
ENDBLK
  5
E5
330
E3
100
AcDbEntity
  8
0
100
AcDbBlockEnd
  0
BLOCK
  5
390
330
38F
100
AcDbEntity
  8
0
100
AcDbBlockBegin
  2
R-TRS7-18 CHIMNEY PENETRATION D_STORY_MARKER
 70
     0
 10
0.0
 20
0.0
 30
0.0
  3
R-TRS7-18 CHIMNEY PENETRATION D_STORY_MARKER
  1

  0
ENDBLK
  5
391
330
38F
100
AcDbEntity
  8
0
100
AcDbBlockEnd
  0
ENDSEC
  0
SECTION
  2
ENTITIES
  0
HATCH
  5
3F
330
1F
100
AcDbEntity
  8
Doc_ Finishes
  6
Continuous
100
AcDbHatch
 10
0.0
 20
0.0
 30
0.0
210
0.0
220
0.0
230
1.0
  2
SOLID
 70
     1
 71
     0
 91
        1
 92
        3
 72
     0
 73
     1
 93
       54
 10
27.4117749414874
 20
16.87044408857867
 10
26.89356552397386
 20
16.5825499677378
 10
26.5480925789648
 20
16.29465584689693
 10
26.12584786839819
 20
16.02595466744544
 10
25.76118198199976
 20
15.60370995687884
 10
25.39651609560134
 20
15.33500877742737
 10
25.07023609198168
 20
14.89357112547136
 10
24.49444785029994
 20
14.45213347351537
 10
23.93785255000758
 20
14.02988876294876
 10
23.43883607388344
 20
13.81876640766546
 10
22.74789018386533
 20
13.39652169709885
 10
22.09533017662603
 20
12.99346992792163
 10
21.63469958328064
 20
12.55203227596564
 10
20.90536781048376
 20
12.12978756539902
 10
20.59828074825351
 20
11.7459287376112
 10
20.04168544796116
 20
11.28529814426581
 10
19.36993249933246
 20
10.8630534336992
 10
18.73656543348255
 20
10.42161578174319
 10
18.04561954346447
 20
10.15291460229172
 10
17.1051654153843
 20
9.692284008946325
 10
16.39502658397681
 20
9.020531060317637
 10
15.83843128368446
 20
8.598286349751023
 10
15.12829245227699
 20
8.137655756405634
 10
14.84039833143612
 20
7.98411222529051
 10
14.37976773809073
 20
7.81137575278599
 10
14.07268067586046
 20
7.523481631945121
 10
14.0151018516923
 20
7.216394569714853
 10
14.14945244141803
 20
6.890114566095209
 10
14.4373465622589
 20
6.563834562475543
 10
14.8787842142149
 20
6.659799269422514
 10
15.51215128006482
 20
7.06285103859973
 10
16.01116775618899
 20
7.389131042219374
 10
16.33744775980864
 20
7.696218104449641
 10
16.51018423231316
 20
7.907340459732938
 10
17.01303929671522
 20
8.421711288968723
 10
17.33548071205699
 20
8.652026585641417
 10
17.75004824606785
 20
8.99749953065046
 10
18.14158425041142
 20
9.204783297655894
 10
19.24709767444037
 20
9.75754000967037
 10
20.23745345013295
 20
10.47151742935572
 10
21.4120614631637
 20
11.1624633193738
 10
21.84966052684182
 20
11.64612544238645
 10
22.49454335752537
 20
12.06069297639732
 10
23.78430901889248
 20
12.9819541630881
 10
24.3600972605742
 20
13.25833251909534
 10
25.6498629219413
 20
14.24868829478776
 10
25.85714668894673
 20
14.64022429913134
 10
26.68628175696843
 20
15.23904407048036
 10
27.28510152831745
 20
15.72270619349301
 10
27.81482671066464
 20
16.1142421978366
 10
28.27545730401003
 20
16.52880973184745
 10
28.22939424467549
 20
16.7821565581874
 10
28.09120506667188
 20
16.89731420652375
 10
27.56147988432467
 20
16.89731420652375
 97
        0
 75
     0
 76
     1
 98
        0
  0
LINE
  5
41
330
1F
100
AcDbEntity
  8
Doc_ Finishes
  6
Continuous
100
AcDbLine
 10
27.41177566876475
 20
16.87044600708104
 30
0.0
 11
26.89356756490952
 21
16.58254868214004
 31
0.0
  0
LINE
  5
42
330
1F
100
AcDbEntity
  8
Doc_ Finishes
  6
Continuous
100
AcDbLine
 10
26.89356756490952
 20
16.58254868214004
 30
0.0
 11
26.54809254523997
 21
16.29465578284815
 31
0.0
  0
LINE
  5
43
330
1F
100
AcDbEntity
  8
Doc_ Finishes
  6
Continuous
100
AcDbLine
 10
26.54809254523997
 20
16.29465578284815
 30
0.0
 11
26.12584579071597
 21
16.02595249803305
 31
0.0
  0
LINE
  5
44
330
1F
100
AcDbEntity
  8
Doc_ Finishes
  6
Continuous
100
AcDbLine
 10
26.12584579071597
 20
16.02595249803305
 30
0.0
 11
25.76118115656963
 21
15.60371016915814
 31
0.0
  0
LINE
  5
45
330
1F
100
AcDbEntity
  8
Doc_ Finishes
  6
Continuous
100
AcDbLine
 10
25.76118115656963
 20
15.60371016915814
 30
0.0
 11
25.39651652242329
 21
15.33500688434304
 31
0.0
  0
LINE
  5
46
330
1F
100
AcDbEntity
  8
Doc_ Finishes
  6
Continuous
100
AcDbLine
 10
25.39651652242329
 20
15.33500688434304
 30
0.0
 11
25.07023554287962
 21
14.89357051534225
 31
0.0
  0
LINE
  5
47
330
1F
100
AcDbEntity
  8
Doc_ Finishes
  6
Continuous
100
AcDbLine
 10
25.07023554287962
 20
14.89357051534225
 30
0.0
 11
24.49444974429583
 21
14.45213414634146
 31
0.0
  0
LINE
  5
48
330
1F
100
AcDbEntity
  8
Doc_ Finishes
  6
Continuous
100
AcDbLine
 10
24.49444974429583
 20
14.45213414634146
 30
0.0
 11
23.93785356018882
 21
14.02988739181747
 31
0.0
  0
LINE
  5
49
330
1F
100
AcDbEntity
  8
Doc_ Finishes
  6
Continuous
100
AcDbLine
 10
23.93785356018882
 20
14.02988739181747
 30
0.0
 11
23.43883507081038
 21
13.81876622738001
 31
0.0
  0
LINE
  5
4A
330
1F
100
AcDbEntity
  8
Doc_ Finishes
  6
Continuous
100
AcDbLine
 10
23.43883507081038
 20
13.81876622738001
 30
0.0
 11
22.74788945712038
 21
13.39652389850511
 31
0.0
  0
LINE
  5
4B
330
1F
100
AcDbEntity
  8
Doc_ Finishes
  6
Continuous
100
AcDbLine
 10
22.74788945712038
 20
13.39652389850511
 30
0.0
 11
22.09533192368214
 21
12.993471184107
 31
0.0
  0
LINE
  5
4C
330
1F
100
AcDbEntity
  8
Doc_ Finishes
  6
Continuous
100
AcDbLine
 10
22.09533192368214
 20
12.993471184107
 30
0.0
 11
21.63470151455547
 21
12.55203038945712
 31
0.0
  0
LINE
  5
4D
330
1F
100
AcDbEntity
  8
Doc_ Finishes
  6
Continuous
100
AcDbLine
 10
21.63470151455547
 20
12.55203038945712
 30
0.0
 11
20.90536782061369
 21
12.12978806058222
 31
0.0
  0
LINE
  5
4E
330
1F
100
AcDbEntity
  8
Doc_ Finishes
  6
Continuous
100
AcDbLine
 10
20.90536782061369
 20
12.12978806058222
 30
0.0
 11
20.59828088119591
 21
11.74592938630999
 31
0.0
  0
LINE
  5
4F
330
1F
100
AcDbEntity
  8
Doc_ Finishes
  6
Continuous
100
AcDbLine
 10
20.59828088119591
 20
11.74592938630999
 30
0.0
 11
20.0416846970889
 21
11.28529897718332
 31
0.0
  0
LINE
  5
50
330
1F
100
AcDbEntity
  8
Doc_ Finishes
  6
Continuous
100
AcDbLine
 10
20.0416846970889
 20
11.28529897718332
 30
0.0
 11
19.36993312352478
 21
10.86305222265932
 31
0.0
  0
LINE
  5
51
330
1F
100
AcDbEntity
  8
Doc_ Finishes
  6
Continuous
100
AcDbLine
 10
19.36993312352478
 20
10.86305222265932
 30
0.0
 11
18.73656520456333
 21
10.42161585365854
 31
0.0
  0
LINE
  5
52
330
1F
100
AcDbEntity
  8
Doc_ Finishes
  6
Continuous
100
AcDbLine
 10
18.73656520456333
 20
10.42161585365854
 30
0.0
 11
18.04561959087333
 21
10.15291256884343
 31
0.0
  0
LINE
  5
53
330
1F
100
AcDbEntity
  8
Doc_ Finishes
  6
Continuous
100
AcDbLine
 10
18.04561959087333
 20
10.15291256884343
 30
0.0
 11
17.1051647324941
 21
9.692282159716758
 31
0.0
  0
LINE
  5
54
330
1F
100
AcDbEntity
  8
Doc_ Finishes
  6
Continuous
100
AcDbLine
 10
17.1051647324941
 20
9.692282159716758
 30
0.0
 11
16.3950250786782
 21
9.020530586152635
 31
0.0
  0
LINE
  5
55
330
1F
100
AcDbEntity
  8
Doc_ Finishes
  6
Continuous
100
AcDbLine
 10
16.3950250786782
 20
9.020530586152635
 30
0.0
 11
15.8384333202203
 21
8.598288257277733
 31
0.0
  0
LINE
  5
56
330
1F
100
AcDbEntity
  8
Doc_ Finishes
  6
Continuous
100
AcDbLine
 10
15.8384333202203
 20
8.598288257277733
 30
0.0
 11
15.1282936664044
 21
8.137657848151063
 31
0.0
  0
LINE
  5
57
330
1F
100
AcDbEntity
  8
Doc_ Finishes
  6
Continuous
100
AcDbLine
 10
15.1282936664044
 20
8.137657848151063
 30
0.0
 11
14.84039634146341
 21
7.984114378442171
 31
0.0
  0
LINE
  5
58
330
1F
100
AcDbEntity
  8
Doc_ Finishes
  6
Continuous
100
AcDbLine
 10
14.84039634146341
 20
7.984114378442171
 30
0.0
 11
14.37976593233674
 21
7.811376868607396
 31
0.0
  0
LINE
  5
59
330
1F
100
AcDbEntity
  8
Doc_ Finishes
  6
Continuous
100
AcDbLine
 10
14.37976593233674
 20
7.811376868607396
 30
0.0
 11
14.07267899291896
 21
7.523479543666405
 31
0.0
  0
LINE
  5
5A
330
1F
100
AcDbEntity
  8
Doc_ Finishes
  6
Continuous
100
AcDbLine
 10
14.07267899291896
 20
7.523479543666405
 30
0.0
 11
14.0151012981904
 21
7.216392604248622
 31
0.0
  0
LINE
  5
5B
330
1F
100
AcDbEntity
  8
Doc_ Finishes
  6
Continuous
100
AcDbLine
 10
14.0151012981904
 20
7.216392604248622
 30
0.0
 11
14.14945072777341
 21
6.890116050354051
 31
0.0
  0
LINE
  5
5C
330
1F
100
AcDbEntity
  8
Doc_ Finishes
  6
Continuous
100
AcDbLine
 10
14.14945072777341
 20
6.890116050354051
 30
0.0
 11
14.4373480527144
 21
6.563835070810386
 31
0.0
  0
LINE
  5
5D
330
1F
100
AcDbEntity
  8
Doc_ Finishes
  6
Continuous
100
AcDbLine
 10
14.4373480527144
 20
6.563835070810386
 30
0.0
 11
14.87878442171519
 21
6.659800845790715
 31
0.0
  0
LINE
  5
5E
330
1F
100
AcDbEntity
  8
Doc_ Finishes
  6
Continuous
100
AcDbLine
 10
14.87878442171519
 20
6.659800845790715
 30
0.0
 11
15.51215234067663
 21
7.062849134539732
 31
0.0
  0
LINE
  5
5F
330
1F
100
AcDbEntity
  8
Doc_ Finishes
  6
Continuous
100
AcDbLine
 10
15.51215234067663
 20
7.062849134539732
 30
0.0
 11
16.01116640440598
 21
7.389130114083398
 31
0.0
  0
LINE
  5
60
330
1F
100
AcDbEntity
  8
Doc_ Finishes
  6
Continuous
100
AcDbLine
 10
16.01116640440598
 20
7.389130114083398
 30
0.0
 11
16.33744738394964
 21
7.69621705350118
 31
0.0
  0
LINE
  5
61
330
1F
100
AcDbEntity
  8
Doc_ Finishes
  6
Continuous
100
AcDbLine
 10
16.33744738394964
 20
7.69621705350118
 30
0.0
 11
16.51018489378442
 21
7.907342643587726
 31
0.0
  0
LINE
  5
62
330
1F
100
AcDbEntity
  8
Doc_ Finishes
  6
Continuous
100
AcDbLine
 10
16.51018489378442
 20
7.907342643587726
 30
0.0
 11
17.0130404209284
 21
8.421709284028323
 31
0.0
  0
LINE
  5
63
330
1F
100
AcDbEntity
  8
Doc_ Finishes
  6
Continuous
100
AcDbLine
 10
17.0130404209284
 20
8.421709284028323
 30
0.0
 11
17.33547993705743
 21
8.65202448859166
 31
0.0
  0
LINE
  5
64
330
1F
100
AcDbEntity
  8
Doc_ Finishes
  6
Continuous
100
AcDbLine
 10
17.33547993705743
 20
8.65202448859166
 30
0.0
 11
17.75004819040126
 21
8.997499508261212
 31
0.0
  0
LINE
  5
65
330
1F
100
AcDbEntity
  8
Doc_ Finishes
  6
Continuous
100
AcDbLine
 10
17.75004819040126
 20
8.997499508261212
 30
0.0
 11
18.14158536585366
 21
9.204783634933122
 31
0.0
  0
LINE
  5
66
330
1F
100
AcDbEntity
  8
Doc_ Finishes
  6
Continuous
100
AcDbLine
 10
18.14158536585366
 20
9.204783634933122
 30
0.0
 11
19.24709923288749
 21
9.75753835562549
 31
0.0
  0
LINE
  5
67
330
1F
100
AcDbEntity
  8
Doc_ Finishes
  6
Continuous
100
AcDbLine
 10
19.24709923288749
 20
9.75753835562549
 30
0.0
 11
20.23745328481511
 21
10.47151947285602
 31
0.0
  0
LINE
  5
68
330
1F
100
AcDbEntity
  8
Doc_ Finishes
  6
Continuous
100
AcDbLine
 10
20.23745328481511
 20
10.47151947285602
 30
0.0
 11
21.41206038552321
 21
11.16246508654602
 31
0.0
  0
LINE
  5
69
330
1F
100
AcDbEntity
  8
Doc_ Finishes
  6
Continuous
100
AcDbLine
 10
21.41206038552321
 20
11.16246508654602
 30
0.0
 11
21.84965971675846
 21
11.64612657356412
 31
0.0
  0
LINE
  5
6A
330
1F
100
AcDbEntity
  8
Doc_ Finishes
  6
Continuous
100
AcDbLine
 10
21.84965971675846
 20
11.64612657356412
 30
0.0
 11
22.49454317466562
 21
12.06069482690795
 31
0.0
  0
LINE
  5
6B
330
1F
100
AcDbEntity
  8
Doc_ Finishes
  6
Continuous
100
AcDbLine
 10
22.49454317466562
 20
12.06069482690795
 30
0.0
 11
23.78431009047993
 21
12.98195564516129
 31
0.0
  0
LINE
  5
6C
330
1F
100
AcDbEntity
  8
Doc_ Finishes
  6
Continuous
100
AcDbLine
 10
23.78431009047993
 20
12.98195564516129
 30
0.0
 11
24.36009588906373
 21
13.25833300550747
 31
0.0
  0
LINE
  5
6D
330
1F
100
AcDbEntity
  8
Doc_ Finishes
  6
Continuous
100
AcDbLine
 10
24.36009588906373
 20
13.25833300550747
 30
0.0
 11
25.64986280487805
 21
14.24868705743509
 31
0.0
  0
LINE
  5
6E
330
1F
100
AcDbEntity
  8
Doc_ Finishes
  6
Continuous
100
AcDbLine
 10
25.64986280487805
 20
14.24868705743509
 30
0.0
 11
25.85714693154996
 21
14.64022423288749
 31
0.0
  0
LINE
  5
6F
330
1F
100
AcDbEntity
  8
Doc_ Finishes
  6
Continuous
100
AcDbLine
 10
25.85714693154996
 20
14.64022423288749
 30
0.0
 11
26.68628343823761
 21
15.2390455350118
 31
0.0
  0
LINE
  5
70
330
1F
100
AcDbEntity
  8
Doc_ Finishes
  6
Continuous
100
AcDbLine
 10
26.68628343823761
 20
15.2390455350118
 30
0.0
 11
27.28510031471282
 21
15.7227070220299
 31
0.0
  0
LINE
  5
71
330
1F
100
AcDbEntity
  8
Doc_ Finishes
  6
Continuous
100
AcDbLine
 10
27.28510031471282
 20
15.7227070220299
 30
0.0
 11
27.81482838316287
 21
16.1142441974823
 31
0.0
  0
LINE
  5
72
330
1F
100
AcDbEntity
  8
Doc_ Finishes
  6
Continuous
100
AcDbLine
 10
27.81482838316287
 20
16.1142441974823
 30
0.0
 11
28.27545879228953
 21
16.52880802517702
 31
0.0
  0
LINE
  5
73
330
1F
100
AcDbEntity
  8
Doc_ Finishes
  6
Continuous
100
AcDbLine
 10
28.27545879228953
 20
16.52880802517702
 30
0.0
 11
28.22939221085759
 21
16.78215873328088
 31
0.0
  0
LINE
  5
74
330
1F
100
AcDbEntity
  8
Doc_ Finishes
  6
Continuous
100
AcDbLine
 10
28.22939221085759
 20
16.78215873328088
 30
0.0
 11
28.09120574350905
 21
16.897314122738
 31
0.0
  0
LINE
  5
75
330
1F
100
AcDbEntity
  8
Doc_ Finishes
  6
Continuous
100
AcDbLine
 10
28.09120574350905
 20
16.897314122738
 30
0.0
 11
27.56147767505901
 21
16.897314122738
 31
0.0
  0
LINE
  5
76
330
1F
100
AcDbEntity
  8
Doc_ Finishes
  6
Continuous
100
AcDbLine
 10
27.56147767505901
 20
16.897314122738
 30
0.0
 11
27.41177566876475
 21
16.87044600708104
 31
0.0
  0
HATCH
  5
77
330
1F
100
AcDbEntity
  8
Doc_ Finishes
  6
Continuous
100
AcDbHatch
 10
0.0
 20
0.0
 30
0.0
210
0.0
220
0.0
230
1.0
  2
SOLID
 70
     1
 71
     0
 91
        1
 92
        3
 72
     0
 73
     1
 93
       39
 10
27.65360600299377
 20
13.12014334109181
 10
27.21600693931564
 20
12.77467039608275
 10
26.54809257896482
 20
12.24494521373555
 10
25.92624127794851
 20
11.85340920939199
 10
25.32742150659951
 20
11.32368402704478
 10
24.72860173525052
 20
11.04730567103754
 10
24.08371890456698
 20
10.56364354802488
 10
23.62308831122158
 20
10.33332825135219
 10
23.231552306878
 20
10.03391836567767
 10
22.81698477286715
 20
9.619350831666825
 10
22.40241723885631
 20
9.38903553499415
 10
21.91875511584363
 20
9.043562589985086
 10
21.66540828950367
 20
8.859310352646935
 10
21.25084075549282
 20
8.582931996639696
 10
20.09926427212933
 20
7.753796928618002
 10
19.75379132712029
 20
7.477418572610764
 10
19.2931607337749
 20
7.316197864939873
 10
19.22406614477309
 20
6.993756449598113
 10
19.3622553227767
 20
6.717378093590874
 10
19.63863367878394
 20
6.602220445254527
 10
20.00713815346026
 20
6.8325357419272
 10
20.26048497980021
 20
7.131945627601722
 10
20.55989486547472
 20
7.362260924274415
 10
21.31993534449462
 20
7.707733869283458
 10
21.84966052684182
 20
8.122301403294307
 10
22.88607936186895
 20
8.882341882314256
 10
23.20852077721072
 20
9.342972475659646
 10
24.01462431556515
 20
9.734508480003234
 10
24.5673810275796
 20
10.05694989534501
 10
25.46561068460312
 20
10.60970660735953
 10
25.88017821861399
 20
11.07033720070492
 10
26.31777728229212
 20
11.34671555671216
 10
26.70931328663569
 20
11.30065249737762
 10
27.21600693931562
 20
11.55399932371759
 10
28.0681735370046
 20
12.17585062473387
 10
28.41364648201364
 20
12.49829204007566
 10
28.39061495234636
 20
12.77467039608289
 10
28.22939424467547
 20
13.00498569275559
 10
28.04514200733732
 20
13.05104875209013
 97
        0
 75
     0
 76
     1
 98
        0
  0
LINE
  5
78
330
1F
100
AcDbEntity
  8
Doc_ Finishes
  6
Continuous
100
AcDbLine
 10
27.6536064122738
 20
13.12014211250983
 30
0.0
 11
27.21600708103855
 21
12.77467151848938
 31
0.0
  0
LINE
  5
79
330
1F
100
AcDbEntity
  8
Doc_ Finishes
  6
Continuous
100
AcDbLine
 10
27.21600708103855
 20
12.77467151848938
 30
0.0
 11
26.54809254523997
 21
12.24494345003934
 31
0.0
  0
LINE
  5
7A
330
1F
100
AcDbEntity
  8
Doc_ Finishes
  6
Continuous
100
AcDbLine
 10
26.54809254523997
 20
12.24494345003934
 30
0.0
 11
25.92624016522423
 21
11.85341070023603
 31
0.0
  0
LINE
  5
7B
330
1F
100
AcDbEntity
  8
Doc_ Finishes
  6
Continuous
100
AcDbLine
 10
25.92624016522423
 20
11.85341070023603
 30
0.0
 11
25.32742328874902
 21
11.32368263178599
 31
0.0
  0
LINE
  5
7C
330
1F
100
AcDbEntity
  8
Doc_ Finishes
  6
Continuous
100
AcDbLine
 10
25.32742328874902
 20
11.32368263178599
 30
0.0
 11
24.72860198662471
 21
11.04730527143981
 31
0.0
  0
LINE
  5
7D
330
1F
100
AcDbEntity
  8
Doc_ Finishes
  6
Continuous
100
AcDbLine
 10
24.72860198662471
 20
11.04730527143981
 30
0.0
 11
24.08371852871754
 21
10.56364378442171
 31
0.0
  0
LINE
  5
7E
330
1F
100
AcDbEntity
  8
Doc_ Finishes
  6
Continuous
100
AcDbLine
 10
24.08371852871754
 20
10.56364378442171
 30
0.0
 11
23.62308811959087
 21
10.33332857985838
 31
0.0
  0
LINE
  5
7F
330
1F
100
AcDbEntity
  8
Doc_ Finishes
  6
Continuous
100
AcDbLine
 10
23.62308811959087
 20
10.33332857985838
 30
0.0
 11
23.23155094413847
 21
10.03392014162077
 31
0.0
  0
LINE
  5
80
330
1F
100
AcDbEntity
  8
Doc_ Finishes
  6
Continuous
100
AcDbLine
 10
23.23155094413847
 20
10.03392014162077
 30
0.0
 11
22.81698269079465
 21
9.619351888276947
 31
0.0
  0
LINE
  5
81
330
1F
100
AcDbEntity
  8
Doc_ Finishes
  6
Continuous
100
AcDbLine
 10
22.81698269079465
 20
9.619351888276947
 30
0.0
 11
22.40241886309992
 21
9.389036683713611
 31
0.0
  0
LINE
  5
82
330
1F
100
AcDbEntity
  8
Doc_ Finishes
  6
Continuous
100
AcDbLine
 10
22.40241886309992
 20
9.389036683713611
 30
0.0
 11
21.91875295043273
 21
9.04356166404406
 31
0.0
  0
LINE
  5
83
330
1F
100
AcDbEntity
  8
Doc_ Finishes
  6
Continuous
100
AcDbLine
 10
21.91875295043273
 20
9.04356166404406
 30
0.0
 11
21.66540666797797
 21
8.859308615263572
 31
0.0
  0
LINE
  5
84
330
1F
100
AcDbEntity
  8
Doc_ Finishes
  6
Continuous
100
AcDbLine
 10
21.66540666797797
 20
8.859308615263572
 30
0.0
 11
21.25084284028324
 21
8.582931254917387
 31
0.0
  0
LINE
  5
85
330
1F
100
AcDbEntity
  8
Doc_ Finishes
  6
Continuous
100
AcDbLine
 10
21.25084284028324
 20
8.582931254917387
 30
0.0
 11
20.09926239181747
 21
7.75379474822974
 31
0.0
  0
LINE
  5
86
330
1F
100
AcDbEntity
  8
Doc_ Finishes
  6
Continuous
100
AcDbLine
 10
20.09926239181747
 20
7.75379474822974
 30
0.0
 11
19.75379179779701
 21
7.477417387883556
 31
0.0
  0
LINE
  5
87
330
1F
100
AcDbEntity
  8
Doc_ Finishes
  6
Continuous
100
AcDbLine
 10
19.75379179779701
 20
7.477417387883556
 30
0.0
 11
19.29316138867033
 21
7.316199842643588
 31
0.0
  0
LINE
  5
88
330
1F
100
AcDbEntity
  8
Doc_ Finishes
  6
Continuous
100
AcDbLine
 10
19.29316138867033
 20
7.316199842643588
 30
0.0
 11
19.22406815499606
 21
6.993755900865461
 31
0.0
  0
LINE
  5
89
330
1F
100
AcDbEntity
  8
Doc_ Finishes
  6
Continuous
100
AcDbLine
 10
19.22406815499606
 20
6.993755900865461
 30
0.0
 11
19.36225462234461
 21
6.717378540519276
 31
0.0
  0
LINE
  5
8A
330
1F
100
AcDbEntity
  8
Doc_ Finishes
  6
Continuous
100
AcDbLine
 10
19.36225462234461
 20
6.717378540519276
 30
0.0
 11
19.63863198269079
 21
6.602218725413059
 31
0.0
  0
LINE
  5
8B
330
1F
100
AcDbEntity
  8
Doc_ Finishes
  6
Continuous
100
AcDbLine
 10
19.63863198269079
 20
6.602218725413059
 30
0.0
 11
20.00713808025177
 21
6.832533929976396
 31
0.0
  0
LINE
  5
8C
330
1F
100
AcDbEntity
  8
Doc_ Finishes
  6
Continuous
100
AcDbLine
 10
20.00713808025177
 20
6.832533929976396
 30
0.0
 11
20.26048436270653
 21
7.1319467938631
 31
0.0
  0
LINE
  5
8D
330
1F
100
AcDbEntity
  8
Doc_ Finishes
  6
Continuous
100
AcDbLine
 10
20.26048436270653
 20
7.1319467938631
 30
0.0
 11
20.55989280094414
 21
7.362261998426435
 31
0.0
  0
LINE
  5
8E
330
1F
100
AcDbEntity
  8
Doc_ Finishes
  6
Continuous
100
AcDbLine
 10
20.55989280094414
 20
7.362261998426435
 30
0.0
 11
21.31993607395751
 21
7.707732592446892
 31
0.0
  0
LINE
  5
8F
330
1F
100
AcDbEntity
  8
Doc_ Finishes
  6
Continuous
100
AcDbLine
 10
21.31993607395751
 20
7.707732592446892
 30
0.0
 11
21.84965971675846
 21
8.122300845790717
 31
0.0
  0
LINE
  5
90
330
1F
100
AcDbEntity
  8
Doc_ Finishes
  6
Continuous
100
AcDbLine
 10
21.84965971675846
 20
8.122300845790717
 30
0.0
 11
22.88608035011802
 21
8.882339693154996
 31
0.0
  0
LINE
  5
91
330
1F
100
AcDbEntity
  8
Doc_ Finishes
  6
Continuous
100
AcDbLine
 10
22.88608035011802
 20
8.882339693154996
 30
0.0
 11
23.20851986624705
 21
9.342974527930762
 31
0.0
  0
LINE
  5
92
330
1F
100
AcDbEntity
  8
Doc_ Finishes
  6
Continuous
100
AcDbLine
 10
23.20851986624705
 20
9.342974527930762
 30
0.0
 11
24.01462529504327
 21
9.734507277734066
 31
0.0
  0
LINE
  5
93
330
1F
100
AcDbEntity
  8
Doc_ Finishes
  6
Continuous
100
AcDbLine
 10
24.01462529504327
 20
9.734507277734066
 30
0.0
 11
24.56738001573564
 21
10.05695121951219
 31
0.0
  0
LINE
  5
94
330
1F
100
AcDbEntity
  8
Doc_ Finishes
  6
Continuous
100
AcDbLine
 10
24.56738001573564
 20
10.05695121951219
 30
0.0
 11
25.46560975609756
 21
10.60970594020456
 31
0.0
  0
LINE
  5
95
330
1F
100
AcDbEntity
  8
Doc_ Finishes
  6
Continuous
100
AcDbLine
 10
25.46560975609756
 20
10.60970594020456
 30
0.0
 11
25.88017800944139
 21
11.07033634933124
 31
0.0
  0
LINE
  5
96
330
1F
100
AcDbEntity
  8
Doc_ Finishes
  6
Continuous
100
AcDbLine
 10
25.88017800944139
 20
11.07033634933124
 30
0.0
 11
26.31777734067663
 21
11.34671370967742
 31
0.0
  0
LINE
  5
97
330
1F
100
AcDbEntity
  8
Doc_ Finishes
  6
Continuous
100
AcDbLine
 10
26.31777734067663
 20
11.34671370967742
 30
0.0
 11
26.70931451612903
 21
11.30065155389457
 31
0.0
  0
LINE
  5
98
330
1F
100
AcDbEntity
  8
Doc_ Finishes
  6
Continuous
100
AcDbLine
 10
26.70931451612903
 20
11.30065155389457
 30
0.0
 11
27.21600708103855
 21
11.55399783634933
 31
0.0
  0
LINE
  5
99
330
1F
100
AcDbEntity
  8
Doc_ Finishes
  6
Continuous
100
AcDbLine
 10
27.21600708103855
 20
11.55399783634933
 30
0.0
 11
28.06817466561763
 21
12.17585021636507
 31
0.0
  0
LINE
  5
9A
330
1F
100
AcDbEntity
  8
Doc_ Finishes
  6
Continuous
100
AcDbLine
 10
28.06817466561763
 20
12.17585021636507
 30
0.0
 11
28.41364525963808
 21
12.49829415814319
 31
0.0
  0
LINE
  5
9B
330
1F
100
AcDbEntity
  8
Doc_ Finishes
  6
Continuous
100
AcDbLine
 10
28.41364525963808
 20
12.49829415814319
 30
0.0
 11
28.39061418174666
 21
12.77467151848938
 31
0.0
  0
LINE
  5
9C
330
1F
100
AcDbEntity
  8
Doc_ Finishes
  6
Continuous
100
AcDbLine
 10
28.39061418174666
 20
12.77467151848938
 30
0.0
 11
28.22939221085759
 21
13.00498672305271
 31
0.0
  0
LINE
  5
9D
330
1F
100
AcDbEntity
  8
Doc_ Finishes
  6
Continuous
100
AcDbLine
 10
28.22939221085759
 20
13.00498672305271
 30
0.0
 11
28.04514358772619
 21
13.05104887883556
 31
0.0
  0
LINE
  5
9E
330
1F
100
AcDbEntity
  8
Doc_ Finishes
  6
Continuous
100
AcDbLine
 10
28.04514358772619
 20
13.05104887883556
 30
0.0
 11
27.6536064122738
 21
13.12014211250983
 31
0.0
  0
HATCH
  5
9F
330
1F
100
AcDbEntity
  8
Doc_ Finishes
  6
Continuous
100
AcDbHatch
 10
0.0
 20
0.0
 30
0.0
210
0.0
220
0.0
230
1.0
  2
SOLID
 70
     1
 71
     0
 91
        1
 92
        3
 72
     0
 73
     1
 93
       47
 10
28.06817353700456
 20
15.74573772316067
 10
28.30309513961077
 20
15.62136746295728
 10
28.4412843176144
 20
15.4002647781515
 10
28.93876535842742
 20
15.17916209334572
 10
29.82317609765057
 20
14.40530269652538
 10
30.92868952167951
 20
13.74199464210799
 10
31.59199757609689
 20
13.3827027792986
 10
32.20002995931279
 20
13.07868658769064
 10
33.55428390374828
 20
12.08372450606458
 10
34.07940278016201
 20
11.69679480765445
 10
34.88090001258301
 20
11.08876242443854
 10
35.59948373820179
 20
10.50836787682334
 10
36.5668079842271
 20
9.817421986805197
 10
37.06428902504012
 20
9.458130123995785
 10
37.81051058625966
 20
8.933011247582023
 10
38.61200781868061
 20
8.407892371168286
 10
38.77783483228498
 20
8.186789686362482
 10
39.38586721550092
 20
7.744584316750918
 10
40.18736444792187
 20
6.915449248729224
 10
40.7953968311378
 20
6.44560604351692
 10
41.56925622795804
 20
6.169227687509681
 10
42.23256428237543
 20
6.086314180707507
 10
42.48130480278193
 20
6.30741686551329
 10
42.14965077557326
 20
6.611433057121246
 10
41.48634272115586
 20
6.998362755531397
 10
40.76775899553709
 20
7.357654618340788
 10
40.18736444792187
 20
8.048600508358874
 10
38.99893751709079
 20
8.822459905179112
 10
38.47381864067705
 20
9.319940945992132
 10
38.22507812027052
 20
9.734508480003
 10
37.17484036744301
 20
10.31490302761817
 10
36.73263499783144
 20
10.78474623283046
 10
36.2351539570184
 20
11.17167593124059
 10
35.48893239579888
 20
11.61388130085215
 10
34.85326217698223
 20
12.16663801286669
 10
34.35578113616919
 20
12.58120554687754
 10
33.69247308175183
 20
12.99577308088841
 10
33.22262987653953
 20
13.32742710809708
 10
32.7251488357265
 20
13.5761676285036
 10
31.93747052110588
 20
14.06443605744977
 10
31.43077686842594
 20
14.38687747279155
 10
30.92408321574601
 20
14.70931888813342
 10
30.62467333007151
 20
15.100854892477
 10
29.95675896972068
 20
15.67664313415887
 10
29.47309684670803
 20
15.9530214901661
 10
28.82821401602447
 20
16.36758902417695
 10
28.50577260068269
 20
16.22939984617334
 97
        0
 75
     0
 76
     1
 98
        0
  0
LINE
  5
A0
330
1F
100
AcDbEntity
  8
Doc_ Finishes
  6
Continuous
100
AcDbLine
 10
28.30309697088906
 20
15.62136850904799
 30
0.0
 11
28.06817466561763
 21
15.74573809992132
 31
0.0
  0
LINE
  5
A1
330
1F
100
AcDbEntity
  8
Doc_ Finishes
  6
Continuous
100
AcDbLine
 10
28.44128343823761
 20
15.40026308025177
 30
0.0
 11
28.30309697088906
 21
15.62136850904799
 31
0.0
  0
LINE
  5
A2
330
1F
100
AcDbEntity
  8
Doc_ Finishes
  6
Continuous
100
AcDbLine
 10
28.93876622738001
 20
15.17916207710464
 30
0.0
 11
28.44128343823761
 21
15.40026308025177
 31
0.0
  0
LINE
  5
A3
330
1F
100
AcDbEntity
  8
Doc_ Finishes
  6
Continuous
100
AcDbLine
 10
29.82317466561762
 20
14.40530192761605
 30
0.0
 11
28.93876622738001
 21
15.17916207710464
 31
0.0
  0
LINE
  5
A4
330
1F
100
AcDbEntity
  8
Doc_ Finishes
  6
Continuous
100
AcDbLine
 10
30.92868853265146
 20
13.74199449252557
 30
0.0
 11
29.82317466561762
 21
14.40530192761605
 31
0.0
  0
LINE
  5
A5
330
1F
100
AcDbEntity
  8
Doc_ Finishes
  6
Continuous
100
AcDbLine
 10
31.59199596774193
 20
13.3827025963808
 30
0.0
 11
30.92868853265146
 21
13.74199449252557
 31
0.0
  0
LINE
  5
A6
330
1F
100
AcDbEntity
  8
Doc_ Finishes
  6
Continuous
100
AcDbLine
 10
32.20003147128246
 20
13.07868705743509
 30
0.0
 11
31.59199596774193
 21
13.3827025963808
 31
0.0
  0
LINE
  5
A7
330
1F
100
AcDbEntity
  8
Doc_ Finishes
  6
Continuous
100
AcDbLine
 10
33.55428452006294
 20
12.08372590479937
 30
0.0
 11
32.20003147128246
 21
13.07868705743509
 31
0.0
  0
LINE
  5
A8
330
1F
100
AcDbEntity
  8
Doc_ Finishes
  6
Continuous
100
AcDbLine
 10
34.07940106215578
 20
11.69679583005508
 30
0.0
 11
33.55428452006294
 21
12.08372590479937
 31
0.0
  0
LINE
  5
A9
330
1F
100
AcDbEntity
  8
Doc_ Finishes
  6
Continuous
100
AcDbLine
 10
34.8808993902439
 20
11.08876032651456
 30
0.0
 11
34.07940106215578
 21
11.69679583005508
 31
0.0
  0
LINE
  5
AA
330
1F
100
AcDbEntity
  8
Doc_ Finishes
  6
Continuous
100
AcDbLine
 10
35.59948318253343
 20
10.50836742722266
 30
0.0
 11
34.8808993902439
 21
11.08876032651456
 31
0.0
  0
LINE
  5
AB
330
1F
100
AcDbEntity
  8
Doc_ Finishes
  6
Continuous
100
AcDbLine
 10
36.56680615656963
 20
9.817421813532652
 30
0.0
 11
35.59948318253343
 21
10.50836742722266
 31
0.0
  0
LINE
  5
AC
330
1F
100
AcDbEntity
  8
Doc_ Finishes
  6
Continuous
100
AcDbLine
 10
37.06428894571204
 20
9.458129917387884
 30
0.0
 11
36.56680615656963
 21
9.817421813532652
 31
0.0
  0
LINE
  5
AD
330
1F
100
AcDbEntity
  8
Doc_ Finishes
  6
Continuous
100
AcDbLine
 10
37.8105109166011
 20
8.933013375295044
 30
0.0
 11
37.06428894571204
 21
9.458129917387884
 31
0.0
  0
LINE
  5
AE
330
1F
100
AcDbEntity
  8
Doc_ Finishes
  6
Continuous
100
AcDbLine
 10
38.61200924468922
 20
8.407892407553108
 30
0.0
 11
37.8105109166011
 21
8.933013375295044
 31
0.0
  0
LINE
  5
AF
330
1F
100
AcDbEntity
  8
Doc_ Finishes
  6
Continuous
100
AcDbLine
 10
38.77783389063729
 20
8.18679140440598
 30
0.0
 11
38.61200924468922
 21
8.407892407553108
 31
0.0
  0
LINE
  5
B0
330
1F
100
AcDbEntity
  8
Doc_ Finishes
  6
Continuous
100
AcDbLine
 10
39.3858693941778
 20
7.744584972462627
 30
0.0
 11
38.77783389063729
 21
8.18679140440598
 31
0.0
  0
LINE
  5
B1
330
1F
100
AcDbEntity
  8
Doc_ Finishes
  6
Continuous
100
AcDbLine
 10
40.18736329661684
 20
6.915448465774981
 30
0.0
 11
39.3858693941778
 21
7.744584972462627
 31
0.0
  0
LINE
  5
B2
330
1F
100
AcDbEntity
  8
Doc_ Finishes
  6
Continuous
100
AcDbLine
 10
40.79539880015735
 20
6.4456038552321
 30
0.0
 11
40.18736329661684
 21
6.915448465774981
 31
0.0
  0
LINE
  5
B3
330
1F
100
AcDbEntity
  8
Doc_ Finishes
  6
Continuous
100
AcDbLine
 10
41.56925452399685
 20
6.169226494885916
 30
0.0
 11
40.79539880015735
 21
6.4456038552321
 31
0.0
  0
LINE
  5
B4
330
1F
100
AcDbEntity
  8
Doc_ Finishes
  6
Continuous
100
AcDbLine
 10
42.23256638473643
 20
6.086316384736428
 30
0.0
 11
41.56925452399685
 21
6.169226494885916
 31
0.0
  0
LINE
  5
B5
330
1F
100
AcDbEntity
  8
Doc_ Finishes
  6
Continuous
100
AcDbLine
 10
42.48130556648308
 20
6.307417387883556
 30
0.0
 11
42.23256638473643
 21
6.086316384736428
 31
0.0
  0
LINE
  5
B6
330
1F
100
AcDbEntity
  8
Doc_ Finishes
  6
Continuous
100
AcDbLine
 10
42.14965184893784
 20
6.611432926829268
 30
0.0
 11
42.48130556648308
 21
6.307417387883556
 31
0.0
  0
LINE
  5
B7
330
1F
100
AcDbEntity
  8
Doc_ Finishes
  6
Continuous
100
AcDbLine
 10
41.48634441384736
 20
6.998363001573564
 30
0.0
 11
42.14965184893784
 21
6.611432926829268
 31
0.0
  0
LINE
  5
B8
330
1F
100
AcDbEntity
  8
Doc_ Finishes
  6
Continuous
100
AcDbLine
 10
40.76776062155783
 20
7.357654897718332
 30
0.0
 11
41.48634441384736
 21
6.998363001573564
 31
0.0
  0
LINE
  5
B9
330
1F
100
AcDbEntity
  8
Doc_ Finishes
  6
Continuous
100
AcDbLine
 10
40.18736329661684
 20
8.048600511408338
 30
0.0
 11
40.76776062155783
 21
7.357654897718332
 31
0.0
  0
LINE
  5
BA
330
1F
100
AcDbEntity
  8
Doc_ Finishes
  6
Continuous
100
AcDbLine
 10
38.99893931943352
 20
8.822460660896931
 30
0.0
 11
40.18736329661684
 21
8.048600511408338
 31
0.0
  0
LINE
  5
BB
330
1F
100
AcDbEntity
  8
Doc_ Finishes
  6
Continuous
100
AcDbLine
 10
38.47381835169158
 20
9.319939024390242
 30
0.0
 11
38.99893931943352
 21
8.822460660896931
 31
0.0
  0
LINE
  5
BC
330
1F
100
AcDbEntity
  8
Doc_ Finishes
  6
Continuous
100
AcDbLine
 10
38.22507916994492
 20
9.734507277734066
 30
0.0
 11
38.47381835169158
 21
9.319939024390242
 31
0.0
  0
LINE
  5
BD
330
1F
100
AcDbEntity
  8
Doc_ Finishes
  6
Continuous
100
AcDbLine
 10
37.17484166011014
 20
10.31490460267506
 30
0.0
 11
38.22507916994492
 21
9.734507277734066
 31
0.0
  0
LINE
  5
BE
330
1F
100
AcDbEntity
  8
Doc_ Finishes
  6
Continuous
100
AcDbLine
 10
36.7326352281668
 20
10.78474478756884
 30
0.0
 11
37.17484166011014
 21
10.31490460267506
 31
0.0
  0
LINE
  5
BF
330
1F
100
AcDbEntity
  8
Doc_ Finishes
  6
Continuous
100
AcDbLine
 10
36.23515243902439
 20
11.17167486231314
 30
0.0
 11
36.7326352281668
 21
10.78474478756884
 31
0.0
  0
LINE
  5
C0
330
1F
100
AcDbEntity
  8
Doc_ Finishes
  6
Continuous
100
AcDbLine
 10
35.48893046813532
 20
11.61388129425649
 30
0.0
 11
36.23515243902439
 21
11.17167486231314
 31
0.0
  0
LINE
  5
C1
330
1F
100
AcDbEntity
  8
Doc_ Finishes
  6
Continuous
100
AcDbLine
 10
34.85326121164437
 20
12.16663601494886
 30
0.0
 11
35.48893046813532
 21
11.61388129425649
 31
0.0
  0
LINE
  5
C2
330
1F
100
AcDbEntity
  8
Doc_ Finishes
  6
Continuous
100
AcDbLine
 10
34.35578284815106
 20
12.58120426829268
 30
0.0
 11
34.85326121164437
 21
12.16663601494886
 31
0.0
  0
LINE
  5
C3
330
1F
100
AcDbEntity
  8
Doc_ Finishes
  6
Continuous
100
AcDbLine
 10
33.69247098741149
 20
12.99577252163651
 30
0.0
 11
34.35578284815106
 21
12.58120426829268
 31
0.0
  0
LINE
  5
C4
330
1F
100
AcDbEntity
  8
Doc_ Finishes
  6
Continuous
100
AcDbLine
 10
33.2226308025177
 20
13.32742623918175
 30
0.0
 11
33.69247098741149
 21
12.99577252163651
 31
0.0
  0
LINE
  5
C5
330
1F
100
AcDbEntity
  8
Doc_ Finishes
  6
Continuous
100
AcDbLine
 10
32.7251480133753
 20
13.5761654209284
 30
0.0
 11
33.2226308025177
 21
13.32742623918175
 31
0.0
  0
LINE
  5
C6
330
1F
100
AcDbEntity
  8
Doc_ Finishes
  6
Continuous
100
AcDbLine
 10
31.93747098741148
 20
14.0644340086546
 30
0.0
 11
32.7251480133753
 21
13.5761654209284
 31
0.0
  0
LINE
  5
C7
330
1F
100
AcDbEntity
  8
Doc_ Finishes
  6
Continuous
100
AcDbLine
 10
31.43077842250197
 20
14.38687795043273
 30
0.0
 11
31.93747098741148
 21
14.0644340086546
 31
0.0
  0
LINE
  5
C8
330
1F
100
AcDbEntity
  8
Doc_ Finishes
  6
Continuous
100
AcDbLine
 10
30.92408143194335
 20
14.70931746656176
 30
0.0
 11
31.43077842250197
 21
14.38687795043273
 31
0.0
  0
LINE
  5
C9
330
1F
100
AcDbEntity
  8
Doc_ Finishes
  6
Continuous
100
AcDbLine
 10
30.62467299370574
 20
15.10085464201416
 30
0.0
 11
30.92408143194335
 21
14.70931746656176
 31
0.0
  0
LINE
  5
CA
330
1F
100
AcDbEntity
  8
Doc_ Finishes
  6
Continuous
100
AcDbLine
 10
29.95675845790716
 20
15.67664486624705
 30
0.0
 11
30.62467299370574
 21
15.10085464201416
 31
0.0
  0
LINE
  5
CB
330
1F
100
AcDbEntity
  8
Doc_ Finishes
  6
Continuous
100
AcDbLine
 10
29.47309697088906
 20
15.95302222659323
 30
0.0
 11
29.95675845790716
 21
15.67664486624705
 31
0.0
  0
LINE
  5
CC
330
1F
100
AcDbEntity
  8
Doc_ Finishes
  6
Continuous
100
AcDbLine
 10
28.8282135129819
 20
16.36759047993706
 30
0.0
 11
29.47309697088906
 21
15.95302222659323
 31
0.0
  0
LINE
  5
CD
330
1F
100
AcDbEntity
  8
Doc_ Finishes
  6
Continuous
100
AcDbLine
 10
28.50577399685287
 20
16.22939958693942
 30
0.0
 11
28.8282135129819
 21
16.36759047993706
 31
0.0
  0
LINE
  5
CE
330
1F
100
AcDbEntity
  8
Doc_ Finishes
  6
Continuous
100
AcDbLine
 10
28.06817466561763
 20
15.74573809992132
 30
0.0
 11
28.50577399685287
 21
16.22939958693942
 31
0.0
  0
LINE
  5
CF
330
1F
100
AcDbEntity
  8
Doc_ Finishes
  6
Continuous
 62
   254
370
    18
100
AcDbLine
 10
97.43333792289535
 20
5.093360051140834
 30
0.0
 11
97.43333792289535
 21
20.69901750590086
 31
0.0
  0
LINE
  5
D0
330
1F
100
AcDbEntity
  8
Doc_ Finishes
  6
Continuous
 62
   254
370
    18
100
AcDbLine
 10
7.000000491738787
 20
20.69901750590086
 30
0.0
 11
290.2406840086546
 21
20.69901750590086
 31
0.0
  0
LINE
  5
D1
330
1F
100
AcDbEntity
  8
Doc_ Finishes
  6
Continuous
 62
   254
370
    18
100
AcDbLine
 10
290.2406840086546
 20
20.69901750590086
 30
0.0
 11
290.2406840086546
 21
5.000000983477577
 31
0.0
  0
LINE
  5
D2
330
1F
100
AcDbEntity
  8
Doc_ Finishes
  6
Continuous
 62
   254
370
    18
100
AcDbLine
 10
290.2406840086546
 20
5.000000983477577
 30
0.0
 11
7.000000491738787
 21
5.000000983477577
 31
0.0
  0
LINE
  5
D3
330
1F
100
AcDbEntity
  8
Doc_ Finishes
  6
Continuous
 62
   254
370
    18
100
AcDbLine
 10
7.000000491738787
 20
20.69901750590086
 30
0.0
 11
7.000000491738787
 21
5.000000983477577
 31
0.0
  0
LINE
  5
D4
330
1F
100
AcDbEntity
  8
Doc_ Finishes
  6
Continuous
 62
   254
370
    18
100
AcDbLine
 10
190.2919443351691
 20
5.093360051140834
 30
0.0
 11
190.2919443351691
 21
20.69901750590086
 31
0.0
  0
LINE
  5
D5
330
1F
100
AcDbEntity
  8
Doc_ Finishes
  6
Continuous
 62
   254
370
    18
100
AcDbLine
 10
190.2919443351691
 20
12.8961909913454
 30
0.0
 11
290.2406840086546
 21
12.8961909913454
 31
0.0
  0
MTEXT
  5
D7
330
1F
100
AcDbEntity
  8
0
  6
Continuous
100
AcDbMText
 10
210.3494767103412
 20
15.00227993155626
 30
0.0
 40
2.25
 41
0.0
 71
     7
 72
     1
  1
{R-TRS7-18}
  7
GENERATED_STYLE_1
 73
     1
 44
1.0
  0
MTEXT
  5
D8
330
1F
100
AcDbEntity
  8
0
  6
Continuous
100
AcDbMText
 10
210.3494767103412
 20
11.03300550383743
 30
0.0
 40
3.0
 41
0.0
 71
     1
 72
     1
  1
{CHIMNEY PENETRATION DETAIL}
  7
GENERATED_STYLE_1
 73
     1
 44
1.0
  0
MTEXT
  5
DA
330
1F
100
AcDbEntity
  8
Doc_ Floor
  6
Continuous
100
AcDbMText
 10
29.78353726544612
 20
13.33283672870609
 30
0.0
 40
5.603347280334726
 41
0.0
 71
     1
 72
     1
  1
{The Roofing Store}
  7
GENERATED_STYLE_2
 73
     1
 44
1.0
  0
MTEXT
  5
DC
102
{ACAD_XDICTIONARY
360
3BD
102
}
330
1F
100
AcDbEntity
  8
0
  6
Continuous
100
AcDbMText
 10
102.7389238446655
 20
6.378784417288156
 30
0.0
 40
1.5
 41
0.0
 71
     7
 72
     1
  1
{P: HEAD OFFICE              09 277 2717\P    ALBANY             09 972 0060\P    KATIKAIT            07 549 5190\P    WELLINGTON              04 974 5792\P    CHRISTCHURCH          03 348 6528}
  7
GENERATED_STYLE_1
 73
     1
 44
1.062946161486498
  0
MTEXT
  5
DD
330
1F
100
AcDbEntity
  8
0
  6
Continuous
100
AcDbMText
 10
149.4184566143587
 20
9.199084231526156
 30
0.0
 40
1.5
 41
0.0
 71
     7
 72
     1
  1
{WEB: www.theroofingstore.co.nz}
  7
GENERATED_STYLE_1
 73
     1
 44
1.0
  0
MTEXT
  5
DE
330
1F
100
AcDbEntity
  8
0
  6
Continuous
100
AcDbMText
 10
149.4184566143587
 20
6.620946023411263
 30
0.0
 40
1.5
 41
0.0
 71
     7
 72
     1
  1
{Copyright \U+00A9 The Roofing Store 2013}
  7
GENERATED_STYLE_1
 73
     1
 44
1.0
  0
MTEXT
  5
DF
330
1F
100
AcDbEntity
  8
0
  6
Continuous
100
AcDbMText
 10
273.9546684065315
 20
15.01594826540159
 30
0.0
 40
2.25
 41
0.0
 71
     7
 72
     1
  1
{1:30}
  7
GENERATED_STYLE_1
 73
     1
 44
1.0
  0
MTEXT
  5
E0
330
1F
100
AcDbEntity
  8
0
  6
Continuous
100
AcDbMText
 10
264.8396605309016
 20
15.51746459162148
 30
0.0
 40
1.5
 41
0.0
 71
     7
 72
     1
  1
{SCALE:}
  7
GENERATED_STYLE_1
 73
     1
 44
1.0
  0
MTEXT
  5
E1
330
1F
100
AcDbEntity
  8
0
  6
Continuous
100
AcDbMText
 10
191.5066235617487
 20
15.48695559872207
 30
0.0
 40
1.5
 41
0.0
 71
     7
 72
     1
  1
{DETAIL NUMBER:}
  7
GENERATED_STYLE_1
 73
     1
 44
1.0
  0
MTEXT
  5
E2
330
1F
100
AcDbEntity
  8
0
  6
Continuous
100
AcDbMText
 10
191.5066235617487
 20
9.005462392315325
 30
0.0
 40
1.5
 41
0.0
 71
     7
 72
     1
  1
{TITLE:}
  7
GENERATED_STYLE_1
 73
     1
 44
1.0
  0
INSERT
  5
388
102
{ACAD_XDICTIONARY
360
389
102
}
330
1F
100
AcDbEntity
  8
0
  6
Continuous
100
AcDbBlockReference
  2
Drawing_1_2
 10
145.2277640610102
 20
160.7933108349203
 30
0.0
  0
HATCH
  5
38C
330
1F
100
AcDbEntity
  8
0
  6
Continuous
 62
   255
370
    18
100
AcDbHatch
 10
0.0
 20
0.0
 30
0.0
210
0.0
220
0.0
230
1.0
  2
SOLID
 70
     1
 71
     1
 91
        1
 92
        3
 72
     0
 73
     1
 93
        4
 10
273.3048340926641
 20
18.76127115967694
 10
281.1157441007591
 20
18.76127115967694
 10
281.1157441007591
 20
13.60607055433428
 10
273.3048340926641
 20
13.60607055433428
 97
        1
330
38D
 75
     0
 76
     1
 98
        0
  0
LWPOLYLINE
  5
38D
102
{ACAD_REACTORS
330
38C
102
}
330
1F
100
AcDbEntity
  8
0
  6
Continuous
 62
   255
370
    18
100
AcDbPolyline
 90
        4
 70
   129
 43
0.0
 10
273.3048340926641
 20
18.76127115967694
 10
281.1157441007591
 20
18.76127115967694
 10
281.1157441007591
 20
13.60607055433428
 10
273.3048340926641
 20
13.60607055433428
  0
MTEXT
  5
38E
330
1F
100
AcDbEntity
  8
0
  6
Continuous
100
AcDbMText
 10
273.3048340926641
 20
15.04971009924697
 30
0.0
 40
2.0
 41
0.0
 71
     7
 72
     1
  1
{NTS}
  7
GENERATED_STYLE_1
 73
     1
 44
1.0
  0
ENDSEC
  0
SECTION
  2
OBJECTS
  0
DICTIONARY
  5
C
330
0
100
AcDbDictionary
281
     1
  3
ACAD_GROUP
350
D
  3
ACAD_LAYOUT
350
1A
  3
ACAD_MATERIAL
350
3B
  3
ACAD_MLEADERSTYLE
350
3B8
  3
ACAD_MLINESTYLE
350
17
  3
ACAD_PLOTSETTINGS
350
19
  3
ACAD_PLOTSTYLENAME
350
E
  3
ACAD_SCALELIST
350
392
  3
ACAD_VISUALSTYLE
350
2A
  3
AcDbVariableDictionary
350
3B6
  3
WATERMARKS
350
3B4
  0
DICTIONARY
  5
3BD
330
DC
100
AcDbDictionary
280
     1
281
     1
  3
ACAD_MTEXT_RT
360
3BE
  0
DICTIONARY
  5
389
330
388
100
AcDbDictionary
280
     1
281
     1
  3
ACAD_FILTER
360
38A
  0
DICTIONARY
  5
D
102
{ACAD_REACTORS
330
C
102
}
330
C
100
AcDbDictionary
281
     1
  0
DICTIONARY
  5
1A
102
{ACAD_REACTORS
330
C
102
}
330
C
100
AcDbDictionary
281
     1
  3
Layout1
350
1E
  3
Model
350
22
  0
DICTIONARY
  5
3B
102
{ACAD_REACTORS
330
C
102
}
330
C
100
AcDbDictionary
281
     1
  3
ByBlock
350
3D
  3
ByLayer
350
3C
  3
Global
350
3E
  0
DICTIONARY
  5
3B8
102
{ACAD_REACTORS
330
C
102
}
330
C
100
AcDbDictionary
281
     1
  0
DICTIONARY
  5
17
102
{ACAD_REACTORS
330
C
102
}
330
C
100
AcDbDictionary
281
     1
  3
Standard
350
18
  0
DICTIONARY
  5
19
102
{ACAD_REACTORS
330
C
102
}
330
C
100
AcDbDictionary
281
     1
  0
ACDBDICTIONARYWDFLT
  5
E
102
{ACAD_REACTORS
330
C
102
}
330
C
100
AcDbDictionary
281
     1
  3
Normal
350
F
100
AcDbDictionaryWithDefault
340
F
  0
DICTIONARY
  5
392
102
{ACAD_REACTORS
330
C
102
}
330
C
100
AcDbDictionary
281
     1
  3
A0
350
393
  3
A1
350
394
  3
A2
350
395
  3
A3
350
396
  3
A4
350
397
  3
A5
350
398
  3
A6
350
399
  3
A7
350
39A
  3
A8
350
39B
  3
A9
350
39C
  3
B0
350
39D
  3
B1
350
39E
  3
B2
350
39F
  3
B3
350
3A0
  3
B4
350
3A1
  3
B5
350
3A2
  3
B6
350
3A3
  3
B7
350
3A4
  3
B8
350
3A5
  3
B9
350
3A6
  3
C0
350
3A7
  3
C1
350
3A8
  3
C2
350
3A9
  3
C3
350
3AA
  3
C4
350
3AB
  3
C5
350
3AC
  3
C6
350
3AD
  3
C7
350
3AE
  3
C8
350
3AF
  3
C9
350
3B0
  3
D0
350
3B1
  3
D1
350
3B2
  3
D2
350
3B3
  0
DICTIONARY
  5
2A
102
{ACAD_REACTORS
330
C
102
}
330
C
100
AcDbDictionary
281
     1
  3
2dWireframe
350
2F
  3
3D Hidden
350
31
  3
3dWireframe
350
30
  3
Basic
350
32
  3
Brighten
350
36
  3
ColorChange
350
3A
  3
Conceptual
350
34
  3
Dim
350
35
  3
Facepattern
350
39
  3
Flat
350
2B
  3
FlatWithEdges
350
2C
  3
Gouraud
350
2D
  3
GouraudWithEdges
350
2E
  3
Linepattern
350
38
  3
Realistic
350
33
  3
Thicken
350
37
  0
DICTIONARY
  5
3B6
102
{ACAD_REACTORS
330
C
102
}
330
C
100
AcDbDictionary
281
     1
  3
CANNOSCALE
350
3BA
  3
DIMASSOC
350
3BB
  3
HIDETEXT
350
3BC
  3
XCLIPFRAME
350
3B9
  0
DICTIONARY
  5
3B4
102
{ACAD_REACTORS
330
C
102
}
330
C
100
AcDbDictionary
281
     1
  3
AC_WATERMARK
350
3B5
  0
XRECORD
  5
3BE
102
{ACAD_REACTORS
330
3BD
102
}
330
3BD
100
AcDbXrecord
280
     1
 40
956118.0
  1
{P: HEAD OFFICE ^I^I09 277 2717\P    ALBANY ^I^I09 972 0060\P    KATIKAIT^I^I07 549 5190\P    WELLINGTON^I^I04 974 5792\P    CHRISTCHURCH^I^I03 348 6528}
  0
DICTIONARY
  5
38A
102
{ACAD_REACTORS
330
389
102
}
330
389
100
AcDbDictionary
280
     1
281
     1
  3
SPATIAL
360
38B
  0
LAYOUT
  5
1E
102
{ACAD_REACTORS
330
1A
102
}
330
1A
100
AcDbPlotSettings
  1

  2
none_device
  4

  6

 40
0.0
 41
0.0
 42
0.0
 43
0.0
 44
0.0
 45
0.0
 46
0.0
 47
0.0
 48
0.0
 49
0.0
140
0.0
141
0.0
142
1.0
143
1.0
 70
   688
 72
     0
 73
     0
 74
     5
  7

 75
    16
147
1.0
148
0.0
149
0.0
100
AcDbLayout
  1
Layout1
 70
     1
 71
     1
 10
0.0
 20
0.0
 11
12.0
 21
9.0
 12
0.0
 22
0.0
 32
0.0
 14
1.000000000000000E+20
 24
1.000000000000000E+20
 34
1.000000000000000E+20
 15
-1.000000000000000E+20
 25
-1.000000000000000E+20
 35
-1.000000000000000E+20
146
0.0
 13
0.0
 23
0.0
 33
0.0
 16
1.0
 26
0.0
 36
0.0
 17
0.0
 27
1.0
 37
0.0
 76
     0
330
1B
  0
LAYOUT
  5
22
102
{ACAD_REACTORS
330
1A
102
}
330
1A
100
AcDbPlotSettings
  1

  2
none_device
  4

  6

 40
0.0
 41
0.0
 42
0.0
 43
0.0
 44
0.0
 45
0.0
 46
0.0
 47
0.0
 48
0.0
 49
0.0
140
0.0
141
0.0
142
1.0
143
1.0
 70
  1712
 72
     0
 73
     0
 74
     0
  7

 75
     0
147
1.0
148
0.0
149
0.0
100
AcDbLayout
  1
Model
 70
     1
 71
     0
 10
0.0
 20
0.0
 11
12.0
 21
9.0
 12
0.0
 22
0.0
 32
0.0
 14
1.000000000000000E+20
 24
1.000000000000000E+20
 34
1.000000000000000E+20
 15
-1.000000000000000E+20
 25
-1.000000000000000E+20
 35
-1.000000000000000E+20
146
0.0
 13
0.0
 23
0.0
 33
0.0
 16
1.0
 26
0.0
 36
0.0
 17
0.0
 27
1.0
 37
0.0
 76
     0
330
1F
331
29
  0
MATERIAL
  5
3D
102
{ACAD_REACTORS
330
3B
102
}
102
{ACAD_XDICTIONARY
360
3E1
102
}
330
3B
100
AcDbMaterial
  1
ByBlock
  0
MATERIAL
  5
3C
102
{ACAD_REACTORS
330
3B
102
}
102
{ACAD_XDICTIONARY
360
3DF
102
}
330
3B
100
AcDbMaterial
  1
ByLayer
  0
MATERIAL
  5
3E
102
{ACAD_REACTORS
330
3B
102
}
102
{ACAD_XDICTIONARY
360
3E3
102
}
330
3B
100
AcDbMaterial
  1
Global
  0
MLINESTYLE
  5
18
102
{ACAD_REACTORS
330
17
102
}
330
17
100
AcDbMlineStyle
  2
Standard
 70
     0
  3

 62
   256
 51
90.0
 52
90.0
 71
     2
 49
0.5
 62
   256
  6
BYLAYER
 49
-0.5
 62
   256
  6
BYLAYER
  0
ACDBPLACEHOLDER
  5
F
102
{ACAD_REACTORS
330
E
102
}
330
E
  0
SCALE
  5
393
102
{ACAD_REACTORS
330
392
102
}
330
392
100
AcDbScale
 70
     0
300
1:1
140
1.0
141
1.0
290
     1
  0
SCALE
  5
394
102
{ACAD_REACTORS
330
392
102
}
330
392
100
AcDbScale
 70
     0
300
1:2
140
1.0
141
2.0
290
     0
  0
SCALE
  5
395
102
{ACAD_REACTORS
330
392
102
}
330
392
100
AcDbScale
 70
     0
300
1:4
140
1.0
141
4.0
290
     0
  0
SCALE
  5
396
102
{ACAD_REACTORS
330
392
102
}
330
392
100
AcDbScale
 70
     0
300
1:5
140
1.0
141
5.0
290
     0
  0
SCALE
  5
397
102
{ACAD_REACTORS
330
392
102
}
330
392
100
AcDbScale
 70
     0
300
1:8
140
1.0
141
8.0
290
     0
  0
SCALE
  5
398
102
{ACAD_REACTORS
330
392
102
}
330
392
100
AcDbScale
 70
     0
300
1:10
140
1.0
141
10.0
290
     0
  0
SCALE
  5
399
102
{ACAD_REACTORS
330
392
102
}
330
392
100
AcDbScale
 70
     0
300
1:16
140
1.0
141
16.0
290
     0
  0
SCALE
  5
39A
102
{ACAD_REACTORS
330
392
102
}
330
392
100
AcDbScale
 70
     0
300
1:20
140
1.0
141
20.0
290
     0
  0
SCALE
  5
39B
102
{ACAD_REACTORS
330
392
102
}
330
392
100
AcDbScale
 70
     0
300
1:30
140
1.0
141
30.0
290
     0
  0
SCALE
  5
39C
102
{ACAD_REACTORS
330
392
102
}
330
392
100
AcDbScale
 70
     0
300
1:40
140
1.0
141
40.0
290
     0
  0
SCALE
  5
39D
102
{ACAD_REACTORS
330
392
102
}
330
392
100
AcDbScale
 70
     0
300
1:50
140
1.0
141
50.0
290
     0
  0
SCALE
  5
39E
102
{ACAD_REACTORS
330
392
102
}
330
392
100
AcDbScale
 70
     0
300
1:100
140
1.0
141
100.0
290
     0
  0
SCALE
  5
39F
102
{ACAD_REACTORS
330
392
102
}
330
392
100
AcDbScale
 70
     0
300
2:1
140
2.0
141
1.0
290
     0
  0
SCALE
  5
3A0
102
{ACAD_REACTORS
330
392
102
}
330
392
100
AcDbScale
 70
     0
300
4:1
140
4.0
141
1.0
290
     0
  0
SCALE
  5
3A1
102
{ACAD_REACTORS
330
392
102
}
330
392
100
AcDbScale
 70
     0
300
8:1
140
8.0
141
1.0
290
     0
  0
SCALE
  5
3A2
102
{ACAD_REACTORS
330
392
102
}
330
392
100
AcDbScale
 70
     0
300
10:1
140
10.0
141
1.0
290
     0
  0
SCALE
  5
3A3
102
{ACAD_REACTORS
330
392
102
}
330
392
100
AcDbScale
 70
     0
300
100:1
140
100.0
141
1.0
290
     0
  0
SCALE
  5
3A4
102
{ACAD_REACTORS
330
392
102
}
330
392
100
AcDbScale
 70
     0
300
1/128" = 1'-0"
140
0.0078125
141
12.0
290
     0
  0
SCALE
  5
3A5
102
{ACAD_REACTORS
330
392
102
}
330
392
100
AcDbScale
 70
     0
300
1/64" = 1'-0"
140
0.015625
141
12.0
290
     0
  0
SCALE
  5
3A6
102
{ACAD_REACTORS
330
392
102
}
330
392
100
AcDbScale
 70
     0
300
1/32" = 1'-0"
140
0.03125
141
12.0
290
     0
  0
SCALE
  5
3A7
102
{ACAD_REACTORS
330
392
102
}
330
392
100
AcDbScale
 70
     0
300
1/16" = 1'-0"
140
0.0625
141
12.0
290
     0
  0
SCALE
  5
3A8
102
{ACAD_REACTORS
330
392
102
}
330
392
100
AcDbScale
 70
     0
300
3/32" = 1'-0"
140
0.09375
141
12.0
290
     0
  0
SCALE
  5
3A9
102
{ACAD_REACTORS
330
392
102
}
330
392
100
AcDbScale
 70
     0
300
1/8" = 1'-0"
140
0.125
141
12.0
290
     0
  0
SCALE
  5
3AA
102
{ACAD_REACTORS
330
392
102
}
330
392
100
AcDbScale
 70
     0
300
3/16" = 1'-0"
140
0.1875
141
12.0
290
     0
  0
SCALE
  5
3AB
102
{ACAD_REACTORS
330
392
102
}
330
392
100
AcDbScale
 70
     0
300
1/4" = 1'-0"
140
0.25
141
12.0
290
     0
  0
SCALE
  5
3AC
102
{ACAD_REACTORS
330
392
102
}
330
392
100
AcDbScale
 70
     0
300
3/8" = 1'-0"
140
0.375
141
12.0
290
     0
  0
SCALE
  5
3AD
102
{ACAD_REACTORS
330
392
102
}
330
392
100
AcDbScale
 70
     0
300
1/2" = 1'-0"
140
0.5
141
12.0
290
     0
  0
SCALE
  5
3AE
102
{ACAD_REACTORS
330
392
102
}
330
392
100
AcDbScale
 70
     0
300
3/4" = 1'-0"
140
0.75
141
12.0
290
     0
  0
SCALE
  5
3AF
102
{ACAD_REACTORS
330
392
102
}
330
392
100
AcDbScale
 70
     0
300
1" = 1'-0"
140
1.0
141
12.0
290
     0
  0
SCALE
  5
3B0
102
{ACAD_REACTORS
330
392
102
}
330
392
100
AcDbScale
 70
     0
300
1-1/2" = 1'-0"
140
1.5
141
12.0
290
     0
  0
SCALE
  5
3B1
102
{ACAD_REACTORS
330
392
102
}
330
392
100
AcDbScale
 70
     0
300
3" = 1'-0"
140
3.0
141
12.0
290
     0
  0
SCALE
  5
3B2
102
{ACAD_REACTORS
330
392
102
}
330
392
100
AcDbScale
 70
     0
300
6" = 1'-0"
140
6.0
141
12.0
290
     0
  0
SCALE
  5
3B3
102
{ACAD_REACTORS
330
392
102
}
330
392
100
AcDbScale
 70
     0
300
1'-0" = 1'-0"
140
12.0
141
12.0
290
     0
  0
VISUALSTYLE
  5
2F
102
{ACAD_REACTORS
330
2A
102
}
102
{ACAD_XDICTIONARY
360
3C7
102
}
330
2A
100
AcDbVisualStyle
  2
2dWireframe
 70
     4
 71
     0
 72
     2
 73
     0
 90
        0
 40
-0.6
 41
-30.0
 62
     5
 63
     7
 74
     1
 91
        4
 64
     7
 65
   257
 75
     1
175
     1
 42
1.0
 92
        0
 66
   257
 43
1.0
 76
     1
 77
     6
 78
     2
 67
     7
 79
     5
170
     0
171
     0
290
     0
174
     0
 93
        1
 44
0.0
173
     0
291
     0
 45
0.0
1001
ACAD
1000
AcDbSavedByObjectVersion
1070
     0
  0
VISUALSTYLE
  5
31
102
{ACAD_REACTORS
330
2A
102
}
102
{ACAD_XDICTIONARY
360
3CB
102
}
330
2A
100
AcDbVisualStyle
  2
3D Hidden
 70
     6
 71
     1
 72
     2
 73
     2
 90
        0
 40
-0.6
 41
-30.0
 62
     5
 63
     7
 74
     2
 91
        2
 64
     7
 65
   257
 75
     2
175
     1
 42
40.0
 92
        0
 66
   257
 43
1.0
 76
     1
 77
     6
 78
     2
 67
     7
 79
     3
170
     0
171
     0
290
     0
174
     0
 93
        1
 44
0.0
173
     0
291
     0
 45
0.0
1001
ACAD
1000
AcDbSavedByObjectVersion
1070
     0
  0
VISUALSTYLE
  5
30
102
{ACAD_REACTORS
330
2A
102
}
102
{ACAD_XDICTIONARY
360
3C9
102
}
330
2A
100
AcDbVisualStyle
  2
3dWireframe
 70
     5
 71
     0
 72
     2
 73
     0
 90
        0
 40
-0.6
 41
-30.0
 62
     5
 63
     7
 74
     1
 91
        4
 64
     7
 65
   257
 75
     1
175
     1
 42
1.0
 92
        0
 66
   257
 43
1.0
 76
     1
 77
     6
 78
     2
 67
     7
 79
     5
170
     0
171
     0
290
     0
174
     0
 93
        1
 44
0.0
173
     0
291
     0
 45
0.0
1001
ACAD
1000
AcDbSavedByObjectVersion
1070
     0
  0
VISUALSTYLE
  5
32
102
{ACAD_REACTORS
330
2A
102
}
102
{ACAD_XDICTIONARY
360
3CD
102
}
330
2A
100
AcDbVisualStyle
  2
Basic
 70
     7
 71
     1
 72
     0
 73
     1
 90
        0
 40
-0.6
 41
-30.0
 62
     5
 63
     7
 74
     0
 91
        4
 64
     7
 65
   257
 75
     1
175
     1
 42
1.0
 92
        8
 66
     7
 43
1.0
 76
     1
 77
     6
 78
     2
 67
     7
 79
     5
170
     0
171
     0
290
     0
174
     0
 93
        1
 44
0.0
173
     0
291
     1
 45
0.0
1001
ACAD
1000
AcDbSavedByObjectVersion
1070
     0
  0
VISUALSTYLE
  5
36
102
{ACAD_REACTORS
330
2A
102
}
102
{ACAD_XDICTIONARY
360
3D5
102
}
330
2A
100
AcDbVisualStyle
  2
Brighten
 70
    12
 71
     2
 72
     2
 73
     0
 90
        0
 40
-0.6
 41
-30.0
 62
     5
 63
     7
 74
     1
 91
        4
 64
     7
 65
   257
 75
     1
175
     1
 42
1.0
 92
        8
 66
     7
 43
1.0
 76
     1
 77
     6
 78
     2
 67
     7
 79
     5
170
     0
171
     0
290
     0
174
     0
 93
        1
 44
50.0
173
     0
291
     1
 45
0.0
1001
ACAD
1000
AcDbSavedByObjectVersion
1070
     0
  0
VISUALSTYLE
  5
3A
102
{ACAD_REACTORS
330
2A
102
}
102
{ACAD_XDICTIONARY
360
3DD
102
}
330
2A
100
AcDbVisualStyle
  2
ColorChange
 70
    16
 71
     2
 72
     2
 73
     3
 90
        0
 40
-0.6
 41
-30.0
 62
     5
 63
     8
 74
     1
 91
        4
 64
     7
 65
   257
 75
     1
175
     1
 42
1.0
 92
        8
 66
     8
 43
1.0
 76
     1
 77
     6
 78
     2
 67
     7
 79
     5
170
     0
171
     0
290
     0
174
     0
 93
        1
 44
0.0
173
     0
291
     1
 45
0.0
1001
ACAD
1000
AcDbSavedByObjectVersion
1070
     0
  0
VISUALSTYLE
  5
34
102
{ACAD_REACTORS
330
2A
102
}
102
{ACAD_XDICTIONARY
360
3D1
102
}
330
2A
100
AcDbVisualStyle
  2
Conceptual
 70
     9
 71
     3
 72
     2
 73
     0
 90
        0
 40
-0.6
 41
-30.0
 62
     5
 63
     7
 74
     2
 91
        2
 64
     7
 65
   257
 75
     1
175
     1
 42
40.0
 92
        8
 66
     7
 43
1.0
 76
     1
 77
     6
 78
     2
 67
     7
 79
     3
170
     0
171
     0
290
     0
174
     0
 93
        1
 44
0.0
173
     0
291
     0
 45
0.0
1001
ACAD
1000
AcDbSavedByObjectVersion
1070
     0
  0
VISUALSTYLE
  5
35
102
{ACAD_REACTORS
330
2A
102
}
102
{ACAD_XDICTIONARY
360
3D3
102
}
330
2A
100
AcDbVisualStyle
  2
Dim
 70
    11
 71
     2
 72
     2
 73
     0
 90
        0
 40
-0.6
 41
-30.0
 62
     5
 63
     7
 74
     1
 91
        4
 64
     7
 65
   257
 75
     1
175
     1
 42
1.0
 92
        8
 66
     7
 43
1.0
 76
     1
 77
     6
 78
     2
 67
     7
 79
     5
170
     0
171
     0
290
     0
174
     0
 93
        1
 44
-50.0
173
     0
291
     1
 45
0.0
1001
ACAD
1000
AcDbSavedByObjectVersion
1070
     0
  0
VISUALSTYLE
  5
39
102
{ACAD_REACTORS
330
2A
102
}
102
{ACAD_XDICTIONARY
360
3DB
102
}
330
2A
100
AcDbVisualStyle
  2
Facepattern
 70
    15
 71
     2
 72
     2
 73
     0
 90
        0
 40
-0.6
 41
-30.0
 62
     5
 63
     7
 74
     1
 91
        4
 64
     7
 65
   257
 75
     1
175
     1
 42
1.0
 92
        8
 66
     7
 43
1.0
 76
     1
 77
     6
 78
     2
 67
     7
 79
     5
170
     0
171
     0
290
     0
174
     0
 93
        1
 44
0.0
173
     0
291
     1
 45
0.0
1001
ACAD
1000
AcDbSavedByObjectVersion
1070
     0
  0
VISUALSTYLE
  5
2B
102
{ACAD_REACTORS
330
2A
102
}
102
{ACAD_XDICTIONARY
360
3BF
102
}
330
2A
100
AcDbVisualStyle
  2
Flat
 70
     0
 71
     2
 72
     1
 73
     1
 90
        2
 40
-0.6
 41
30.0
 62
     5
 63
     7
 74
     0
 91
        4
 64
     7
 65
   257
 75
     1
175
     1
 42
1.0
 92
        8
 66
     7
 43
1.0
 76
     1
 77
     6
 78
     2
 67
     7
 79
     5
170
     0
171
     0
290
     0
174
     0
 93
       13
 44
0.0
173
     0
291
     1
 45
0.0
1001
ACAD
1000
AcDbSavedByObjectVersion
1070
     0
  0
VISUALSTYLE
  5
2C
102
{ACAD_REACTORS
330
2A
102
}
102
{ACAD_XDICTIONARY
360
3C1
102
}
330
2A
100
AcDbVisualStyle
  2
FlatWithEdges
 70
     1
 71
     2
 72
     1
 73
     1
 90
        2
 40
-0.6
 41
30.0
 62
     5
 63
     7
 74
     1
 91
        4
 64
     7
 65
   257
 75
     1
175
     1
 42
1.0
 92
        0
 66
   257
 43
1.0
 76
     1
 77
     6
 78
     2
 67
     7
 79
     5
170
     0
171
     0
290
     0
174
     0
 93
       13
 44
0.0
173
     0
291
     1
 45
0.0
1001
ACAD
1000
AcDbSavedByObjectVersion
1070
     0
  0
VISUALSTYLE
  5
2D
102
{ACAD_REACTORS
330
2A
102
}
102
{ACAD_XDICTIONARY
360
3C3
102
}
330
2A
100
AcDbVisualStyle
  2
Gouraud
 70
     2
 71
     2
 72
     2
 73
     1
 90
        2
 40
-0.6
 41
30.0
 62
     5
 63
     7
 74
     0
 91
        4
 64
     7
 65
   257
 75
     1
175
     1
 42
1.0
 92
        0
 66
     7
 43
1.0
 76
     1
 77
     6
 78
     2
 67
     7
 79
     5
170
     0
171
     0
290
     0
174
     0
 93
       13
 44
0.0
173
     0
291
     1
 45
0.0
1001
ACAD
1000
AcDbSavedByObjectVersion
1070
     0
  0
VISUALSTYLE
  5
2E
102
{ACAD_REACTORS
330
2A
102
}
102
{ACAD_XDICTIONARY
360
3C5
102
}
330
2A
100
AcDbVisualStyle
  2
GouraudWithEdges
 70
     3
 71
     2
 72
     2
 73
     1
 90
        2
 40
-0.6
 41
30.0
 62
     5
 63
     7
 74
     1
 91
        4
 64
     7
 65
   257
 75
     1
175
     1
 42
1.0
 92
        0
 66
   257
 43
1.0
 76
     1
 77
     6
 78
     2
 67
     7
 79
     5
170
     0
171
     0
290
     0
174
     0
 93
       13
 44
0.0
173
     0
291
     1
 45
0.0
1001
ACAD
1000
AcDbSavedByObjectVersion
1070
     0
  0
VISUALSTYLE
  5
38
102
{ACAD_REACTORS
330
2A
102
}
102
{ACAD_XDICTIONARY
360
3D9
102
}
330
2A
100
AcDbVisualStyle
  2
Linepattern
 70
    14
 71
     2
 72
     2
 73
     0
 90
        0
 40
-0.6
 41
-30.0
 62
     5
 63
     7
 74
     1
 91
        4
 64
     7
 65
   257
 75
     7
175
     7
 42
1.0
 92
        8
 66
     7
 43
1.0
 76
     1
 77
     6
 78
     2
 67
     7
 79
     5
170
     0
171
     0
290
     0
174
     0
 93
        1
 44
0.0
173
     0
291
     1
 45
0.0
1001
ACAD
1000
AcDbSavedByObjectVersion
1070
     0
  0
VISUALSTYLE
  5
33
102
{ACAD_REACTORS
330
2A
102
}
102
{ACAD_XDICTIONARY
360
3CF
102
}
330
2A
100
AcDbVisualStyle
  2
Realistic
 70
     8
 71
     2
 72
     2
 73
     0
 90
        0
 40
-0.6
 41
-30.0
 62
     5
 63
     7
 74
     1
 91
        0
 64
     7
 65
   257
 75
     1
175
     1
 42
1.0
 92
        8
 66
     8
 43
1.0
 76
     1
 77
     6
 78
     2
 67
     7
 79
     5
170
     0
171
     0
290
     0
174
     0
 93
       13
 44
0.0
173
     0
291
     0
 45
0.0
1001
ACAD
1000
AcDbSavedByObjectVersion
1070
     0
  0
VISUALSTYLE
  5
37
102
{ACAD_REACTORS
330
2A
102
}
102
{ACAD_XDICTIONARY
360
3D7
102
}
330
2A
100
AcDbVisualStyle
  2
Thicken
 70
    13
 71
     2
 72
     2
 73
     0
 90
        0
 40
-0.6
 41
-30.0
 62
     5
 63
     7
 74
     1
 91
        4
 64
     7
 65
   257
 75
     1
175
     1
 42
1.0
 92
       12
 66
     7
 43
1.0
 76
     1
 77
     6
 78
     2
 67
     7
 79
     5
170
     0
171
     0
290
     0
174
     0
 93
        1
 44
0.0
173
     0
291
     1
 45
0.0
1001
ACAD
1000
AcDbSavedByObjectVersion
1070
     0
  0
DICTIONARYVAR
  5
3BA
102
{ACAD_REACTORS
330
3B6
102
}
330
3B6
100
DictionaryVariables
280
     0
  1
1:1
  0
DICTIONARYVAR
  5
3BB
102
{ACAD_REACTORS
330
3B6
102
}
330
3B6
100
DictionaryVariables
280
     0
  1
2
  0
DICTIONARYVAR
  5
3BC
102
{ACAD_REACTORS
330
3B6
102
}
330
3B6
100
DictionaryVariables
280
     0
  1
1
  0
DICTIONARYVAR
  5
3B9
102
{ACAD_REACTORS
330
3B6
102
}
330
3B6
100
DictionaryVariables
280
     0
  1
0
  0
XRECORD
  5
3B5
102
{ACAD_REACTORS
330
3B4
102
}
330
3B4
100
AcDbXrecord
280
     1
1000
This DWG file was created in ArchiCAD(TM)®
  0
SPATIAL_FILTER
  5
38B
102
{ACAD_REACTORS
330
38A
102
}
330
38A
100
AcDbFilter
100
AcDbSpatialFilter
 70
     4
 10
42.06086484914336
 20
28.69943650745768
 10
261.1569314878782
 20
28.69943650745768
 10
261.1569314878782
 20
198.8576439242858
 10
42.06086484914336
 20
198.8576439242858
210
0.0
220
0.0
230
1.0
 11
0.0
 21
0.0
 31
0.0
 71
     1
 72
     0
 73
     0
 40
1.0
 40
0.0
 40
0.0
 40
0.0
 40
0.0
 40
1.0
 40
0.0
 40
0.0
 40
0.0
 40
0.0
 40
1.0
 40
0.0
 40
1.0
 40
0.0
 40
0.0
 40
0.0
 40
0.0
 40
1.0
 40
0.0
 40
0.0
 40
0.0
 40
0.0
 40
1.0
 40
0.0
  0
DICTIONARY
  5
3E1
330
3D
100
AcDbDictionary
280
     1
281
     1
  3
ACAD_XREC_ROUNDTRIP
360
3E2
  0
DICTIONARY
  5
3DF
330
3C
100
AcDbDictionary
280
     1
281
     1
  3
ACAD_XREC_ROUNDTRIP
360
3E0
  0
DICTIONARY
  5
3E3
330
3E
100
AcDbDictionary
280
     1
281
     1
  3
ACAD_XREC_ROUNDTRIP
360
3E4
  0
DICTIONARY
  5
3C7
330
2F
100
AcDbDictionary
280
     1
281
     1
  3
ACAD_XREC_ROUNDTRIP
360
3C8
  0
DICTIONARY
  5
3CB
330
31
100
AcDbDictionary
280
     1
281
     1
  3
ACAD_XREC_ROUNDTRIP
360
3CC
  0
DICTIONARY
  5
3C9
330
30
100
AcDbDictionary
280
     1
281
     1
  3
ACAD_XREC_ROUNDTRIP
360
3CA
  0
DICTIONARY
  5
3CD
330
32
100
AcDbDictionary
280
     1
281
     1
  3
ACAD_XREC_ROUNDTRIP
360
3CE
  0
DICTIONARY
  5
3D5
330
36
100
AcDbDictionary
280
     1
281
     1
  3
ACAD_XREC_ROUNDTRIP
360
3D6
  0
DICTIONARY
  5
3DD
330
3A
100
AcDbDictionary
280
     1
281
     1
  3
ACAD_XREC_ROUNDTRIP
360
3DE
  0
DICTIONARY
  5
3D1
330
34
100
AcDbDictionary
280
     1
281
     1
  3
ACAD_XREC_ROUNDTRIP
360
3D2
  0
DICTIONARY
  5
3D3
330
35
100
AcDbDictionary
280
     1
281
     1
  3
ACAD_XREC_ROUNDTRIP
360
3D4
  0
DICTIONARY
  5
3DB
330
39
100
AcDbDictionary
280
     1
281
     1
  3
ACAD_XREC_ROUNDTRIP
360
3DC
  0
DICTIONARY
  5
3BF
330
2B
100
AcDbDictionary
280
     1
281
     1
  3
ACAD_XREC_ROUNDTRIP
360
3C0
  0
DICTIONARY
  5
3C1
330
2C
100
AcDbDictionary
280
     1
281
     1
  3
ACAD_XREC_ROUNDTRIP
360
3C2
  0
DICTIONARY
  5
3C3
330
2D
100
AcDbDictionary
280
     1
281
     1
  3
ACAD_XREC_ROUNDTRIP
360
3C4
  0
DICTIONARY
  5
3C5
330
2E
100
AcDbDictionary
280
     1
281
     1
  3
ACAD_XREC_ROUNDTRIP
360
3C6
  0
DICTIONARY
  5
3D9
330
38
100
AcDbDictionary
280
     1
281
     1
  3
ACAD_XREC_ROUNDTRIP
360
3DA
  0
DICTIONARY
  5
3CF
330
33
100
AcDbDictionary
280
     1
281
     1
  3
ACAD_XREC_ROUNDTRIP
360
3D0
  0
DICTIONARY
  5
3D7
330
37
100
AcDbDictionary
280
     1
281
     1
  3
ACAD_XREC_ROUNDTRIP
360
3D8
  0
XRECORD
  5
3E2
102
{ACAD_REACTORS
330
3E1
102
}
330
3E1
100
AcDbXrecord
280
     1
102
MATERIAL
148
0.0
149
0.0
149
0.0
 93
        0
 94
      127
282
     0
 72
     1
 77
     1
171
     1
175
     1
179
     1
273
     0
  0
XRECORD
  5
3E0
102
{ACAD_REACTORS
330
3DF
102
}
330
3DF
100
AcDbXrecord
280
     1
102
MATERIAL
148
0.0
149
0.0
149
0.0
 93
        0
 94
      127
282
     0
 72
     1
 77
     1
171
     1
175
     1
179
     1
273
     0
  0
XRECORD
  5
3E4
102
{ACAD_REACTORS
330
3E3
102
}
330
3E3
100
AcDbXrecord
280
     1
102
MATERIAL
148
0.0
149
0.0
149
0.0
 93
        0
 94
      127
282
     0
 72
     1
 77
     1
171
     1
175
     1
179
     1
273
     0
  0
XRECORD
  5
3C8
102
{ACAD_REACTORS
330
3C7
102
}
330
3C7
100
AcDbXrecord
280
     1
102
RTVSPropertyOp0
 70
     1
102
RTVSPropertyOp1
 70
     1
102
RTVSPropertyOp2
 70
     1
102
RTVSPropertyOp3
 70
     1
102
RTVSPropertyOp4
 70
     1
102
RTVSPropertyOp5
 70
     1
102
RTVSPropertyOp6
 70
     1
102
RTVSPropertyOp7
 70
     1
102
RTVSPropertyOp8
 70
     1
102
RTVSPropertyOp9
 70
     1
102
RTVSPropertyOp10
 70
     1
102
RTVSPropertyOp11
 70
     1
102
RTVSPropertyOp12
 70
     1
102
RTVSPropertyOp13
 70
     1
102
RTVSPropertyOp14
 70
     1
102
RTVSPropertyOp15
 70
     1
102
RTVSPropertyOp16
 70
     1
102
RTVSPropertyOp17
 70
     1
102
RTVSPropertyOp18
 70
     1
102
RTVSPropertyOp19
 70
     1
102
RTVSPropertyOp20
 70
     1
102
RTVSPropertyOp21
 70
     1
102
RTVSPropertyOp22
 70
     1
102
RTVSPropertyOp23
 70
     1
102
RTVSPropertyOp24
 70
     1
102
RTVSPropertyOp25
 70
     1
102
RTVSPropertyOp26
 70
     1
102
RTVSPropertyOp27
 70
     1
102
RTVSPropertyOp28
 70
     1
102
RTVSPropertyOp29
 70
     1
102
RTVSPropertyOp30
 70
     1
102
RTVSPropertyOp31
 70
     1
102
RTVSPropertyOp32
 70
     1
  0
XRECORD
  5
3CC
102
{ACAD_REACTORS
330
3CB
102
}
330
3CB
100
AcDbXrecord
280
     1
102
RTVSPropertyOp0
 70
     1
102
RTVSPropertyOp1
 70
     1
102
RTVSPropertyOp2
 70
     1
102
RTVSPropertyOp3
 70
     1
102
RTVSPropertyOp4
 70
     1
102
RTVSPropertyOp5
 70
     1
102
RTVSPropertyOp6
 70
     1
102
RTVSPropertyOp7
 70
     1
102
RTVSPropertyOp8
 70
     1
102
RTVSPropertyOp9
 70
     1
102
RTVSPropertyOp10
 70
     1
102
RTVSPropertyOp11
 70
     1
102
RTVSPropertyOp12
 70
     1
102
RTVSPropertyOp13
 70
     1
102
RTVSPropertyOp14
 70
     1
102
RTVSPropertyOp15
 70
     1
102
RTVSPropertyOp16
 70
     1
102
RTVSPropertyOp17
 70
     1
102
RTVSPropertyOp18
 70
     1
102
RTVSPropertyOp19
 70
     1
102
RTVSPropertyOp20
 70
     1
102
RTVSPropertyOp21
 70
     1
102
RTVSPropertyOp22
 70
     1
102
RTVSPropertyOp23
 70
     1
102
RTVSPropertyOp24
 70
     1
102
RTVSPropertyOp25
 70
     1
102
RTVSPropertyOp26
 70
     1
102
RTVSPropertyOp27
 70
     1
102
RTVSPropertyOp28
 70
     1
102
RTVSPropertyOp29
 70
     1
102
RTVSPropertyOp30
 70
     1
102
RTVSPropertyOp31
 70
     1
102
RTVSPropertyOp32
 70
     1
  0
XRECORD
  5
3CA
102
{ACAD_REACTORS
330
3C9
102
}
330
3C9
100
AcDbXrecord
280
     1
102
RTVSPropertyOp0
 70
     1
102
RTVSPropertyOp1
 70
     1
102
RTVSPropertyOp2
 70
     1
102
RTVSPropertyOp3
 70
     1
102
RTVSPropertyOp4
 70
     1
102
RTVSPropertyOp5
 70
     1
102
RTVSPropertyOp6
 70
     1
102
RTVSPropertyOp7
 70
     1
102
RTVSPropertyOp8
 70
     1
102
RTVSPropertyOp9
 70
     1
102
RTVSPropertyOp10
 70
     1
102
RTVSPropertyOp11
 70
     1
102
RTVSPropertyOp12
 70
     1
102
RTVSPropertyOp13
 70
     1
102
RTVSPropertyOp14
 70
     1
102
RTVSPropertyOp15
 70
     1
102
RTVSPropertyOp16
 70
     1
102
RTVSPropertyOp17
 70
     1
102
RTVSPropertyOp18
 70
     1
102
RTVSPropertyOp19
 70
     1
102
RTVSPropertyOp20
 70
     1
102
RTVSPropertyOp21
 70
     1
102
RTVSPropertyOp22
 70
     1
102
RTVSPropertyOp23
 70
     1
102
RTVSPropertyOp24
 70
     1
102
RTVSPropertyOp25
 70
     1
102
RTVSPropertyOp26
 70
     1
102
RTVSPropertyOp27
 70
     1
102
RTVSPropertyOp28
 70
     1
102
RTVSPropertyOp29
 70
     1
102
RTVSPropertyOp30
 70
     1
102
RTVSPropertyOp31
 70
     1
102
RTVSPropertyOp32
 70
     1
  0
XRECORD
  5
3CE
102
{ACAD_REACTORS
330
3CD
102
}
330
3CD
100
AcDbXrecord
280
     1
102
RTVSPropertyOp0
 70
     1
102
RTVSPropertyOp1
 70
     1
102
RTVSPropertyOp2
 70
     1
102
RTVSPropertyOp3
 70
     1
102
RTVSPropertyOp4
 70
     1
102
RTVSPropertyOp5
 70
     1
102
RTVSPropertyOp6
 70
     1
102
RTVSPropertyOp7
 70
     1
102
RTVSPropertyOp8
 70
     1
102
RTVSPropertyOp9
 70
     1
102
RTVSPropertyOp10
 70
     1
102
RTVSPropertyOp11
 70
     1
102
RTVSPropertyOp12
 70
     1
102
RTVSPropertyOp13
 70
     1
102
RTVSPropertyOp14
 70
     1
102
RTVSPropertyOp15
 70
     1
102
RTVSPropertyOp16
 70
     1
102
RTVSPropertyOp17
 70
     1
102
RTVSPropertyOp18
 70
     1
102
RTVSPropertyOp19
 70
     1
102
RTVSPropertyOp20
 70
     1
102
RTVSPropertyOp21
 70
     1
102
RTVSPropertyOp22
 70
     1
102
RTVSPropertyOp23
 70
     1
102
RTVSPropertyOp24
 70
     1
102
RTVSPropertyOp25
 70
     1
102
RTVSPropertyOp26
 70
     1
102
RTVSPropertyOp27
 70
     1
102
RTVSPropertyOp28
 70
     1
102
RTVSPropertyOp29
 70
     1
102
RTVSPropertyOp30
 70
     1
102
RTVSPropertyOp31
 70
     1
102
RTVSPropertyOp32
 70
     1
  0
XRECORD
  5
3D6
102
{ACAD_REACTORS
330
3D5
102
}
330
3D5
100
AcDbXrecord
280
     1
102
RTVSPropertyOp0
 70
     1
102
RTVSPropertyOp1
 70
     1
102
RTVSPropertyOp2
 70
     1
102
RTVSPropertyOp3
 70
     1
102
RTVSPropertyOp4
 70
     1
102
RTVSPropertyOp5
 70
     1
102
RTVSPropertyOp6
 70
     1
102
RTVSPropertyOp7
 70
     1
102
RTVSPropertyOp8
 70
     1
102
RTVSPropertyOp9
 70
     1
102
RTVSPropertyOp10
 70
     1
102
RTVSPropertyOp11
 70
     1
102
RTVSPropertyOp12
 70
     1
102
RTVSPropertyOp13
 70
     1
102
RTVSPropertyOp14
 70
     1
102
RTVSPropertyOp15
 70
     1
102
RTVSPropertyOp16
 70
     1
102
RTVSPropertyOp17
 70
     1
102
RTVSPropertyOp18
 70
     1
102
RTVSPropertyOp19
 70
     1
102
RTVSPropertyOp20
 70
     1
102
RTVSPropertyOp21
 70
     1
102
RTVSPropertyOp22
 70
     1
102
RTVSPropertyOp23
 70
     1
102
RTVSPropertyOp24
 70
     1
102
RTVSPropertyOp25
 70
     1
102
RTVSPropertyOp26
 70
     1
102
RTVSPropertyOp27
 70
     1
102
RTVSPropertyOp28
 70
     1
102
RTVSPropertyOp29
 70
     1
102
RTVSPropertyOp30
 70
     1
102
RTVSPropertyOp31
 70
     1
102
RTVSPropertyOp32
 70
     1
  0
XRECORD
  5
3DE
102
{ACAD_REACTORS
330
3DD
102
}
330
3DD
100
AcDbXrecord
280
     1
102
RTVSPropertyOp0
 70
     1
102
RTVSPropertyOp1
 70
     1
102
RTVSPropertyOp2
 70
     1
102
RTVSPropertyOp3
 70
     1
102
RTVSPropertyOp4
 70
     1
102
RTVSPropertyOp5
 70
     1
102
RTVSPropertyOp6
 70
     1
102
RTVSPropertyOp7
 70
     1
102
RTVSPropertyOp8
 70
     1
102
RTVSPropertyOp9
 70
     1
102
RTVSPropertyOp10
 70
     1
102
RTVSPropertyOp11
 70
     1
102
RTVSPropertyOp12
 70
     1
102
RTVSPropertyOp13
 70
     1
102
RTVSPropertyOp14
 70
     1
102
RTVSPropertyOp15
 70
     1
102
RTVSPropertyOp16
 70
     1
102
RTVSPropertyOp17
 70
     1
102
RTVSPropertyOp18
 70
     1
102
RTVSPropertyOp19
 70
     1
102
RTVSPropertyOp20
 70
     1
102
RTVSPropertyOp21
 70
     1
102
RTVSPropertyOp22
 70
     1
102
RTVSPropertyOp23
 70
     1
102
RTVSPropertyOp24
 70
     1
102
RTVSPropertyOp25
 70
     1
102
RTVSPropertyOp26
 70
     1
102
RTVSPropertyOp27
 70
     1
102
RTVSPropertyOp28
 70
     1
102
RTVSPropertyOp29
 70
     1
102
RTVSPropertyOp30
 70
     1
102
RTVSPropertyOp31
 70
     1
102
RTVSPropertyOp32
 70
     1
  0
XRECORD
  5
3D2
102
{ACAD_REACTORS
330
3D1
102
}
330
3D1
100
AcDbXrecord
280
     1
102
RTVSPropertyOp0
 70
     1
102
RTVSPropertyOp1
 70
     1
102
RTVSPropertyOp2
 70
     1
102
RTVSPropertyOp3
 70
     1
102
RTVSPropertyOp4
 70
     1
102
RTVSPropertyOp5
 70
     1
102
RTVSPropertyOp6
 70
     1
102
RTVSPropertyOp7
 70
     1
102
RTVSPropertyOp8
 70
     1
102
RTVSPropertyOp9
 70
     1
102
RTVSPropertyOp10
 70
     1
102
RTVSPropertyOp11
 70
     1
102
RTVSPropertyOp12
 70
     1
102
RTVSPropertyOp13
 70
     1
102
RTVSPropertyOp14
 70
     1
102
RTVSPropertyOp15
 70
     1
102
RTVSPropertyOp16
 70
     1
102
RTVSPropertyOp17
 70
     1
102
RTVSPropertyOp18
 70
     1
102
RTVSPropertyOp19
 70
     1
102
RTVSPropertyOp20
 70
     1
102
RTVSPropertyOp21
 70
     1
102
RTVSPropertyOp22
 70
     1
102
RTVSPropertyOp23
 70
     1
102
RTVSPropertyOp24
 70
     1
102
RTVSPropertyOp25
 70
     1
102
RTVSPropertyOp26
 70
     1
102
RTVSPropertyOp27
 70
     1
102
RTVSPropertyOp28
 70
     1
102
RTVSPropertyOp29
 70
     1
102
RTVSPropertyOp30
 70
     1
102
RTVSPropertyOp31
 70
     1
102
RTVSPropertyOp32
 70
     1
  0
XRECORD
  5
3D4
102
{ACAD_REACTORS
330
3D3
102
}
330
3D3
100
AcDbXrecord
280
     1
102
RTVSPropertyOp0
 70
     1
102
RTVSPropertyOp1
 70
     1
102
RTVSPropertyOp2
 70
     1
102
RTVSPropertyOp3
 70
     1
102
RTVSPropertyOp4
 70
     1
102
RTVSPropertyOp5
 70
     1
102
RTVSPropertyOp6
 70
     1
102
RTVSPropertyOp7
 70
     1
102
RTVSPropertyOp8
 70
     1
102
RTVSPropertyOp9
 70
     1
102
RTVSPropertyOp10
 70
     1
102
RTVSPropertyOp11
 70
     1
102
RTVSPropertyOp12
 70
     1
102
RTVSPropertyOp13
 70
     1
102
RTVSPropertyOp14
 70
     1
102
RTVSPropertyOp15
 70
     1
102
RTVSPropertyOp16
 70
     1
102
RTVSPropertyOp17
 70
     1
102
RTVSPropertyOp18
 70
     1
102
RTVSPropertyOp19
 70
     1
102
RTVSPropertyOp20
 70
     1
102
RTVSPropertyOp21
 70
     1
102
RTVSPropertyOp22
 70
     1
102
RTVSPropertyOp23
 70
     1
102
RTVSPropertyOp24
 70
     1
102
RTVSPropertyOp25
 70
     1
102
RTVSPropertyOp26
 70
     1
102
RTVSPropertyOp27
 70
     1
102
RTVSPropertyOp28
 70
     1
102
RTVSPropertyOp29
 70
     1
102
RTVSPropertyOp30
 70
     1
102
RTVSPropertyOp31
 70
     1
102
RTVSPropertyOp32
 70
     1
  0
XRECORD
  5
3DC
102
{ACAD_REACTORS
330
3DB
102
}
330
3DB
100
AcDbXrecord
280
     1
102
RTVSPropertyOp0
 70
     1
102
RTVSPropertyOp1
 70
     1
102
RTVSPropertyOp2
 70
     1
102
RTVSPropertyOp3
 70
     1
102
RTVSPropertyOp4
 70
     1
102
RTVSPropertyOp5
 70
     1
102
RTVSPropertyOp6
 70
     1
102
RTVSPropertyOp7
 70
     1
102
RTVSPropertyOp8
 70
     1
102
RTVSPropertyOp9
 70
     1
102
RTVSPropertyOp10
 70
     1
102
RTVSPropertyOp11
 70
     1
102
RTVSPropertyOp12
 70
     1
102
RTVSPropertyOp13
 70
     1
102
RTVSPropertyOp14
 70
     1
102
RTVSPropertyOp15
 70
     1
102
RTVSPropertyOp16
 70
     1
102
RTVSPropertyOp17
 70
     1
102
RTVSPropertyOp18
 70
     1
102
RTVSPropertyOp19
 70
     1
102
RTVSPropertyOp20
 70
     1
102
RTVSPropertyOp21
 70
     1
102
RTVSPropertyOp22
 70
     1
102
RTVSPropertyOp23
 70
     1
102
RTVSPropertyOp24
 70
     1
102
RTVSPropertyOp25
 70
     1
102
RTVSPropertyOp26
 70
     1
102
RTVSPropertyOp27
 70
     1
102
RTVSPropertyOp28
 70
     1
102
RTVSPropertyOp29
 70
     1
102
RTVSPropertyOp30
 70
     1
102
RTVSPropertyOp31
 70
     1
102
RTVSPropertyOp32
 70
     1
  0
XRECORD
  5
3C0
102
{ACAD_REACTORS
330
3BF
102
}
330
3BF
100
AcDbXrecord
280
     1
102
RTVSPropertyOp0
 70
     1
102
RTVSPropertyOp1
 70
     1
102
RTVSPropertyOp2
 70
     1
102
RTVSPropertyOp3
 70
     1
102
RTVSPropertyOp4
 70
     1
102
RTVSPropertyOp5
 70
     1
102
RTVSPropertyOp6
 70
     1
102
RTVSPropertyOp7
 70
     1
102
RTVSPropertyOp8
 70
     1
102
RTVSPropertyOp9
 70
     1
102
RTVSPropertyOp10
 70
     1
102
RTVSPropertyOp11
 70
     1
102
RTVSPropertyOp12
 70
     1
102
RTVSPropertyOp13
 70
     1
102
RTVSPropertyOp14
 70
     1
102
RTVSPropertyOp15
 70
     1
102
RTVSPropertyOp16
 70
     1
102
RTVSPropertyOp17
 70
     1
102
RTVSPropertyOp18
 70
     1
102
RTVSPropertyOp19
 70
     1
102
RTVSPropertyOp20
 70
     1
102
RTVSPropertyOp21
 70
     1
102
RTVSPropertyOp22
 70
     1
102
RTVSPropertyOp23
 70
     1
102
RTVSPropertyOp24
 70
     1
102
RTVSPropertyOp25
 70
     1
102
RTVSPropertyOp26
 70
     1
102
RTVSPropertyOp27
 70
     1
102
RTVSPropertyOp28
 70
     1
102
RTVSPropertyOp29
 70
     1
102
RTVSPropertyOp30
 70
     1
102
RTVSPropertyOp31
 70
     1
102
RTVSPropertyOp32
 70
     1
  0
XRECORD
  5
3C2
102
{ACAD_REACTORS
330
3C1
102
}
330
3C1
100
AcDbXrecord
280
     1
102
RTVSPropertyOp0
 70
     1
102
RTVSPropertyOp1
 70
     1
102
RTVSPropertyOp2
 70
     1
102
RTVSPropertyOp3
 70
     1
102
RTVSPropertyOp4
 70
     1
102
RTVSPropertyOp5
 70
     1
102
RTVSPropertyOp6
 70
     1
102
RTVSPropertyOp7
 70
     1
102
RTVSPropertyOp8
 70
     1
102
RTVSPropertyOp9
 70
     1
102
RTVSPropertyOp10
 70
     1
102
RTVSPropertyOp11
 70
     1
102
RTVSPropertyOp12
 70
     1
102
RTVSPropertyOp13
 70
     1
102
RTVSPropertyOp14
 70
     1
102
RTVSPropertyOp15
 70
     1
102
RTVSPropertyOp16
 70
     1
102
RTVSPropertyOp17
 70
     1
102
RTVSPropertyOp18
 70
     1
102
RTVSPropertyOp19
 70
     1
102
RTVSPropertyOp20
 70
     1
102
RTVSPropertyOp21
 70
     1
102
RTVSPropertyOp22
 70
     1
102
RTVSPropertyOp23
 70
     1
102
RTVSPropertyOp24
 70
     1
102
RTVSPropertyOp25
 70
     1
102
RTVSPropertyOp26
 70
     1
102
RTVSPropertyOp27
 70
     1
102
RTVSPropertyOp28
 70
     1
102
RTVSPropertyOp29
 70
     1
102
RTVSPropertyOp30
 70
     1
102
RTVSPropertyOp31
 70
     1
102
RTVSPropertyOp32
 70
     1
  0
XRECORD
  5
3C4
102
{ACAD_REACTORS
330
3C3
102
}
330
3C3
100
AcDbXrecord
280
     1
102
RTVSPropertyOp0
 70
     1
102
RTVSPropertyOp1
 70
     1
102
RTVSPropertyOp2
 70
     1
102
RTVSPropertyOp3
 70
     1
102
RTVSPropertyOp4
 70
     1
102
RTVSPropertyOp5
 70
     1
102
RTVSPropertyOp6
 70
     1
102
RTVSPropertyOp7
 70
     1
102
RTVSPropertyOp8
 70
     1
102
RTVSPropertyOp9
 70
     1
102
RTVSPropertyOp10
 70
     1
102
RTVSPropertyOp11
 70
     1
102
RTVSPropertyOp12
 70
     1
102
RTVSPropertyOp13
 70
     1
102
RTVSPropertyOp14
 70
     1
102
RTVSPropertyOp15
 70
     1
102
RTVSPropertyOp16
 70
     1
102
RTVSPropertyOp17
 70
     1
102
RTVSPropertyOp18
 70
     1
102
RTVSPropertyOp19
 70
     1
102
RTVSPropertyOp20
 70
     1
102
RTVSPropertyOp21
 70
     1
102
RTVSPropertyOp22
 70
     1
102
RTVSPropertyOp23
 70
     1
102
RTVSPropertyOp24
 70
     1
102
RTVSPropertyOp25
 70
     1
102
RTVSPropertyOp26
 70
     1
102
RTVSPropertyOp27
 70
     1
102
RTVSPropertyOp28
 70
     1
102
RTVSPropertyOp29
 70
     1
102
RTVSPropertyOp30
 70
     1
102
RTVSPropertyOp31
 70
     1
102
RTVSPropertyOp32
 70
     1
  0
XRECORD
  5
3C6
102
{ACAD_REACTORS
330
3C5
102
}
330
3C5
100
AcDbXrecord
280
     1
102
RTVSPropertyOp0
 70
     1
102
RTVSPropertyOp1
 70
     1
102
RTVSPropertyOp2
 70
     1
102
RTVSPropertyOp3
 70
     1
102
RTVSPropertyOp4
 70
     1
102
RTVSPropertyOp5
 70
     1
102
RTVSPropertyOp6
 70
     1
102
RTVSPropertyOp7
 70
     1
102
RTVSPropertyOp8
 70
     1
102
RTVSPropertyOp9
 70
     1
102
RTVSPropertyOp10
 70
     1
102
RTVSPropertyOp11
 70
     1
102
RTVSPropertyOp12
 70
     1
102
RTVSPropertyOp13
 70
     1
102
RTVSPropertyOp14
 70
     1
102
RTVSPropertyOp15
 70
     1
102
RTVSPropertyOp16
 70
     1
102
RTVSPropertyOp17
 70
     1
102
RTVSPropertyOp18
 70
     1
102
RTVSPropertyOp19
 70
     1
102
RTVSPropertyOp20
 70
     1
102
RTVSPropertyOp21
 70
     1
102
RTVSPropertyOp22
 70
     1
102
RTVSPropertyOp23
 70
     1
102
RTVSPropertyOp24
 70
     1
102
RTVSPropertyOp25
 70
     1
102
RTVSPropertyOp26
 70
     1
102
RTVSPropertyOp27
 70
     1
102
RTVSPropertyOp28
 70
     1
102
RTVSPropertyOp29
 70
     1
102
RTVSPropertyOp30
 70
     1
102
RTVSPropertyOp31
 70
     1
102
RTVSPropertyOp32
 70
     1
  0
XRECORD
  5
3DA
102
{ACAD_REACTORS
330
3D9
102
}
330
3D9
100
AcDbXrecord
280
     1
102
RTVSPropertyOp0
 70
     1
102
RTVSPropertyOp1
 70
     1
102
RTVSPropertyOp2
 70
     1
102
RTVSPropertyOp3
 70
     1
102
RTVSPropertyOp4
 70
     1
102
RTVSPropertyOp5
 70
     1
102
RTVSPropertyOp6
 70
     1
102
RTVSPropertyOp7
 70
     1
102
RTVSPropertyOp8
 70
     1
102
RTVSPropertyOp9
 70
     1
102
RTVSPropertyOp10
 70
     1
102
RTVSPropertyOp11
 70
     1
102
RTVSPropertyOp12
 70
     1
102
RTVSPropertyOp13
 70
     1
102
RTVSPropertyOp14
 70
     1
102
RTVSPropertyOp15
 70
     1
102
RTVSPropertyOp16
 70
     1
102
RTVSPropertyOp17
 70
     1
102
RTVSPropertyOp18
 70
     1
102
RTVSPropertyOp19
 70
     1
102
RTVSPropertyOp20
 70
     1
102
RTVSPropertyOp21
 70
     1
102
RTVSPropertyOp22
 70
     1
102
RTVSPropertyOp23
 70
     1
102
RTVSPropertyOp24
 70
     1
102
RTVSPropertyOp25
 70
     1
102
RTVSPropertyOp26
 70
     1
102
RTVSPropertyOp27
 70
     1
102
RTVSPropertyOp28
 70
     1
102
RTVSPropertyOp29
 70
     1
102
RTVSPropertyOp30
 70
     1
102
RTVSPropertyOp31
 70
     1
102
RTVSPropertyOp32
 70
     1
  0
XRECORD
  5
3D0
102
{ACAD_REACTORS
330
3CF
102
}
330
3CF
100
AcDbXrecord
280
     1
102
RTVSPropertyOp0
 70
     1
102
RTVSPropertyOp1
 70
     1
102
RTVSPropertyOp2
 70
     1
102
RTVSPropertyOp3
 70
     1
102
RTVSPropertyOp4
 70
     1
102
RTVSPropertyOp5
 70
     1
102
RTVSPropertyOp6
 70
     1
102
RTVSPropertyOp7
 70
     1
102
RTVSPropertyOp8
 70
     1
102
RTVSPropertyOp9
 70
     1
102
RTVSPropertyOp10
 70
     1
102
RTVSPropertyOp11
 70
     1
102
RTVSPropertyOp12
 70
     1
102
RTVSPropertyOp13
 70
     1
102
RTVSPropertyOp14
 70
     1
102
RTVSPropertyOp15
 70
     1
102
RTVSPropertyOp16
 70
     1
102
RTVSPropertyOp17
 70
     1
102
RTVSPropertyOp18
 70
     1
102
RTVSPropertyOp19
 70
     1
102
RTVSPropertyOp20
 70
     1
102
RTVSPropertyOp21
 70
     1
102
RTVSPropertyOp22
 70
     1
102
RTVSPropertyOp23
 70
     1
102
RTVSPropertyOp24
 70
     1
102
RTVSPropertyOp25
 70
     1
102
RTVSPropertyOp26
 70
     1
102
RTVSPropertyOp27
 70
     1
102
RTVSPropertyOp28
 70
     1
102
RTVSPropertyOp29
 70
     1
102
RTVSPropertyOp30
 70
     1
102
RTVSPropertyOp31
 70
     1
102
RTVSPropertyOp32
 70
     1
  0
XRECORD
  5
3D8
102
{ACAD_REACTORS
330
3D7
102
}
330
3D7
100
AcDbXrecord
280
     1
102
RTVSPropertyOp0
 70
     1
102
RTVSPropertyOp1
 70
     1
102
RTVSPropertyOp2
 70
     1
102
RTVSPropertyOp3
 70
     1
102
RTVSPropertyOp4
 70
     1
102
RTVSPropertyOp5
 70
     1
102
RTVSPropertyOp6
 70
     1
102
RTVSPropertyOp7
 70
     1
102
RTVSPropertyOp8
 70
     1
102
RTVSPropertyOp9
 70
     1
102
RTVSPropertyOp10
 70
     1
102
RTVSPropertyOp11
 70
     1
102
RTVSPropertyOp12
 70
     1
102
RTVSPropertyOp13
 70
     1
102
RTVSPropertyOp14
 70
     1
102
RTVSPropertyOp15
 70
     1
102
RTVSPropertyOp16
 70
     1
102
RTVSPropertyOp17
 70
     1
102
RTVSPropertyOp18
 70
     1
102
RTVSPropertyOp19
 70
     1
102
RTVSPropertyOp20
 70
     1
102
RTVSPropertyOp21
 70
     1
102
RTVSPropertyOp22
 70
     1
102
RTVSPropertyOp23
 70
     1
102
RTVSPropertyOp24
 70
     1
102
RTVSPropertyOp25
 70
     1
102
RTVSPropertyOp26
 70
     1
102
RTVSPropertyOp27
 70
     1
102
RTVSPropertyOp28
 70
     1
102
RTVSPropertyOp29
 70
     1
102
RTVSPropertyOp30
 70
     1
102
RTVSPropertyOp31
 70
     1
102
RTVSPropertyOp32
 70
     1
  0
ENDSEC
  0
EOF
