  0
SECTION
  2
HEADER
  9
$ACADVER
  1
AC1015
  9
$ACADMAINTVER
 70
     6
  9
$DWGCODEPAGE
  3
ANSI_949
  9
$INSBASE
 10
0.0
 20
0.0
 30
0.0
  9
$EXTMIN
 10
1.000000000000000E+20
 20
1.000000000000000E+20
 30
1.000000000000000E+20
  9
$EXTMAX
 10
-1.000000000000000E+20
 20
-1.000000000000000E+20
 30
-1.000000000000000E+20
  9
$LIMMIN
 10
0.0
 20
0.0
  9
$LIMMAX
 10
12.0
 20
9.0
  9
$ORTHOMODE
 70
     0
  9
$REGENMODE
 70
     1
  9
$FILLMODE
 70
     1
  9
$QTEXTMODE
 70
     0
  9
$MIRRTEXT
 70
     1
  9
$LTSCALE
 40
1.0
  9
$ATTMODE
 70
     1
  9
$TEXTSIZE
 40
0.2
  9
$TRACEWID
 40
0.05
  9
$TEXTSTYLE
  7
Standard
  9
$CLAYER
  8
0
  9
$CELTYPE
  6
ByLayer
  9
$CECOLOR
 62
   256
  9
$CELTSCALE
 40
1.0
  9
$DISPSILH
 70
     0
  9
$DIMSCALE
 40
1.0
  9
$DIMASZ
 40
0.18
  9
$DIMEXO
 40
0.0625
  9
$DIMDLI
 40
0.38
  9
$DIMRND
 40
0.0
  9
$DIMDLE
 40
0.0
  9
$DIMEXE
 40
0.18
  9
$DIMTP
 40
0.0
  9
$DIMTM
 40
0.0
  9
$DIMTXT
 40
0.18
  9
$DIMCEN
 40
0.09
  9
$DIMTSZ
 40
0.0
  9
$DIMTOL
 70
     0
  9
$DIMLIM
 70
     0
  9
$DIMTIH
 70
     1
  9
$DIMTOH
 70
     1
  9
$DIMSE1
 70
     0
  9
$DIMSE2
 70
     0
  9
$DIMTAD
 70
     0
  9
$DIMZIN
 70
     0
  9
$DIMBLK
  1

  9
$DIMASO
 70
     1
  9
$DIMSHO
 70
     1
  9
$DIMPOST
  1

  9
$DIMAPOST
  1

  9
$DIMALT
 70
     0
  9
$DIMALTD
 70
     2
  9
$DIMALTF
 40
25.4
  9
$DIMLFAC
 40
1.0
  9
$DIMTOFL
 70
     0
  9
$DIMTVP
 40
0.0
  9
$DIMTIX
 70
     0
  9
$DIMSOXD
 70
     0
  9
$DIMSAH
 70
     0
  9
$DIMBLK1
  1

  9
$DIMBLK2
  1

  9
$DIMSTYLE
  2
Standard
  9
$DIMCLRD
 70
     0
  9
$DIMCLRE
 70
     0
  9
$DIMCLRT
 70
     0
  9
$DIMTFAC
 40
1.0
  9
$DIMGAP
 40
0.09
  9
$DIMJUST
 70
     0
  9
$DIMSD1
 70
     0
  9
$DIMSD2
 70
     0
  9
$DIMTOLJ
 70
     1
  9
$DIMTZIN
 70
     0
  9
$DIMALTZ
 70
     0
  9
$DIMALTTZ
 70
     0
  9
$DIMUPT
 70
     0
  9
$DIMDEC
 70
     4
  9
$DIMTDEC
 70
     4
  9
$DIMALTU
 70
     2
  9
$DIMALTTD
 70
     2
  9
$DIMTXSTY
  7
Standard
  9
$DIMAUNIT
 70
     0
  9
$DIMADEC
 70
     0
  9
$DIMALTRND
 40
0.0
  9
$DIMAZIN
 70
     0
  9
$DIMDSEP
 70
    46
  9
$DIMATFIT
 70
     3
  9
$DIMFRAC
 70
     0
  9
$DIMLDRBLK
  1

  9
$DIMLUNIT
 70
     2
  9
$DIMLWD
 70
    -2
  9
$DIMLWE
 70
    -2
  9
$DIMTMOVE
 70
     0
  9
$LUNITS
 70
     2
  9
$LUPREC
 70
     4
  9
$SKETCHINC
 40
0.1
  9
$FILLETRAD
 40
0.5
  9
$AUNITS
 70
     0
  9
$AUPREC
 70
     0
  9
$MENU
  1
.
  9
$ELEVATION
 40
0.0
  9
$PELEVATION
 40
0.0
  9
$THICKNESS
 40
0.0
  9
$LIMCHECK
 70
     0
  9
$CHAMFERA
 40
0.5
  9
$CHAMFERB
 40
0.5
  9
$CHAMFERC
 40
1.0
  9
$CHAMFERD
 40
0.0
  9
$SKPOLY
 70
     0
  9
$TDCREATE
 40
2456522.583996123
  9
$TDUCREATE
 40
2456522.083996123
  9
$TDUPDATE
 40
2456522.584026539
  9
$TDUUPDATE
 40
2456522.084026539
  9
$TDINDWG
 40
0.0000000116
  9
$TDUSRTIMER
 40
0.0000000116
  9
$USRTIMER
 70
     1
  9
$ANGBASE
 50
0.0
  9
$ANGDIR
 70
     0
  9
$PDMODE
 70
     0
  9
$PDSIZE
 40
0.0
  9
$PLINEWID
 40
0.0
  9
$SPLFRAME
 70
     0
  9
$SPLINETYPE
 70
     6
  9
$SPLINESEGS
 70
     8
  9
$HANDSEED
  5
340
  9
$SURFTAB1
 70
     6
  9
$SURFTAB2
 70
     6
  9
$SURFTYPE
 70
     6
  9
$SURFU
 70
     6
  9
$SURFV
 70
     6
  9
$UCSBASE
  2

  9
$UCSNAME
  2

  9
$UCSORG
 10
0.0
 20
0.0
 30
0.0
  9
$UCSXDIR
 10
1.0
 20
0.0
 30
0.0
  9
$UCSYDIR
 10
0.0
 20
1.0
 30
0.0
  9
$UCSORTHOREF
  2

  9
$UCSORTHOVIEW
 70
     0
  9
$UCSORGTOP
 10
0.0
 20
0.0
 30
0.0
  9
$UCSORGBOTTOM
 10
0.0
 20
0.0
 30
0.0
  9
$UCSORGLEFT
 10
0.0
 20
0.0
 30
0.0
  9
$UCSORGRIGHT
 10
0.0
 20
0.0
 30
0.0
  9
$UCSORGFRONT
 10
0.0
 20
0.0
 30
0.0
  9
$UCSORGBACK
 10
0.0
 20
0.0
 30
0.0
  9
$PUCSBASE
  2

  9
$PUCSNAME
  2

  9
$PUCSORG
 10
0.0
 20
0.0
 30
0.0
  9
$PUCSXDIR
 10
1.0
 20
0.0
 30
0.0
  9
$PUCSYDIR
 10
0.0
 20
1.0
 30
0.0
  9
$PUCSORTHOREF
  2

  9
$PUCSORTHOVIEW
 70
     0
  9
$PUCSORGTOP
 10
0.0
 20
0.0
 30
0.0
  9
$PUCSORGBOTTOM
 10
0.0
 20
0.0
 30
0.0
  9
$PUCSORGLEFT
 10
0.0
 20
0.0
 30
0.0
  9
$PUCSORGRIGHT
 10
0.0
 20
0.0
 30
0.0
  9
$PUCSORGFRONT
 10
0.0
 20
0.0
 30
0.0
  9
$PUCSORGBACK
 10
0.0
 20
0.0
 30
0.0
  9
$USERI1
 70
     0
  9
$USERI2
 70
     0
  9
$USERI3
 70
     0
  9
$USERI4
 70
     0
  9
$USERI5
 70
     0
  9
$USERR1
 40
0.0
  9
$USERR2
 40
0.0
  9
$USERR3
 40
0.0
  9
$USERR4
 40
0.0
  9
$USERR5
 40
0.0
  9
$WORLDVIEW
 70
     1
  9
$SHADEDGE
 70
     3
  9
$SHADEDIF
 70
    70
  9
$TILEMODE
 70
     1
  9
$MAXACTVP
 70
    64
  9
$PINSBASE
 10
0.0
 20
0.0
 30
0.0
  9
$PLIMCHECK
 70
     0
  9
$PEXTMIN
 10
1.000000000000000E+20
 20
1.000000000000000E+20
 30
1.000000000000000E+20
  9
$PEXTMAX
 10
-1.000000000000000E+20
 20
-1.000000000000000E+20
 30
-1.000000000000000E+20
  9
$PLIMMIN
 10
0.0
 20
0.0
  9
$PLIMMAX
 10
12.0
 20
9.0
  9
$UNITMODE
 70
     0
  9
$VISRETAIN
 70
     1
  9
$PLINEGEN
 70
     0
  9
$PSLTSCALE
 70
     1
  9
$TREEDEPTH
 70
  3020
  9
$CMLSTYLE
  2
Standard
  9
$CMLJUST
 70
     0
  9
$CMLSCALE
 40
1.0
  9
$PROXYGRAPHICS
 70
     1
  9
$MEASUREMENT
 70
     0
  9
$CELWEIGHT
370
    -1
  9
$ENDCAPS
280
     0
  9
$JOINSTYLE
280
     0
  9
$LWDISPLAY
290
     1
  9
$INSUNITS
 70
     4
  9
$HYPERLINKBASE
  1

  9
$STYLESHEET
  1

  9
$XEDIT
290
     1
  9
$CEPSNTYPE
380
     0
  9
$PSTYLEMODE
290
     1
  9
$FINGERPRINTGUID
  2
{46FE7F19-F979-4F6E-92F1-708C071A0494}
  9
$VERSIONGUID
  2
{FAEB1C32-E019-11D5-929B-00C0DF256EC4}
  9
$EXTNAMES
290
     1
  9
$PSVPSCALE
 40
0.0
  9
$OLESTARTUP
290
     0
  0
ENDSEC
  0
SECTION
  2
CLASSES
  0
CLASS
  1
ACDBDICTIONARYWDFLT
  2
AcDbDictionaryWithDefault
  3
ObjectDBX Classes
 90
        0
280
     0
281
     0
  0
CLASS
  1
VISUALSTYLE
  2
AcDbVisualStyle
  3
ObjectDBX Classes
 90
     4095
280
     0
281
     0
  0
CLASS
  1
MATERIAL
  2
AcDbMaterial
  3
ObjectDBX Classes
 90
     1153
280
     0
281
     0
  0
CLASS
  1
SPATIAL_FILTER
  2
AcDbSpatialFilter
  3
ObjectDBX Classes
 90
        0
280
     0
281
     0
  0
CLASS
  1
SCALE
  2
AcDbScale
  3
ObjectDBX Classes
 90
     1153
280
     0
281
     0
  0
CLASS
  1
DICTIONARYVAR
  2
AcDbDictionaryVar
  3
ObjectDBX Classes
 90
        0
280
     0
281
     0
  0
CLASS
  1
ACDBPLACEHOLDER
  2
AcDbPlaceHolder
  3
ObjectDBX Classes
 90
        0
280
     0
281
     0
  0
CLASS
  1
LAYOUT
  2
AcDbLayout
  3
ObjectDBX Classes
 90
        0
280
     0
281
     0
  0
ENDSEC
  0
SECTION
  2
TABLES
  0
TABLE
  2
VPORT
  5
8
330
0
100
AcDbSymbolTable
 70
     1
  0
VPORT
  5
29
330
8
100
AcDbSymbolTableRecord
100
AcDbViewportTableRecord
  2
*Active
 70
     0
 10
0.0
 20
0.0
 11
1.0
 21
1.0
 12
148.6203422501967
 22
102.0956503912757
 13
0.0
 23
0.0
 14
0.5
 24
0.5
 15
0.5
 25
0.5
 16
0.0
 26
0.0
 36
1.0
 17
0.0
 27
0.0
 37
0.0
 40
204.1402146848138
 41
1.415230691479948
 42
50.0
 43
0.0
 44
0.0
 50
0.0
 51
0.0
 71
     0
 72
   100
 73
     1
 74
     3
 75
     0
 76
     0
 77
     0
 78
     0
281
     0
 65
     1
110
0.0
120
0.0
130
0.0
111
1.0
121
0.0
131
0.0
112
0.0
122
1.0
132
0.0
 79
     0
146
0.0
  0
ENDTAB
  0
TABLE
  2
LTYPE
  5
5
330
0
100
AcDbSymbolTable
 70
     2
  0
LTYPE
  5
14
330
5
100
AcDbSymbolTableRecord
100
AcDbLinetypeTableRecord
  2
ByBlock
 70
     0
  3

 72
    65
 73
     0
 40
0.0
  0
LTYPE
  5
15
330
5
100
AcDbSymbolTableRecord
100
AcDbLinetypeTableRecord
  2
ByLayer
 70
     0
  3

 72
    65
 73
     0
 40
0.0
  0
LTYPE
  5
16
330
5
100
AcDbSymbolTableRecord
100
AcDbLinetypeTableRecord
  2
Continuous
 70
     0
  3
Solid line
 72
    65
 73
     0
 40
0.0
  0
LTYPE
  5
291
330
5
100
AcDbSymbolTableRecord
100
AcDbLinetypeTableRecord
  2
Dashed
 70
     0
  3
- - - - - 
 72
    65
 73
     2
 40
5.644444465637207
 49
2.822222232818604
 74
     0
 49
-2.822222232818603
 74
     0
  0
ENDTAB
  0
TABLE
  2
LAYER
  5
2
330
0
100
AcDbSymbolTable
 70
     5
  0
LAYER
  5
10
330
2
100
AcDbSymbolTableRecord
100
AcDbLayerTableRecord
  2
0
 70
     0
 62
     7
  6
Continuous
370
    -3
390
F
  0
LAYER
  5
40
330
2
100
AcDbSymbolTableRecord
100
AcDbLayerTableRecord
  2
Doc_ Finishes
 70
     0
 62
     7
  6
Continuous
370
    -3
390
F
  0
LAYER
  5
DB
330
2
100
AcDbSymbolTableRecord
100
AcDbLayerTableRecord
  2
Doc_ Floor
 70
     0
 62
     7
  6
Continuous
370
    -3
390
F
  0
LAYER
  5
E7
330
2
100
AcDbSymbolTableRecord
100
AcDbLayerTableRecord
  2
Des_ Roofs
 70
     0
 62
     7
  6
Continuous
370
    -3
390
F
  0
LAYER
  5
1C7
330
2
100
AcDbSymbolTableRecord
100
AcDbLayerTableRecord
  2
Des_ Roof Beams
 70
     0
 62
     7
  6
Continuous
370
    -3
390
F
  0
ENDTAB
  0
TABLE
  2
STYLE
  5
3
330
0
100
AcDbSymbolTable
 70
     4
  0
STYLE
  5
11
330
3
100
AcDbSymbolTableRecord
100
AcDbTextStyleTableRecord
  2
Standard
 70
     0
 40
0.0
 41
1.0
 50
0.0
 71
     0
 42
0.2
  3
txt
  4

  0
STYLE
  5
D6
330
3
100
AcDbSymbolTableRecord
100
AcDbTextStyleTableRecord
  2
GENERATED_STYLE_1
 70
     0
 40
0.0
 41
1.0
 50
0.0
 71
     0
 42
0.2
  3

  4

1001
ACAD
1000
Century Gothic
1071
       34
  0
STYLE
  5
D9
330
3
100
AcDbSymbolTableRecord
100
AcDbTextStyleTableRecord
  2
GENERATED_STYLE_2
 70
     0
 40
0.0
 41
1.0
 50
0.0
 71
     0
 42
0.2
  3

  4

1001
ACAD
1000
DilleniaUPC
1071
 33554450
  0
STYLE
  5
2C9
330
3
100
AcDbSymbolTableRecord
100
AcDbTextStyleTableRecord
  2
GENERATED_STYLE_3
 70
     0
 40
0.0
 41
1.0
 50
0.0
 71
     0
 42
0.2
  3

  4

1001
ACAD
1000
Arial
1071
       34
  0
ENDTAB
  0
TABLE
  2
VIEW
  5
6
330
0
100
AcDbSymbolTable
 70
     0
  0
ENDTAB
  0
TABLE
  2
UCS
  5
7
330
0
100
AcDbSymbolTable
 70
     0
  0
ENDTAB
  0
TABLE
  2
APPID
  5
9
330
0
100
AcDbSymbolTable
 70
     1
  0
APPID
  5
12
330
9
100
AcDbSymbolTableRecord
100
AcDbRegAppTableRecord
  2
ACAD
 70
     0
  0
ENDTAB
  0
TABLE
  2
DIMSTYLE
  5
A
330
0
100
AcDbSymbolTable
 70
     1
100
AcDbDimStyleTable
  0
DIMSTYLE
105
27
330
A
100
AcDbSymbolTableRecord
100
AcDbDimStyleTableRecord
  2
Standard
 70
     0
178
     0
340
11
  0
ENDTAB
  0
TABLE
  2
BLOCK_RECORD
  5
1
330
0
100
AcDbSymbolTable
 70
     3
  0
BLOCK_RECORD
  5
1F
330
1
100
AcDbSymbolTableRecord
100
AcDbBlockTableRecord
  2
*Model_Space
340
22
  0
BLOCK_RECORD
  5
1B
330
1
100
AcDbSymbolTableRecord
100
AcDbBlockTableRecord
  2
*Paper_Space
340
1E
  0
BLOCK_RECORD
  5
E3
330
1
100
AcDbSymbolTableRecord
100
AcDbBlockTableRecord
  2
Drawing_1_2
340
0
102
{BLKREFS
331
2E3
102
}
  0
BLOCK_RECORD
  5
2EA
330
1
100
AcDbSymbolTableRecord
100
AcDbBlockTableRecord
  2
R-TRS7-13 TOP RIDGE - HIP FLASH_STORY_MARKER
340
0
  0
ENDTAB
  0
ENDSEC
  0
SECTION
  2
BLOCKS
  0
BLOCK
  5
20
330
1F
100
AcDbEntity
  8
0
100
AcDbBlockBegin
  2
*Model_Space
 70
     0
 10
0.0
 20
0.0
 30
0.0
  3
*Model_Space
  1

  0
ENDBLK
  5
21
330
1F
100
AcDbEntity
  8
0
100
AcDbBlockEnd
  0
BLOCK
  5
1C
330
1B
100
AcDbEntity
 67
     1
  8
0
100
AcDbBlockBegin
  2
*Paper_Space
 70
     0
 10
0.0
 20
0.0
 30
0.0
  3
*Paper_Space
  1

  0
ENDBLK
  5
1D
330
1B
100
AcDbEntity
 67
     1
  8
0
100
AcDbBlockEnd
  0
BLOCK
  5
E4
330
E3
100
AcDbEntity
  8
0
100
AcDbBlockBegin
  2
Drawing_1_2
 70
     0
 10
175.8221134962063
 20
91.63606455647218
 30
0.0
  3
Drawing_1_2
  1

  0
HATCH
  5
E6
330
E3
100
AcDbEntity
  8
Des_ Roofs
  6
Continuous
 62
   253
370
    25
100
AcDbHatch
 10
0.0
 20
0.0
 30
0.0
210
0.0
220
0.0
230
1.0
  2
SOLID
 70
     1
 71
     0
 91
        1
 92
        3
 72
     0
 73
     1
 93
        2
 10
18.35334255947182
 20
164.0235586150859
 10
18.35518228535393
 20
178.0179909032135
 97
        0
 75
     0
 76
     1
 98
        0
  0
HATCH
  5
E8
330
E3
100
AcDbEntity
  8
Des_ Roofs
  6
Continuous
 62
   253
370
    25
100
AcDbHatch
 10
0.0
 20
0.0
 30
0.0
210
0.0
220
0.0
230
1.0
  2
SOLID
 70
     1
 71
     0
 91
        1
 92
        3
 72
     0
 73
     1
 93
        5
 10
60.56936474794399
 20
197.7413714954916
 10
88.94469119495366
 20
197.7407009803637
 10
93.60174982494996
 20
197.7405899262957
 10
158.970401649992
 20
197.7432405564106
 10
60.57013374498127
 20
197.7417318973729
 97
        0
 75
     0
 76
     1
 98
        0
  0
HATCH
  5
E9
330
E3
100
AcDbEntity
  8
Des_ Roofs
  6
Continuous
 62
   255
370
    18
100
AcDbHatch
 10
0.0
 20
0.0
 30
0.0
210
0.0
220
0.0
230
1.0
  2
SOLID
 70
     1
 71
     0
 91
        1
 92
        3
 72
     0
 73
     1
 93
        7
 10
109.7516309942073
 20
197.7404895605462
 10
99.013588626548
 20
197.739977035303
 10
146.6768636053839
 20
140.2728501546239
 10
148.1598141858171
 20
139.7704285746004
 10
149.0228024848679
 20
141.4494726393518
 10
153.7224230697358
 20
139.0666224687011
 10
162.5902134570475
 20
140.0892325389308
 97
        0
 75
     0
 76
     1
 98
        0
  0
HATCH
  5
EA
330
E3
100
AcDbEntity
  8
Des_ Roofs
  6
Continuous
 62
   255
370
    18
100
AcDbHatch
 10
0.0
 20
0.0
 30
0.0
210
0.0
220
0.0
230
1.0
  2
SOLID
 70
     1
 71
     0
 91
        1
 92
        3
 72
     0
 73
     1
 93
        4
 10
162.5902122696277
 20
140.089234146709
 10
153.7224210309061
 20
139.0666253555414
 10
281.8390204384814
 20
74.1076374103754
 10
281.8390204384814
 20
79.65470835822326
 97
        0
 75
     0
 76
     1
 98
        0
  0
HATCH
  5
EB
330
E3
100
AcDbEntity
  8
Des_ Roofs
  6
Continuous
 62
   255
370
    18
100
AcDbHatch
 10
0.0
 20
0.0
 30
0.0
210
0.0
220
0.0
230
1.0
  2
SOLID
 70
     1
 71
     0
 91
        1
 92
        3
 72
     0
 73
     1
 93
        3
 10
198.6424933259483
 20
113.312835573536
 10
281.8390204384814
 20
71.63395494865702
 10
281.8390204384814
 20
72.99400176911924
 97
        0
 75
     0
 76
     1
 98
        0
  0
HATCH
  5
EC
330
E3
100
AcDbEntity
  8
Des_ Roofs
  6
Continuous
 62
   254
370
    13
100
AcDbHatch
 10
0.0
 20
0.0
 30
0.0
210
0.0
220
0.0
230
1.0
  2
SOLID
 70
     1
 71
     0
 91
        1
 92
        3
 72
     0
 73
     1
 93
        4
 10
177.6394561514415
 20
197.7435725924313
 10
177.1193388702453
 20
197.7435725924313
 10
281.839017961639
 20
126.1700144439573
 10
281.839017961639
 20
126.730313735243
 97
        0
 75
     0
 76
     1
 98
        0
  0
HATCH
  5
ED
330
E3
100
AcDbEntity
  8
Des_ Roofs
  6
Continuous
 62
    43
370
     0
100
AcDbHatch
 10
0.0
 20
0.0
 30
0.0
210
0.0
220
0.0
230
1.0
  2
SOLID
 70
     1
 71
     0
 91
        1
 92
        3
 72
     0
 73
     1
 93
        4
 10
177.1193385172861
 20
197.7435724298736
 10
176.94621063003
 20
197.7435820198524
 10
281.8390204173881
 20
125.9828063855773
 10
281.8390204173881
 20
126.1700123617102
 97
        0
 75
     0
 76
     1
 98
        0
  0
HATCH
  5
EE
330
E3
100
AcDbEntity
  8
Des_ Roofs
  6
Continuous
 62
   254
370
    13
100
AcDbHatch
 10
0.0
 20
0.0
 30
0.0
210
0.0
220
0.0
230
1.0
  2
SOLID
 70
     1
 71
     0
 91
        1
 92
        3
 72
     0
 73
     1
 93
        4
 10
176.94621063003
 20
197.7435820198524
 10
176.4289223786293
 20
197.7435820198524
 10
281.8390204173881
 20
125.4212603820198
 10
281.8390204173881
 20
125.9828063855773
 97
        0
 75
     0
 76
     1
 98
        0
  0
HATCH
  5
EF
330
E3
100
AcDbEntity
  8
Des_ Roofs
  6
Continuous
 62
    43
370
     0
100
AcDbHatch
 10
0.0
 20
0.0
 30
0.0
210
0.0
220
0.0
230
1.0
  2
SOLID
 70
     1
 71
     0
 91
        1
 92
        3
 72
     0
 73
     1
 93
        4
 10
176.4289233582345
 20
197.7435828192596
 10
175.8026066523585
 20
197.7435924092382
 10
281.8390189584438
 20
124.7370322680236
 10
281.8390189584438
 20
125.4212628545263
 97
        0
 75
     0
 76
     1
 98
        0
  0
HATCH
  5
F0
330
E3
100
AcDbEntity
  8
Des_ Roofs
  6
Continuous
 62
   251
370
    18
100
AcDbHatch
 10
0.0
 20
0.0
 30
0.0
210
0.0
220
0.0
230
1.0
  2
SOLID
 70
     1
 71
     0
 91
        1
 92
        3
 72
     0
 73
     1
 93
        4
 10
175.8026098289997
 20
197.7435909536022
 10
175.1865591832794
 20
197.743600543581
 10
281.8390193902505
 20
124.0593343716413
 10
281.8390193902505
 20
124.7370294008465
 97
        0
 75
     0
 76
     1
 98
        0
  0
HATCH
  5
F1
330
E3
100
AcDbEntity
  8
Des_ Roofs
  6
Continuous
 62
     8
370
    25
100
AcDbHatch
 10
0.0
 20
0.0
 30
0.0
210
0.0
220
0.0
230
1.0
  2
SOLID
 70
     1
 71
     0
 91
        1
 92
        3
 72
     0
 73
     1
 93
        4
 10
175.1865610812917
 20
197.7435977513322
 10
174.5184224581757
 20
197.7436073413111
 10
281.8390177299748
 20
123.3190179208588
 10
281.8390177299748
 20
124.0593403149567
 97
        0
 75
     0
 76
     1
 98
        0
  0
HATCH
  5
F2
330
E3
100
AcDbEntity
  8
Des_ Roofs
  6
Continuous
 62
   251
370
    18
100
AcDbHatch
 10
0.0
 20
0.0
 30
0.0
210
0.0
220
0.0
230
1.0
  2
SOLID
 70
     1
 71
     0
 91
        1
 92
        3
 72
     0
 73
     1
 93
        4
 10
174.5184230347988
 20
197.7436079522448
 10
173.818632683935
 20
197.7436175422237
 10
281.8390186862155
 20
122.5376411721159
 10
281.8390186862155
 20
123.3190182685357
 97
        0
 75
     0
 76
     1
 98
        0
  0
HATCH
  5
F3
330
E3
100
AcDbEntity
  8
Des_ Roofs
  6
Continuous
 62
    43
370
     0
100
AcDbHatch
 10
0.0
 20
0.0
 30
0.0
210
0.0
220
0.0
230
1.0
  2
SOLID
 70
     1
 71
     0
 91
        1
 92
        3
 72
     0
 73
     1
 93
       99
 10
173.818632683935
 20
197.7436175422237
 10
173.1940805125906
 20
197.7435695923292
 10
173.6523376546885
 20
197.5307056255075
 10
174.3060385669225
 20
197.0743664791911
 10
174.2958108544175
 20
196.9133267583859
 10
175.86714328339
 20
195.8149241392399
 10
176.5844593207073
 20
195.4838540924035
 10
177.2600589497767
 20
195.012233314698
 10
177.2495195629573
 20
194.8486042995877
 10
178.895562722609
 20
193.6979794503006
 10
179.6154344893052
 20
193.3679930710809
 10
180.3140500677528
 20
192.8803090787051
 10
180.303179826661
 20
192.7140140494585
 10
182.0281628976904
 20
191.5082036665479
 10
182.7503554392822
 20
191.1795742693435
 10
183.4731761244925
 20
190.6749879391432
 10
183.461970234139
 20
190.5059405859502
 10
185.2704292765692
 20
189.2417799763764
 10
185.9946500987
 20
188.9148048505336
 10
186.7429609478465
 20
188.3924195194809
 10
186.731395433284
 20
188.2205287375417
 10
188.6282069513896
 20
186.8946038688138
 10
189.3541491747343
 20
186.569604278626
 10
190.1293263497903
 20
186.0284753337985
 10
190.117382031061
 20
185.8536356333452
 10
192.107786948315
 20
184.4622927234993
 10
192.8351053336328
 20
184.1396282931755
 10
193.6386113063819
 20
183.5787152218616
 10
193.6262737985173
 20
183.4008259081158
 10
195.7159206124962
 20
181.9401090908527
 10
196.4442219706521
 20
181.6201778045175
 10
197.2776438826032
 20
181.0383825541324
 10
197.2648844156667
 20
180.8573429323155
 10
199.4598627629768
 20
179.3229990519895
 10
200.1887011599516
 20
179.0062372536833
 10
201.0537508223399
 20
178.402365871853
 10
201.0405502163736
 20
178.2180560672286
 10
203.3474244375771
 20
176.6054915239431
 10
204.0763203744253
 20
176.2923739176217
 10
204.9748246782326
 20
175.6651461421621
 10
204.9611541632999
 20
175.4774510749832
 10
207.3870352277569
 20
173.781698259664
 10
208.1154372806913
 20
173.4727570891569
 10
209.0493765565621
 20
172.8207919631052
 10
209.0352121577156
 20
172.6295821686568
 10
211.5878056134781
 20
170.845251513158
 10
212.3150856388804
 20
170.5410717671785
 10
213.2865936571215
 20
169.862882843804
 10
213.2719066044246
 20
169.6680192673918
 10
215.9595557331423
 20
167.7892848595269
 10
216.6850232525311
 20
167.4905090666618
 10
217.6964255830277
 20
166.7844756395293
 10
217.6811823115541
 20
166.5858240214486
 10
220.5129544382842
 20
164.6063372951809
 10
221.2358374583573
 20
164.3136847038482
 10
222.2896274956253
 20
163.5780566018069
 10
222.2737992354384
 20
163.3754635023952
 10
225.2595576534872
 20
161.288338852869
 10
225.9789834861641
 20
161.0026006363288
 10
227.0778895792028
 20
160.2354742485655
 10
227.0614379703869
 20
160.0287814331709
 10
230.2119282511203
 20
157.8265051119122
 10
230.926913923563
 20
157.5485539582448
 10
232.0738993758548
 20
156.7478626443052
 10
232.0567812635048
 20
156.5369022882966
 10
235.3837463360952
 20
154.2112700683498
 10
236.0931937957188
 20
153.9420793604146
 10
237.2914808401765
 20
153.1055790652341
 10
237.2736578643768
 20
152.8901737540019
 10
240.7899291206025
 20
150.4322094151097
 10
241.4926012601279
 20
150.172872410502
 10
242.7457142140002
 20
149.2980985095014
 10
242.7271288348773
 20
149.0780516484779
 10
246.4467651838168
 20
146.4779302572495
 10
247.1412714563024
 20
146.2296552933116
 10
248.4530606961206
 20
145.3139225923968
 10
248.4336697587695
 20
145.0890327920251
 10
252.3721206564428
 20
142.3359560322105
 10
253.0568883053478
 20
142.100090500979
 10
254.4315686268418
 20
141.1404596716148
 10
254.4113097963996
 20
140.9105063623799
 10
258.5855638904414
 20
137.9925970451021
 10
259.2588187696679
 20
137.7706561632444
 10
260.7010269276395
 20
136.7638857925601
 10
260.6798426642327
 20
136.5286388149682
 10
265.1086339784391
 20
133.432801824029
 10
265.7683717823954
 20
133.2264782228222
 10
267.2832048506339
 20
132.1690056336536
 10
267.2610280244102
 20
131.9282156482531
 10
271.9650613232425
 20
128.6399797054809
 10
272.6090092269275
 20
128.4511769957383
 10
274.2021013180412
 20
127.3390702967334
 10
274.1788552091693
 20
127.0924783740938
 10
279.1810793121534
 20
123.5957946497868
 10
279.8066576112409
 20
123.4266513968047
 10
281.4842326215407
 20
122.2555711225077
 10
281.4598309202105
 20
122.0028847682724
 10
281.8390186862155
 20
121.7378225462568
 10
281.8390186862155
 20
122.5376411721159
 97
        0
 75
     0
 76
     1
 98
        0
  0
HATCH
  5
F4
330
E3
100
AcDbEntity
  8
Des_ Roofs
  6
Continuous
 62
   252
370
    13
100
AcDbHatch
 10
0.0
 20
0.0
 30
0.0
210
0.0
220
0.0
230
1.0
  2
SOLID
 70
     1
 71
     0
 91
        1
 92
        3
 72
     0
 73
     1
 93
        3
 10
174.2727776907848
 20
196.5507802197978
 10
175.8671419726699
 20
195.8149229169715
 10
174.2958088168293
 20
196.9133256721339
 97
        0
 75
     0
 76
     1
 98
        0
  0
HATCH
  5
F5
330
E3
100
AcDbEntity
  8
Des_ Roofs
  6
Continuous
 62
   252
370
    13
100
AcDbHatch
 10
0.0
 20
0.0
 30
0.0
210
0.0
220
0.0
230
1.0
  2
SOLID
 70
     1
 71
     0
 91
        1
 92
        3
 72
     0
 73
     1
 93
        3
 10
177.224734196286
 20
194.4638730003165
 10
178.895563638608
 20
193.6979771829343
 10
177.2495177687902
 20
194.8486057193897
 97
        0
 75
     0
 76
     1
 98
        0
  0
HATCH
  5
F6
330
E3
100
AcDbEntity
  8
Des_ Roofs
  6
Continuous
 62
   252
370
    13
100
AcDbHatch
 10
0.0
 20
0.0
 30
0.0
210
0.0
220
0.0
230
1.0
  2
SOLID
 70
     1
 71
     0
 91
        1
 92
        3
 72
     0
 73
     1
 93
        3
 10
180.2764770649056
 20
192.3053096595204
 10
182.0281683664431
 20
191.5082054317242
 10
180.3031832941277
 20
192.7140156543764
 97
        0
 75
     0
 76
     1
 98
        0
  0
HATCH
  5
F7
330
E3
100
AcDbEntity
  8
Des_ Roofs
  6
Continuous
 62
   252
370
    13
100
AcDbHatch
 10
0.0
 20
0.0
 30
0.0
210
0.0
220
0.0
230
1.0
  2
SOLID
 70
     1
 71
     0
 91
        1
 92
        3
 72
     0
 73
     1
 93
        3
 10
183.4331533589542
 20
190.0712928305255
 10
185.2704292550365
 20
189.2417815285259
 10
183.4619668391176
 20
190.5059427044336
 97
        0
 75
     0
 76
     1
 98
        0
  0
HATCH
  5
F8
330
E3
100
AcDbEntity
  8
Des_ Roofs
  6
Continuous
 62
   252
370
    13
100
AcDbHatch
 10
0.0
 20
0.0
 30
0.0
210
0.0
220
0.0
230
1.0
  2
SOLID
 70
     1
 71
     0
 91
        1
 92
        3
 72
     0
 73
     1
 93
        3
 10
186.7313942438281
 20
188.2205271721602
 10
186.7002553559138
 20
187.7577374671382
 10
188.6282077703169
 20
186.8946060431809
 97
        0
 75
     0
 76
     1
 98
        0
  0
HATCH
  5
F9
330
E3
100
AcDbEntity
  8
Des_ Roofs
  6
Continuous
 62
   252
370
    13
100
AcDbHatch
 10
0.0
 20
0.0
 30
0.0
210
0.0
220
0.0
230
1.0
  2
SOLID
 70
     1
 71
     0
 91
        1
 92
        3
 72
     0
 73
     1
 93
        3
 10
190.1173821127222
 20
185.8536360648114
 10
190.0836780842991
 20
185.3602540625629
 10
192.1077849105396
 20
184.4622918662207
 97
        0
 75
     0
 76
     1
 98
        0
  0
HATCH
  5
FA
330
E3
100
AcDbEntity
  8
Des_ Roofs
  6
Continuous
 62
   252
370
    13
100
AcDbHatch
 10
0.0
 20
0.0
 30
0.0
210
0.0
220
0.0
230
1.0
  2
SOLID
 70
     1
 71
     0
 91
        1
 92
        3
 72
     0
 73
     1
 93
        4
 10
193.589949467106
 20
182.8772603805978
 10
193.6023124854272
 20
182.868584452092
 10
195.7159187421478
 20
181.940111467661
 10
193.6262713772446
 20
183.400829531712
 97
        0
 75
     0
 76
     1
 98
        0
  0
HATCH
  5
FB
330
E3
100
AcDbEntity
  8
Des_ Roofs
  6
Continuous
 62
   252
370
    13
100
AcDbHatch
 10
0.0
 20
0.0
 30
0.0
210
0.0
220
0.0
230
1.0
  2
SOLID
 70
     1
 71
     0
 91
        1
 92
        3
 72
     0
 73
     1
 93
        4
 10
197.2648872290105
 20
180.8573440829641
 10
197.2273282978416
 20
180.3244924794668
 10
197.344140481421
 20
180.2425110682723
 10
199.4598611810656
 20
179.3229992943288
 97
        0
 75
     0
 76
     1
 98
        0
  0
HATCH
  5
FC
330
E3
100
AcDbEntity
  8
Des_ Roofs
  6
Continuous
 62
   252
370
    13
100
AcDbHatch
 10
0.0
 20
0.0
 30
0.0
210
0.0
220
0.0
230
1.0
  2
SOLID
 70
     1
 71
     0
 91
        1
 92
        3
 72
     0
 73
     1
 93
        4
 10
201.0016904264002
 20
177.6755869477915
 10
201.2309972065906
 20
177.5146567447889
 10
203.3474251178708
 20
176.6054918366734
 10
201.0405487091166
 20
178.2180566295329
 97
        0
 75
     0
 76
     1
 98
        0
  0
HATCH
  5
FD
330
E3
100
AcDbEntity
  8
Des_ Roofs
  6
Continuous
 62
   252
370
    13
100
AcDbHatch
 10
0.0
 20
0.0
 30
0.0
210
0.0
220
0.0
230
1.0
  2
SOLID
 70
     1
 71
     0
 91
        1
 92
        3
 72
     0
 73
     1
 93
        4
 10
204.920920663187
 20
174.9250131508487
 10
205.2714842722868
 20
174.6789802161448
 10
207.387037159001
 20
173.7816964635072
 10
204.9611550119333
 20
175.4774509206606
 97
        0
 75
     0
 76
     1
 98
        0
  0
HATCH
  5
FE
330
E3
100
AcDbEntity
  8
Des_ Roofs
  6
Continuous
 62
   252
370
    13
100
AcDbHatch
 10
0.0
 20
0.0
 30
0.0
210
0.0
220
0.0
230
1.0
  2
SOLID
 70
     1
 71
     0
 91
        1
 92
        3
 72
     0
 73
     1
 93
        4
 10
208.9935223291219
 20
172.0667993456412
 10
209.4748961175308
 20
171.7289631486544
 10
211.5878071492536
 20
170.8452506674375
 10
209.0352118557082
 20
172.6295815839533
 97
        0
 75
     0
 76
     1
 98
        0
  0
HATCH
  5
FF
330
E3
100
AcDbEntity
  8
Des_ Roofs
  6
Continuous
 62
   252
370
    13
100
AcDbHatch
 10
0.0
 20
0.0
 30
0.0
210
0.0
220
0.0
230
1.0
  2
SOLID
 70
     1
 71
     0
 91
        1
 92
        3
 72
     0
 73
     1
 93
        4
 10
213.271908197049
 20
169.6680213841736
 10
213.228681983485
 20
169.0944991183107
 10
213.8512823395305
 20
168.6575478099274
 10
215.9595617343721
 20
167.7892813102974
 97
        0
 75
     0
 76
     1
 98
        0
  0
HATCH
  5
100
330
E3
100
AcDbEntity
  8
Des_ Roofs
  6
Continuous
 62
   252
370
    13
100
AcDbHatch
 10
0.0
 20
0.0
 30
0.0
210
0.0
220
0.0
230
1.0
  2
SOLID
 70
     1
 71
     0
 91
        1
 92
        3
 72
     0
 73
     1
 93
        4
 10
217.6363245624504
 20
166.0011482322424
 10
218.4115507787673
 20
165.4570819303339
 10
220.512957035442
 20
164.6063374979735
 10
217.6811833560953
 20
166.5858228659994
 97
        0
 75
     0
 76
     1
 98
        0
  0
HATCH
  5
101
330
E3
100
AcDbEntity
  8
Des_ Roofs
  6
Continuous
 62
   252
370
    13
100
AcDbHatch
 10
0.0
 20
0.0
 30
0.0
210
0.0
220
0.0
230
1.0
  2
SOLID
 70
     1
 71
     0
 91
        1
 92
        3
 72
     0
 73
     1
 93
        4
 10
222.2272092721895
 20
162.7791951055647
 10
223.1675370414951
 20
162.119258769815
 10
225.2595601580283
 20
161.2883402365271
 10
222.2737989363458
 20
163.3754656128179
 97
        0
 75
     0
 76
     1
 98
        0
  0
HATCH
  5
102
330
E3
100
AcDbEntity
  8
Des_ Roofs
  6
Continuous
 62
   252
370
    13
100
AcDbHatch
 10
0.0
 20
0.0
 30
0.0
210
0.0
220
0.0
230
1.0
  2
SOLID
 70
     1
 71
     0
 91
        1
 92
        3
 72
     0
 73
     1
 93
        4
 10
227.0614347177621
 20
160.0287819295697
 10
227.0130063033532
 20
159.4204480699426
 10
228.1321123794817
 20
158.6350428007283
 10
230.2119283039864
 20
157.8265057177112
 97
        0
 75
     0
 76
     1
 98
        0
  0
HATCH
  5
103
330
E3
100
AcDbEntity
  8
Des_ Roofs
  6
Continuous
 62
   252
370
    13
100
AcDbHatch
 10
0.0
 20
0.0
 30
0.0
210
0.0
220
0.0
230
1.0
  2
SOLID
 70
     1
 71
     0
 91
        1
 92
        3
 72
     0
 73
     1
 93
        4
 10
232.0567821525435
 20
156.5369064988704
 10
232.0063975188308
 20
155.9160106427331
 10
233.3193179403531
 20
154.994581006727
 10
235.3837478164603
 20
154.2112686044886
 97
        0
 75
     0
 76
     1
 98
        0
  0
HATCH
  5
104
330
E3
100
AcDbEntity
  8
Des_ Roofs
  6
Continuous
 62
   252
370
    13
100
AcDbHatch
 10
0.0
 20
0.0
 30
0.0
210
0.0
220
0.0
230
1.0
  2
SOLID
 70
     1
 71
     0
 91
        1
 92
        3
 72
     0
 73
     1
 93
        4
 10
237.2736570395238
 20
152.8901732959244
 10
237.2211891281455
 20
152.2561904285372
 10
238.7444678526793
 20
151.1871285656053
 10
240.7899276756596
 20
150.4322101112041
 97
        0
 75
     0
 76
     1
 98
        0
  0
HATCH
  5
105
330
E3
100
AcDbEntity
  8
Des_ Roofs
  6
Continuous
 62
   252
370
    13
100
AcDbHatch
 10
0.0
 20
0.0
 30
0.0
210
0.0
220
0.0
230
1.0
  2
SOLID
 70
     1
 71
     0
 91
        1
 92
        3
 72
     0
 73
     1
 93
        4
 10
242.7271313771874
 20
149.0780532580077
 10
242.6724387458165
 20
148.4304200073898
 10
244.4243146415776
 20
147.2009265855917
 10
246.4467721064442
 20
146.4779285478953
 97
        0
 75
     0
 76
     1
 98
        0
  0
HATCH
  5
106
330
E3
100
AcDbEntity
  8
Des_ Roofs
  6
Continuous
 62
   252
370
    13
100
AcDbHatch
 10
0.0
 20
0.0
 30
0.0
210
0.0
220
0.0
230
1.0
  2
SOLID
 70
     1
 71
     0
 91
        1
 92
        3
 72
     0
 73
     1
 93
        4
 10
248.4336700113422
 20
145.089032020762
 10
248.3766016283412
 20
144.4271490550188
 10
250.3772314256076
 20
143.023077444315
 10
252.372119623324
 20
142.3359554138276
 97
        0
 75
     0
 76
     1
 98
        0
  0
HATCH
  5
107
330
E3
100
AcDbEntity
  8
Des_ Roofs
  6
Continuous
 62
   252
370
    13
100
AcDbHatch
 10
0.0
 20
0.0
 30
0.0
210
0.0
220
0.0
230
1.0
  2
SOLID
 70
     1
 71
     0
 91
        1
 92
        3
 72
     0
 73
     1
 93
        4
 10
254.3517008844531
 20
140.2337340657763
 10
256.6233941136684
 20
138.6394249224255
 10
258.5855611872688
 20
137.9925971738739
 10
254.4113128320147
 20
140.9105044357807
 97
        0
 75
     0
 76
     1
 98
        0
  0
HATCH
  5
108
330
E3
100
AcDbEntity
  8
Des_ Roofs
  6
Continuous
 62
   252
370
    13
100
AcDbHatch
 10
0.0
 20
0.0
 30
0.0
210
0.0
220
0.0
230
1.0
  2
SOLID
 70
     1
 71
     0
 91
        1
 92
        3
 72
     0
 73
     1
 93
        4
 10
260.6175072746904
 20
135.8362945129841
 10
263.1850139457727
 20
134.0343815960091
 10
265.1086295945867
 20
133.43280100817
 10
260.6798449837084
 20
136.528637922937
 97
        0
 75
     0
 76
     1
 98
        0
  0
HATCH
  5
109
330
E3
100
AcDbEntity
  8
Des_ Roofs
  6
Continuous
 62
   252
370
    13
100
AcDbHatch
 10
0.0
 20
0.0
 30
0.0
210
0.0
220
0.0
230
1.0
  2
SOLID
 70
     1
 71
     0
 91
        1
 92
        3
 72
     0
 73
     1
 93
        4
 10
267.1957669575154
 20
131.2195738039339
 10
270.0866131857186
 20
129.1907322557263
 10
271.9650607856303
 20
128.6399774098743
 10
267.261029406179
 20
131.9282190414191
 97
        0
 75
     0
 76
     1
 98
        0
  0
HATCH
  5
10A
330
E3
100
AcDbEntity
  8
Des_ Roofs
  6
Continuous
 62
   252
370
    13
100
AcDbHatch
 10
0.0
 20
0.0
 30
0.0
210
0.0
220
0.0
230
1.0
  2
SOLID
 70
     1
 71
     0
 91
        1
 92
        3
 72
     0
 73
     1
 93
        4
 10
274.1788561565024
 20
127.092478484817
 10
274.1104460167285
 20
126.3667450963538
 10
277.3553128003995
 20
124.0894493125881
 10
279.1810743321233
 20
123.5957964123233
 97
        0
 75
     0
 76
     1
 98
        0
  0
HATCH
  5
10B
330
E3
100
AcDbEntity
  8
Des_ Roofs
  6
Continuous
 62
   252
370
    13
100
AcDbHatch
 10
0.0
 20
0.0
 30
0.0
210
0.0
220
0.0
230
1.0
  2
SOLID
 70
     1
 71
     0
 91
        1
 92
        3
 72
     0
 73
     1
 93
        4
 10
281.4598284747078
 20
122.0028844761845
 10
281.3880264348983
 20
121.2592263524952
 10
281.8390206913432
 20
120.9427132473936
 10
281.8390206913432
 20
121.7378191077883
 97
        0
 75
     0
 76
     1
 98
        0
  0
HATCH
  5
10C
330
E3
100
AcDbEntity
  8
Des_ Roofs
  6
Continuous
 62
     9
370
    18
100
AcDbHatch
 10
0.0
 20
0.0
 30
0.0
210
0.0
220
0.0
230
1.0
  2
SOLID
 70
     1
 71
     0
 91
        1
 92
        3
 72
     0
 73
     1
 93
        3
 10
197.2273296977537
 20
180.3244921635591
 10
197.2251943987185
 20
180.2942079900947
 10
197.3441404250205
 20
180.2425130504305
 97
        0
 75
     0
 76
     1
 98
        0
  0
HATCH
  5
10D
330
E3
100
AcDbEntity
  8
Des_ Roofs
  6
Continuous
 62
     9
370
    18
100
AcDbHatch
 10
0.0
 20
0.0
 30
0.0
210
0.0
220
0.0
230
1.0
  2
SOLID
 70
     1
 71
     0
 91
        1
 92
        3
 72
     0
 73
     1
 93
        3
 10
201.001691012911
 20
177.6755875088859
 10
200.997350602358
 20
177.6150239766109
 10
201.2310009448153
 20
177.514655292648
 97
        0
 75
     0
 76
     1
 98
        0
  0
HATCH
  5
10E
330
E3
100
AcDbEntity
  8
Des_ Roofs
  6
Continuous
 62
     9
370
    18
100
AcDbHatch
 10
0.0
 20
0.0
 30
0.0
210
0.0
220
0.0
230
1.0
  2
SOLID
 70
     1
 71
     0
 91
        1
 92
        3
 72
     0
 73
     1
 93
        3
 10
204.9140427181443
 20
174.8305868127129
 10
205.2714802214693
 20
174.6789829885397
 10
204.9209204513389
 20
174.9250118063511
 97
        0
 75
     0
 76
     1
 98
        0
  0
HATCH
  5
10F
330
E3
100
AcDbEntity
  8
Des_ Roofs
  6
Continuous
 62
     9
370
    18
100
AcDbHatch
 10
0.0
 20
0.0
 30
0.0
210
0.0
220
0.0
230
1.0
  2
SOLID
 70
     1
 71
     0
 91
        1
 92
        3
 72
     0
 73
     1
 93
        3
 10
208.9837156491387
 20
171.9343967155423
 10
209.4748922030852
 20
171.7289650599967
 10
208.9935230992734
 20
172.0667972923604
 97
        0
 75
     0
 76
     1
 98
        0
  0
HATCH
  5
110
330
E3
100
AcDbEntity
  8
Des_ Roofs
  6
Continuous
 62
     9
370
    18
100
AcDbHatch
 10
0.0
 20
0.0
 30
0.0
210
0.0
220
0.0
230
1.0
  2
SOLID
 70
     1
 71
     0
 91
        1
 92
        3
 72
     0
 73
     1
 93
        3
 10
213.2286805018333
 20
169.0944995525763
 10
213.2154835353045
 20
168.9193929950539
 10
213.8512802578423
 20
168.6575480389546
 97
        0
 75
     0
 76
     1
 98
        0
  0
HATCH
  5
111
330
E3
100
AcDbEntity
  8
Des_ Roofs
  6
Continuous
 62
     9
370
    18
100
AcDbHatch
 10
0.0
 20
0.0
 30
0.0
210
0.0
220
0.0
230
1.0
  2
SOLID
 70
     1
 71
     0
 91
        1
 92
        3
 72
     0
 73
     1
 93
        3
 10
217.6191923440082
 20
165.7778649829165
 10
218.411547169653
 20
165.4570838475838
 10
217.6363228828295
 20
166.0011469680518
 97
        0
 75
     0
 76
     1
 98
        0
  0
HATCH
  5
112
330
E3
100
AcDbEntity
  8
Des_ Roofs
  6
Continuous
 62
     9
370
    18
100
AcDbHatch
 10
0.0
 20
0.0
 30
0.0
210
0.0
220
0.0
230
1.0
  2
SOLID
 70
     1
 71
     0
 91
        1
 92
        3
 72
     0
 73
     1
 93
        3
 10
222.2055017191367
 20
162.5013653687416
 10
223.167534579954
 20
162.1192599858068
 10
222.2272085865555
 20
162.7791949760177
 97
        0
 75
     0
 76
     1
 98
        0
  0
HATCH
  5
113
330
E3
100
AcDbEntity
  8
Des_ Roofs
  6
Continuous
 62
     9
370
    18
100
AcDbHatch
 10
0.0
 20
0.0
 30
0.0
210
0.0
220
0.0
230
1.0
  2
SOLID
 70
     1
 71
     0
 91
        1
 92
        3
 72
     0
 73
     1
 93
        3
 10
226.9859523862537
 20
159.0806163143311
 10
228.132114466131
 20
158.6350417554512
 10
227.013005926905
 20
159.4204490354188
 97
        0
 75
     0
 76
     1
 98
        0
  0
HATCH
  5
114
330
E3
100
AcDbEntity
  8
Des_ Roofs
  6
Continuous
 62
     9
370
    18
100
AcDbHatch
 10
0.0
 20
0.0
 30
0.0
210
0.0
220
0.0
230
1.0
  2
SOLID
 70
     1
 71
     0
 91
        1
 92
        3
 72
     0
 73
     1
 93
        3
 10
232.0063967024321
 20
155.9160116657207
 10
231.9730768896403
 20
155.5053914946551
 10
233.3193191371767
 20
154.9945807818233
 97
        0
 75
     0
 76
     1
 98
        0
  0
HATCH
  5
115
330
E3
100
AcDbEntity
  8
Des_ Roofs
  6
Continuous
 62
     9
370
    18
100
AcDbHatch
 10
0.0
 20
0.0
 30
0.0
210
0.0
220
0.0
230
1.0
  2
SOLID
 70
     1
 71
     0
 91
        1
 92
        3
 72
     0
 73
     1
 93
        3
 10
237.1804838487395
 20
151.7643499922897
 10
238.7444688220199
 20
151.1871283499378
 10
237.2211869333926
 20
152.2561909684839
 97
        0
 75
     0
 76
     1
 98
        0
  0
HATCH
  5
116
330
E3
100
AcDbEntity
  8
Des_ Roofs
  6
Continuous
 62
     9
370
    18
100
AcDbHatch
 10
0.0
 20
0.0
 30
0.0
210
0.0
220
0.0
230
1.0
  2
SOLID
 70
     1
 71
     0
 91
        1
 92
        3
 72
     0
 73
     1
 93
        3
 10
242.6724368574014
 20
148.4304187782466
 10
242.6229879538137
 20
147.8448725991824
 10
244.4243137018186
 20
147.2009270748023
 97
        0
 75
     0
 76
     1
 98
        0
  0
HATCH
  5
117
330
E3
100
AcDbEntity
  8
Des_ Roofs
  6
Continuous
 62
     9
370
    18
100
AcDbHatch
 10
0.0
 20
0.0
 30
0.0
210
0.0
220
0.0
230
1.0
  2
SOLID
 70
     1
 71
     0
 91
        1
 92
        3
 72
     0
 73
     1
 93
        4
 10
248.376602961724
 20
144.4271495547914
 10
248.3215522082435
 20
143.7886806993009
 10
248.4813626101066
 20
143.6760924235649
 10
250.3772337180991
 20
143.0230760911074
 97
        0
 75
     0
 76
     1
 98
        0
  0
HATCH
  5
118
330
E3
100
AcDbEntity
  8
Des_ Roofs
  6
Continuous
 62
     9
370
    18
100
AcDbHatch
 10
0.0
 20
0.0
 30
0.0
210
0.0
220
0.0
230
1.0
  2
SOLID
 70
     1
 71
     0
 91
        1
 92
        3
 72
     0
 73
     1
 93
        4
 10
254.3517016815123
 20
140.2337327948149
 10
254.2942002691616
 20
139.5809066411892
 10
254.7574734960313
 20
139.2545284706176
 10
256.6233878270292
 20
138.6394275381652
 97
        0
 75
     0
 76
     1
 98
        0
  0
HATCH
  5
119
330
E3
100
AcDbEntity
  8
Des_ Roofs
  6
Continuous
 62
     9
370
    18
100
AcDbHatch
 10
0.0
 20
0.0
 30
0.0
210
0.0
220
0.0
230
1.0
  2
SOLID
 70
     1
 71
     0
 91
        1
 92
        3
 72
     0
 73
     1
 93
        4
 10
260.6175068006165
 20
135.8362926655788
 10
260.5573765871987
 20
135.168452013551
 10
261.3545797693902
 20
134.6068178134235
 10
263.1850076933103
 20
134.0343819371166
 97
        0
 75
     0
 76
     1
 98
        0
  0
HATCH
  5
11A
330
E3
100
AcDbEntity
  8
Des_ Roofs
  6
Continuous
 62
     9
370
    18
100
AcDbHatch
 10
0.0
 20
0.0
 30
0.0
210
0.0
220
0.0
230
1.0
  2
SOLID
 70
     1
 71
     0
 91
        1
 92
        3
 72
     0
 73
     1
 93
        4
 10
267.1957661110142
 20
131.2195691213286
 10
267.1328145103707
 20
130.5360110314193
 10
268.2979535488664
 20
129.7151630835865
 10
270.0866071276253
 20
129.1907341220036
 97
        0
 75
     0
 76
     1
 98
        0
  0
HATCH
  5
11B
330
E3
100
AcDbEntity
  8
Des_ Roofs
  6
Continuous
 62
     9
370
    18
100
AcDbHatch
 10
0.0
 20
0.0
 30
0.0
210
0.0
220
0.0
230
1.0
  2
SOLID
 70
     1
 71
     0
 91
        1
 92
        3
 72
     0
 73
     1
 93
        4
 10
274.0444549055377
 20
125.666708332633
 10
275.6155848253081
 20
124.559838643796
 10
277.3553094831079
 20
124.0894493583603
 10
274.1104445528357
 20
126.366744575751
 97
        0
 75
     0
 76
     1
 98
        0
  0
HATCH
  5
11C
330
E3
100
AcDbEntity
  8
Des_ Roofs
  6
Continuous
 62
     9
370
    18
100
AcDbHatch
 10
0.0
 20
0.0
 30
0.0
210
0.0
220
0.0
230
1.0
  2
SOLID
 70
     1
 71
     0
 91
        1
 92
        3
 72
     0
 73
     1
 93
        4
 10
281.3880274786228
 20
121.259223247146
 10
281.3187683838632
 20
120.5419047689256
 10
281.8390206294749
 20
120.1753854601253
 10
281.8390206294749
 20
120.9427092248522
 97
        0
 75
     0
 76
     1
 98
        0
  0
HATCH
  5
11D
330
E3
100
AcDbEntity
  8
Des_ Roofs
  6
Continuous
 62
   253
370
    25
100
AcDbHatch
 10
0.0
 20
0.0
 30
0.0
210
0.0
220
0.0
230
1.0
  2
SOLID
 70
     1
 71
     0
 91
        1
 92
        3
 72
     0
 73
     1
 93
        3
 10
248.3215530998132
 20
143.7886783808579
 10
248.3167343936468
 20
143.7327968555857
 10
248.4813606324513
 20
143.6760936853304
 97
        0
 75
     0
 76
     1
 98
        0
  0
HATCH
  5
11E
330
E3
100
AcDbEntity
  8
Des_ Roofs
  6
Continuous
 62
   253
370
    25
100
AcDbHatch
 10
0.0
 20
0.0
 30
0.0
210
0.0
220
0.0
230
1.0
  2
SOLID
 70
     1
 71
     0
 91
        1
 92
        3
 72
     0
 73
     1
 93
        4
 10
254.2833970152152
 20
139.45826374495
 10
254.4098288453133
 20
139.3691273472825
 10
254.7574740875324
 20
139.2545272049431
 10
254.2942016467448
 20
139.5809063417136
 97
        0
 75
     0
 76
     1
 98
        0
  0
HATCH
  5
11F
330
E3
100
AcDbEntity
  8
Des_ Roofs
  6
Continuous
 62
   253
370
    25
100
AcDbHatch
 10
0.0
 20
0.0
 30
0.0
210
0.0
220
0.0
230
1.0
  2
SOLID
 70
     1
 71
     0
 91
        1
 92
        3
 72
     0
 73
     1
 93
        4
 10
260.546081408026
 20
135.0429900984932
 10
261.0134209914805
 20
134.7135104602125
 10
261.3545800715378
 20
134.6068174425354
 10
260.5573766099427
 20
135.1684528708317
 97
        0
 75
     0
 76
     1
 98
        0
  0
HATCH
  5
120
330
E3
100
AcDbEntity
  8
Des_ Roofs
  6
Continuous
 62
   253
370
    25
100
AcDbHatch
 10
0.0
 20
0.0
 30
0.0
210
0.0
220
0.0
230
1.0
  2
SOLID
 70
     1
 71
     0
 91
        1
 92
        3
 72
     0
 73
     1
 93
        4
 10
267.1328129158165
 20
130.536011205495
 10
267.1209884778665
 20
130.4075953444226
 10
267.9644505520181
 20
129.8129442874174
 10
268.2979562507168
 20
129.7151612846027
 97
        0
 75
     0
 76
     1
 98
        0
  0
HATCH
  5
121
330
E3
100
AcDbEntity
  8
Des_ Roofs
  6
Continuous
 62
   253
370
    25
100
AcDbHatch
 10
0.0
 20
0.0
 30
0.0
210
0.0
220
0.0
230
1.0
  2
SOLID
 70
     1
 71
     0
 91
        1
 92
        3
 72
     0
 73
     1
 93
        4
 10
274.0320595095868
 20
125.5351995115383
 10
275.2910709506168
 20
124.6475812693459
 10
275.6155868865577
 20
124.5598368349441
 10
274.0444566824221
 20
125.6667110409151
 97
        0
 75
     0
 76
     1
 98
        0
  0
HATCH
  5
122
330
E3
100
AcDbEntity
  8
Des_ Roofs
  6
Continuous
 62
   253
370
    25
100
AcDbHatch
 10
0.0
 20
0.0
 30
0.0
210
0.0
220
0.0
230
1.0
  2
SOLID
 70
     1
 71
     0
 91
        1
 92
        3
 72
     0
 73
     1
 93
        4
 10
281.3187712116835
 20
120.5419053105072
 10
281.3057564101959
 20
120.4071476336047
 10
281.8390189642678
 20
120.0311928342072
 10
281.8390189642678
 20
120.1753885713233
 97
        0
 75
     0
 76
     1
 98
        0
  0
HATCH
  5
123
330
E3
100
AcDbEntity
  8
Des_ Roofs
  6
Continuous
 62
   255
370
    18
100
AcDbHatch
 10
0.0
 20
0.0
 30
0.0
210
0.0
220
0.0
230
1.0
  2
SOLID
 70
     1
 71
     0
 91
        1
 92
        3
 72
     0
 73
     1
 93
        4
 10
174.3060398932504
 20
197.0743698961831
 10
173.6523375637369
 20
197.5307054729493
 10
173.1940804988844
 20
197.7435671974099
 10
172.8633655329909
 20
197.743551808573
 97
        0
 75
     0
 76
     1
 98
        0
  0
HATCH
  5
124
330
E3
100
AcDbEntity
  8
Des_ Roofs
  6
Continuous
 62
   254
370
    13
100
AcDbHatch
 10
0.0
 20
0.0
 30
0.0
210
0.0
220
0.0
230
1.0
  2
SOLID
 70
     1
 71
     0
 91
        1
 92
        3
 72
     0
 73
     1
 93
        6
 10
172.8633654890882
 20
197.7435518639534
 10
170.2032227843808
 20
197.743530938083
 10
171.3334311484303
 20
197.7434805687768
 10
171.6885549466947
 20
197.743497183287
 10
174.2727789090132
 20
196.5507810360593
 10
174.3060398965246
 20
197.0743698685138
 97
        0
 75
     0
 76
     1
 98
        0
  0
HATCH
  5
125
330
E3
100
AcDbEntity
  8
Des_ Roofs
  6
Continuous
 62
   255
370
    18
100
AcDbHatch
 10
0.0
 20
0.0
 30
0.0
210
0.0
220
0.0
230
1.0
  2
SOLID
 70
     1
 71
     0
 91
        1
 92
        3
 72
     0
 73
     1
 93
        4
 10
177.2600572180418
 20
195.0122337543571
 10
176.5844600678317
 20
195.4838536358896
 10
171.6885549691264
 20
197.7434971422585
 10
171.3334311814407
 20
197.7434806176296
 97
        0
 75
     0
 76
     1
 98
        0
  0
HATCH
  5
126
330
E3
100
AcDbEntity
  8
Des_ Roofs
  6
Continuous
 62
   254
370
    13
100
AcDbHatch
 10
0.0
 20
0.0
 30
0.0
210
0.0
220
0.0
230
1.0
  2
SOLID
 70
     1
 71
     0
 91
        1
 92
        3
 72
     0
 73
     1
 93
        6
 10
171.3334310746134
 20
197.7434806138544
 10
168.5584824441031
 20
197.7434581918715
 10
169.6879281713651
 20
197.7434040638035
 10
170.0702662469348
 20
197.7434217561493
 10
177.2247338552492
 20
194.4638723567036
 10
177.2600572368765
 20
195.0122336541846
 97
        0
 75
     0
 76
     1
 98
        0
  0
HATCH
  5
127
330
E3
100
AcDbEntity
  8
Des_ Roofs
  6
Continuous
 62
   255
370
    18
100
AcDbHatch
 10
0.0
 20
0.0
 30
0.0
210
0.0
220
0.0
230
1.0
  2
SOLID
 70
     1
 71
     0
 91
        1
 92
        3
 72
     0
 73
     1
 93
        4
 10
180.3140477947052
 20
192.8803084294512
 10
179.6154371108196
 20
193.3679935652884
 10
170.0702663122839
 20
197.7434218400105
 10
169.6879281998143
 20
197.743404049044
 97
        0
 75
     0
 76
     1
 98
        0
  0
HATCH
  5
128
330
E3
100
AcDbEntity
  8
Des_ Roofs
  6
Continuous
 62
   254
370
    13
100
AcDbHatch
 10
0.0
 20
0.0
 30
0.0
210
0.0
220
0.0
230
1.0
  2
SOLID
 70
     1
 71
     0
 91
        1
 92
        3
 72
     0
 73
     1
 93
        6
 10
169.6879281933951
 20
197.7434040324517
 10
166.7880745852173
 20
197.7433800476568
 10
167.9132478713945
 20
197.7433211942106
 10
168.3260525945757
 20
197.7433409463946
 10
180.2764780505499
 20
192.3053103280097
 10
180.3140477123061
 20
192.8803082962331
 97
        0
 75
     0
 76
     1
 98
        0
  0
HATCH
  5
129
330
E3
100
AcDbEntity
  8
Des_ Roofs
  6
Continuous
 62
   255
370
    18
100
AcDbHatch
 10
0.0
 20
0.0
 30
0.0
210
0.0
220
0.0
230
1.0
  2
SOLID
 70
     1
 71
     0
 91
        1
 92
        3
 72
     0
 73
     1
 93
        4
 10
168.326052547293
 20
197.743340884326
 10
167.9132478105486
 20
197.7433211761248
 10
183.4731740950562
 20
190.6749901106066
 10
182.7503535565562
 20
191.1795754767205
 97
        0
 75
     0
 76
     1
 98
        0
  0
HATCH
  5
12A
330
E3
100
AcDbEntity
  8
Des_ Roofs
  6
Continuous
 62
   254
370
    13
100
AcDbHatch
 10
0.0
 20
0.0
 30
0.0
210
0.0
220
0.0
230
1.0
  2
SOLID
 70
     1
 71
     0
 91
        1
 92
        3
 72
     0
 73
     1
 93
        6
 10
164.8770247165782
 20
197.7432951647869
 10
165.9935573714928
 20
197.743231984965
 10
166.4406211161878
 20
197.7432527678012
 10
183.4331523198566
 20
190.0712929161779
 10
183.4731739659565
 20
190.6749902463246
 10
167.9132479938796
 20
197.7433214897127
 97
        0
 75
     0
 76
     1
 98
        0
  0
HATCH
  5
12B
330
E3
100
AcDbEntity
  8
Des_ Roofs
  6
Continuous
 62
   255
370
    18
100
AcDbHatch
 10
0.0
 20
0.0
 30
0.0
210
0.0
220
0.0
230
1.0
  2
SOLID
 70
     1
 71
     0
 91
        1
 92
        3
 72
     0
 73
     1
 93
        4
 10
165.9935572741214
 20
197.7432319578093
 10
186.7429602595337
 20
188.3924225138549
 10
185.9946493883845
 20
188.9148023260267
 10
166.4406210648085
 20
197.7432526735724
 97
        0
 75
     0
 76
     1
 98
        0
  0
HATCH
  5
12C
330
E3
100
AcDbEntity
  8
Des_ Roofs
  6
Continuous
 62
   254
370
    13
100
AcDbHatch
 10
0.0
 20
0.0
 30
0.0
210
0.0
220
0.0
230
1.0
  2
SOLID
 70
     1
 71
     0
 91
        1
 92
        3
 72
     0
 73
     1
 93
        6
 10
162.807880606875
 20
197.7432037606595
 10
163.9103263287898
 20
197.7431352817824
 10
164.3960983630206
 20
197.7431577514139
 10
186.7002556891362
 20
187.7577373106372
 10
186.7429601155287
 20
188.3924223696345
 10
165.9935575576236
 20
197.7432322935249
 97
        0
 75
     0
 76
     1
 98
        0
  0
HATCH
  5
12D
330
E3
100
AcDbEntity
  8
Des_ Roofs
  6
Continuous
 62
   255
370
    18
100
AcDbHatch
 10
0.0
 20
0.0
 30
0.0
210
0.0
220
0.0
230
1.0
  2
SOLID
 70
     1
 71
     0
 91
        1
 92
        3
 72
     0
 73
     1
 93
        4
 10
164.3960986073411
 20
197.7431579707749
 10
163.9103262347707
 20
197.7431353105293
 10
190.1293242999716
 20
186.0284744102821
 10
189.3541505080669
 20
186.5696065441632
 97
        0
 75
     0
 76
     1
 98
        0
  0
HATCH
  5
12E
330
E3
100
AcDbEntity
  8
Des_ Roofs
  6
Continuous
 62
   254
370
    13
100
AcDbHatch
 10
0.0
 20
0.0
 30
0.0
210
0.0
220
0.0
230
1.0
  2
SOLID
 70
     1
 71
     0
 91
        1
 92
        3
 72
     0
 73
     1
 93
        6
 10
160.5601778312624
 20
197.7431042234959
 10
161.6417264835304
 20
197.7430293189395
 10
162.1714603186666
 20
197.7430544339966
 10
190.0836774316293
 20
185.3602535172867
 10
190.1293242682973
 20
186.0284739805939
 10
163.9103264151358
 20
197.7431350665485
 97
        0
 75
     0
 76
     1
 98
        0
  0
HATCH
  5
12F
330
E3
100
AcDbEntity
  8
Des_ Roofs
  6
Continuous
 62
   255
370
    18
100
AcDbHatch
 10
0.0
 20
0.0
 30
0.0
210
0.0
220
0.0
230
1.0
  2
SOLID
 70
     1
 71
     0
 91
        1
 92
        3
 72
     0
 73
     1
 93
        4
 10
162.1714602776312
 20
197.7430545318367
 10
161.6417266271158
 20
197.7430297386928
 10
193.6386138702318
 20
183.5787142463372
 10
192.8351043119453
 20
184.139627659287
 97
        0
 75
     0
 76
     1
 98
        0
  0
HATCH
  5
130
330
E3
100
AcDbEntity
  8
Des_ Roofs
  6
Continuous
 62
   254
370
    13
100
AcDbHatch
 10
0.0
 20
0.0
 30
0.0
210
0.0
220
0.0
230
1.0
  2
SOLID
 70
     1
 71
     0
 91
        1
 92
        3
 72
     0
 73
     1
 93
        6
 10
158.1097609112177
 20
197.7429960803814
 10
159.1618647051102
 20
197.7429140200232
 10
159.7418096099532
 20
197.7429415499498
 10
193.5897305096982
 20
182.8741112994381
 10
193.6386136003711
 20
183.5787143591438
 10
161.6417266124286
 20
197.7430294339463
 97
        0
 75
     0
 76
     1
 98
        0
  0
HATCH
  5
131
330
E3
100
AcDbEntity
  8
Des_ Roofs
  6
Continuous
 62
   255
370
    18
100
AcDbHatch
 10
0.0
 20
0.0
 30
0.0
210
0.0
220
0.0
230
1.0
  2
SOLID
 70
     1
 71
     0
 91
        1
 92
        3
 72
     0
 73
     1
 93
        4
 10
159.7418093878586
 20
197.7429414582145
 10
159.1618649326859
 20
197.7429136276872
 10
197.2776463660187
 20
181.0383842265792
 10
196.44421862838
 20
181.6201819676818
 97
        0
 75
     0
 76
     1
 98
        0
  0
HATCH
  5
132
330
E3
100
AcDbEntity
  8
Des_ Roofs
  6
Continuous
 62
   254
370
    13
100
AcDbHatch
 10
0.0
 20
0.0
 30
0.0
210
0.0
220
0.0
230
1.0
  2
SOLID
 70
     1
 71
     0
 91
        1
 92
        3
 72
     0
 73
     1
 93
        6
 10
155.4279113892455
 20
197.7428776349091
 10
156.4397894697234
 20
197.7427878350347
 10
157.0774377986518
 20
197.7428177683262
 10
197.2251943284446
 20
180.2942076508037
 10
197.2776461856336
 20
181.0383848223925
 10
159.1618656233546
 20
197.7429144279132
 97
        0
 75
     0
 76
     1
 98
        0
  0
HATCH
  5
133
330
E3
100
AcDbEntity
  8
Des_ Roofs
  6
Continuous
 62
   255
370
    18
100
AcDbHatch
 10
0.0
 20
0.0
 30
0.0
210
0.0
220
0.0
230
1.0
  2
SOLID
 70
     1
 71
     0
 91
        1
 92
        3
 72
     0
 73
     1
 93
        4
 10
157.0774381746678
 20
197.7428174863693
 10
156.4397894746655
 20
197.7427875703476
 10
201.053752011301
 20
178.4023660983616
 10
200.1887029882806
 20
179.0062376155122
 97
        0
 75
     0
 76
     1
 98
        0
  0
HATCH
  5
134
330
E3
100
AcDbEntity
  8
Des_ Roofs
  6
Continuous
 62
   254
370
    13
100
AcDbHatch
 10
0.0
 20
0.0
 30
0.0
210
0.0
220
0.0
230
1.0
  2
SOLID
 70
     1
 71
     0
 91
        1
 92
        3
 72
     0
 73
     1
 93
        6
 10
156.4397891925074
 20
197.7427872561038
 10
152.4802175438687
 20
197.7427474469523
 10
153.4381922022047
 20
197.7426475621724
 10
154.1426050037383
 20
197.742680857099
 10
200.9973516095933
 20
177.6150247844859
 10
201.0537517677513
 20
178.4023651150932
 97
        0
 75
     0
 76
     1
 98
        0
  0
HATCH
  5
135
330
E3
100
AcDbEntity
  8
Des_ Roofs
  6
Continuous
 62
   255
370
    18
100
AcDbHatch
 10
0.0
 20
0.0
 30
0.0
210
0.0
220
0.0
230
1.0
  2
SOLID
 70
     1
 71
     0
 91
        1
 92
        3
 72
     0
 73
     1
 93
        4
 10
154.1426045151428
 20
197.7426804080047
 10
153.438191898478
 20
197.7426481538358
 10
204.9748244298888
 20
175.6651487828617
 10
204.0763192803616
 20
176.2923756375628
 97
        0
 75
     0
 76
     1
 98
        0
  0
HATCH
  5
136
330
E3
100
AcDbEntity
  8
Des_ Roofs
  6
Continuous
 62
   254
370
    13
100
AcDbHatch
 10
0.0
 20
0.0
 30
0.0
210
0.0
220
0.0
230
1.0
  2
SOLID
 70
     1
 71
     0
 91
        1
 92
        3
 72
     0
 73
     1
 93
        6
 10
149.2250891970837
 20
197.7426031235552
 10
150.1116870052158
 20
197.7424934663256
 10
150.8939268524568
 20
197.7425291879989
 10
204.9140430446593
 20
174.8305856449805
 10
204.9748247178394
 20
175.6651477747285
 10
153.438192231803
 20
197.742647983331
 97
        0
 75
     0
 76
     1
 98
        0
  0
HATCH
  5
137
330
E3
100
AcDbEntity
  8
Des_ Roofs
  6
Continuous
 62
   255
370
    18
100
AcDbHatch
 10
0.0
 20
0.0
 30
0.0
210
0.0
220
0.0
230
1.0
  2
SOLID
 70
     1
 71
     0
 91
        1
 92
        3
 72
     0
 73
     1
 93
        4
 10
150.1116869784264
 20
197.7424930757917
 10
209.0493750319212
 20
172.8207927503259
 10
208.1154361709992
 20
173.4727557069605
 10
150.8939273011914
 20
197.7425290836657
 97
        0
 75
     0
 76
     1
 98
        0
  0
HATCH
  5
138
330
E3
100
AcDbEntity
  8
Des_ Roofs
  6
Continuous
 62
   254
370
    13
100
AcDbHatch
 10
0.0
 20
0.0
 30
0.0
210
0.0
220
0.0
230
1.0
  2
SOLID
 70
     1
 71
     0
 91
        1
 92
        3
 72
     0
 73
     1
 93
        6
 10
145.6117834357259
 20
197.742443641282
 10
146.4045018811222
 20
197.7423198076791
 10
147.2782179010226
 20
197.742361400645
 10
208.9837157151235
 20
171.9343968523384
 10
209.0493749381787
 20
172.8207930550526
 10
150.111686707812
 20
197.7424927966053
 97
        0
 75
     0
 76
     1
 98
        0
  0
HATCH
  5
139
330
E3
100
AcDbEntity
  8
Des_ Roofs
  6
Continuous
 62
   255
370
    18
100
AcDbHatch
 10
0.0
 20
0.0
 30
0.0
210
0.0
220
0.0
230
1.0
  2
SOLID
 70
     1
 71
     0
 91
        1
 92
        3
 72
     0
 73
     1
 93
        4
 10
146.4045018553377
 20
197.7423198811679
 10
213.2865948334177
 20
169.8628804794006
 10
212.3150829207401
 20
170.5410716473347
 10
147.2782182607545
 20
197.7423617392835
 97
        0
 75
     0
 76
     1
 98
        0
  0
HATCH
  5
13A
330
E3
100
AcDbEntity
  8
Des_ Roofs
  6
Continuous
 62
   254
370
    13
100
AcDbHatch
 10
0.0
 20
0.0
 30
0.0
210
0.0
220
0.0
230
1.0
  2
SOLID
 70
     1
 71
     0
 91
        1
 92
        3
 72
     0
 73
     1
 93
        6
 10
141.5777409004454
 20
197.7422645447797
 10
142.2473240106892
 20
197.7421277708652
 10
143.2295530558967
 20
197.7421726498059
 10
213.2154829056879
 20
168.9193942340373
 10
213.2865946558223
 20
169.8628799308394
 10
146.4045019639001
 20
197.7423201091826
 97
        0
 75
     0
 76
     1
 98
        0
  0
HATCH
  5
13B
330
E3
100
AcDbEntity
  8
Des_ Roofs
  6
Continuous
 62
   255
370
    18
100
AcDbHatch
 10
0.0
 20
0.0
 30
0.0
210
0.0
220
0.0
230
1.0
  2
SOLID
 70
     1
 71
     0
 91
        1
 92
        3
 72
     0
 73
     1
 93
        4
 10
142.2473238055325
 20
197.7421278040208
 10
217.6964236680003
 20
166.7844735442951
 10
216.6850256331691
 20
167.4905091875123
 10
143.2295535130082
 20
197.7421727752316
 97
        0
 75
     0
 76
     1
 98
        0
  0
HATCH
  5
13C
330
E3
100
AcDbEntity
  8
Des_ Roofs
  6
Continuous
 62
   254
370
    13
100
AcDbHatch
 10
0.0
 20
0.0
 30
0.0
210
0.0
220
0.0
230
1.0
  2
SOLID
 70
     1
 71
     0
 91
        1
 92
        3
 72
     0
 73
     1
 93
        6
 10
137.0449318782184
 20
197.7420653683245
 10
137.552926384077
 20
197.741909134061
 10
138.6652145903888
 20
197.7419608115482
 10
217.6191935233549
 20
165.777864256163
 10
217.6964237251923
 20
166.7844744048641
 10
142.2473237380933
 20
197.7421266602279
 97
        0
 75
     0
 76
     1
 98
        0
  0
HATCH
  5
13D
330
E3
100
AcDbEntity
  8
Des_ Roofs
  6
Continuous
 62
   255
370
    18
100
AcDbHatch
 10
0.0
 20
0.0
 30
0.0
210
0.0
220
0.0
230
1.0
  2
SOLID
 70
     1
 71
     0
 91
        1
 92
        3
 72
     0
 73
     1
 93
        4
 10
137.552925949361
 20
197.7419092348851
 10
222.2896280327879
 20
163.5780560842722
 10
221.2358361387626
 20
164.313686339723
 10
138.6652151184697
 20
197.74196100462
 97
        0
 75
     0
 76
     1
 98
        0
  0
HATCH
  5
13E
330
E3
100
AcDbEntity
  8
Des_ Roofs
  6
Continuous
 62
   254
370
    13
100
AcDbHatch
 10
0.0
 20
0.0
 30
0.0
210
0.0
220
0.0
230
1.0
  2
SOLID
 70
     1
 71
     0
 91
        1
 92
        3
 72
     0
 73
     1
 93
        6
 10
131.9147604867888
 20
197.741837693932
 10
132.2099795593267
 20
197.7416599306208
 10
133.4799812563316
 20
197.7417191850579
 10
222.205501461004
 20
162.5013641706698
 10
222.2896279480734
 20
163.5780563467943
 10
137.5529252185837
 20
197.7419077219032
 97
        0
 75
     0
 76
     1
 98
        0
  0
HATCH
  5
13F
330
E3
100
AcDbEntity
  8
Des_ Roofs
  6
Continuous
 62
   255
370
    18
100
AcDbHatch
 10
0.0
 20
0.0
 30
0.0
210
0.0
220
0.0
230
1.0
  2
SOLID
 70
     1
 71
     0
 91
        1
 92
        3
 72
     0
 73
     1
 93
        4
 10
132.2099799869952
 20
197.7416598814586
 10
227.0778888517717
 20
160.2354738968055
 10
225.9789790570037
 20
161.0025987699777
 10
133.4799816228033
 20
197.7417192544793
 97
        0
 75
     0
 76
     1
 98
        0
  0
HATCH
  5
140
330
E3
100
AcDbEntity
  8
Des_ Roofs
  6
Continuous
 62
   254
370
    13
100
AcDbHatch
 10
0.0
 20
0.0
 30
0.0
210
0.0
220
0.0
230
1.0
  2
SOLID
 70
     1
 71
     0
 91
        1
 92
        3
 72
     0
 73
     1
 93
        5
 10
126.060810349556
 20
197.7415791887661
 10
127.5379153796832
 20
197.7414422089042
 10
226.985952921479
 20
159.0806162842333
 10
227.0778889879102
 20
160.2354739313373
 10
132.2099793510784
 20
197.7416604735193
 97
        0
 75
     0
 76
     1
 98
        0
  0
HATCH
  5
141
330
E3
100
AcDbEntity
  8
Des_ Roofs
  6
Continuous
 62
   255
370
    18
100
AcDbHatch
 10
0.0
 20
0.0
 30
0.0
210
0.0
220
0.0
230
1.0
  2
SOLID
 70
     1
 71
     0
 91
        1
 92
        3
 72
     0
 73
     1
 93
        4
 10
127.5379152047075
 20
197.7414433892569
 10
126.0741142718869
 20
197.7413738903149
 10
232.0739006627113
 20
156.7478651973352
 10
230.9269138161972
 20
157.5485514518633
 97
        0
 75
     0
 76
     1
 98
        0
  0
HATCH
  5
142
330
E3
100
AcDbEntity
  8
Des_ Roofs
  6
Continuous
 62
   254
370
    13
100
AcDbHatch
 10
0.0
 20
0.0
 30
0.0
210
0.0
220
0.0
230
1.0
  2
SOLID
 70
     1
 71
     0
 91
        1
 92
        3
 72
     0
 73
     1
 93
        5
 10
119.3182877620144
 20
197.7412799151095
 10
120.6602698881641
 20
197.7411219771398
 10
231.9730757996039
 20
155.5053904596469
 10
232.0739007111185
 20
156.7478649441564
 10
126.0741146569588
 20
197.7413740058148
 97
        0
 75
     0
 76
     1
 98
        0
  0
HATCH
  5
143
330
E3
100
AcDbEntity
  8
Des_ Roofs
  6
Continuous
 62
   255
370
    18
100
AcDbHatch
 10
0.0
 20
0.0
 30
0.0
210
0.0
220
0.0
230
1.0
  2
SOLID
 70
     1
 71
     0
 91
        1
 92
        3
 72
     0
 73
     1
 93
        4
 10
118.9546717224139
 20
197.7410421469509
 10
237.2914840007518
 20
153.1055821666756
 10
236.093194345986
 20
153.9420819799905
 10
120.6602687775743
 20
197.7411232614004
 97
        0
 75
     0
 76
     1
 98
        0
  0
HATCH
  5
144
330
E3
100
AcDbEntity
  8
Des_ Roofs
  6
Continuous
 62
   254
370
    13
100
AcDbHatch
 10
0.0
 20
0.0
 30
0.0
210
0.0
220
0.0
230
1.0
  2
SOLID
 70
     1
 71
     0
 91
        1
 92
        3
 72
     0
 73
     1
 93
        5
 10
118.9546719149193
 20
197.7410438459715
 10
111.4682626171204
 20
197.7409332260519
 10
112.6072034341557
 20
197.7407476095767
 10
237.1804834257419
 20
151.7643510356714
 10
237.2914839528373
 20
153.1055819371602
 97
        0
 75
     0
 76
     1
 98
        0
  0
HATCH
  5
145
330
E3
100
AcDbEntity
  8
Des_ Roofs
  6
Continuous
 62
   255
370
    18
100
AcDbHatch
 10
0.0
 20
0.0
 30
0.0
210
0.0
220
0.0
230
1.0
  2
SOLID
 70
     1
 71
     0
 91
        1
 92
        3
 72
     0
 73
     1
 93
        4
 10
110.5945447535729
 20
197.7406535582954
 10
242.7457130736611
 20
149.2981018236689
 10
241.4925998520692
 20
150.1728731315598
 10
112.6072050306192
 20
197.7407480802669
 97
        0
 75
     0
 76
     1
 98
        0
  0
HATCH
  5
146
330
E3
100
AcDbEntity
  8
Des_ Roofs
  6
Continuous
 62
   254
370
    13
100
AcDbHatch
 10
0.0
 20
0.0
 30
0.0
210
0.0
220
0.0
230
1.0
  2
SOLID
 70
     1
 71
     0
 91
        1
 92
        3
 72
     0
 73
     1
 93
        9
 10
110.5945461870028
 20
197.7406527157931
 10
102.2134464852376
 20
197.7405249759401
 10
103.049235778283
 20
197.7403030017695
 10
108.177672570225
 20
197.7404139888548
 10
109.214982998771
 20
197.7404956585968
 10
109.7516306854415
 20
197.740489376309
 10
113.0179806063901
 20
194.176633337922
 10
242.622988242677
 20
147.8448714440509
 10
242.7457127357928
 20
149.2981007395913
 97
        0
 75
     0
 76
     1
 98
        0
  0
HATCH
  5
147
330
E3
100
AcDbEntity
  8
Des_ Roofs
  6
Continuous
 62
   255
370
    18
100
AcDbHatch
 10
0.0
 20
0.0
 30
0.0
210
0.0
220
0.0
230
1.0
  2
SOLID
 70
     1
 71
     0
 91
        1
 92
        3
 72
     0
 73
     1
 93
        4
 10
113.0179783848806
 20
194.1766337483385
 10
114.141215423334
 20
192.9510898213394
 10
248.4530612124703
 20
145.3139250259982
 10
247.141274040961
 20
146.2296540561437
 97
        0
 75
     0
 76
     1
 98
        0
  0
HATCH
  5
148
330
E3
100
AcDbEntity
  8
Des_ Roofs
  6
Continuous
 62
   254
370
    13
100
AcDbHatch
 10
0.0
 20
0.0
 30
0.0
210
0.0
220
0.0
230
1.0
  2
SOLID
 70
     1
 71
     0
 91
        1
 92
        3
 72
     0
 73
     1
 93
        4
 10
114.1412155943158
 20
192.9510916095531
 10
118.1627620357185
 20
188.5632501410727
 10
248.3167340548378
 20
143.7327978585286
 10
248.4530611815729
 20
145.3139251111422
 97
        0
 75
     0
 76
     1
 98
        0
  0
HATCH
  5
149
330
E3
100
AcDbEntity
  8
Des_ Roofs
  6
Continuous
 62
   255
370
    18
100
AcDbHatch
 10
0.0
 20
0.0
 30
0.0
210
0.0
220
0.0
230
1.0
  2
SOLID
 70
     1
 71
     0
 91
        1
 92
        3
 72
     0
 73
     1
 93
        4
 10
118.1627616216442
 20
188.5632504343416
 10
119.388152998338
 20
187.2262470014144
 10
254.4315670533158
 20
141.1404581586423
 10
253.0568864799124
 20
142.1000932005889
 97
        0
 75
     0
 76
     1
 98
        0
  0
HATCH
  5
14A
330
E3
100
AcDbEntity
  8
Des_ Roofs
  6
Continuous
 62
   254
370
    13
100
AcDbHatch
 10
0.0
 20
0.0
 30
0.0
210
0.0
220
0.0
230
1.0
  2
SOLID
 70
     1
 71
     0
 91
        1
 92
        3
 72
     0
 73
     1
 93
        4
 10
119.3881541769493
 20
187.2262462209816
 10
123.6686199352835
 20
182.5559063175616
 10
254.2833989809691
 20
139.458263078321
 10
254.4315670533158
 20
141.1404579792528
 97
        0
 75
     0
 76
     1
 98
        0
  0
HATCH
  5
14B
330
E3
100
AcDbEntity
  8
Des_ Roofs
  6
Continuous
 62
   255
370
    18
100
AcDbHatch
 10
0.0
 20
0.0
 30
0.0
210
0.0
220
0.0
230
1.0
  2
SOLID
 70
     1
 71
     0
 91
        1
 92
        3
 72
     0
 73
     1
 93
        4
 10
123.6686187027451
 20
182.5559059945697
 10
123.7840630534111
 20
182.4299472209572
 10
254.4098280108697
 20
139.3691284428454
 10
254.2833977734156
 20
139.4582623836738
 97
        0
 75
     0
 76
     1
 98
        0
  0
HATCH
  5
14C
330
E3
100
AcDbEntity
  8
Des_ Roofs
  6
Continuous
 62
   255
370
    18
100
AcDbHatch
 10
0.0
 20
0.0
 30
0.0
210
0.0
220
0.0
230
1.0
  2
SOLID
 70
     1
 71
     0
 91
        1
 92
        3
 72
     0
 73
     1
 93
        4
 10
123.7840640182361
 20
182.4299465715856
 10
125.1262088253868
 20
180.9655556437026
 10
260.7010249816722
 20
136.7638837756986
 10
259.2588174055486
 20
137.7706586592891
 97
        0
 75
     0
 76
     1
 98
        0
  0
HATCH
  5
14D
330
E3
100
AcDbEntity
  8
Des_ Roofs
  6
Continuous
 62
   254
370
    13
100
AcDbHatch
 10
0.0
 20
0.0
 30
0.0
210
0.0
220
0.0
230
1.0
  2
SOLID
 70
     1
 71
     0
 91
        1
 92
        3
 72
     0
 73
     1
 93
        4
 10
125.1262087590646
 20
180.9655546262058
 10
129.5057940357991
 20
176.1870659964501
 10
260.5460818727951
 20
135.0429897084347
 10
260.7010249816722
 20
136.7638832786871
 97
        0
 75
     0
 76
     1
 98
        0
  0
HATCH
  5
14E
330
E3
100
AcDbEntity
  8
Des_ Roofs
  6
Continuous
 62
   255
370
    18
100
AcDbHatch
 10
0.0
 20
0.0
 30
0.0
210
0.0
220
0.0
230
1.0
  2
SOLID
 70
     1
 71
     0
 91
        1
 92
        3
 72
     0
 73
     1
 93
        4
 10
129.5057946709219
 20
176.1870654127186
 10
129.9513040703636
 20
175.700978199231
 10
261.0134204610623
 20
134.7135098881807
 10
260.5460828745023
 20
135.0429902940622
 97
        0
 75
     0
 76
     1
 98
        0
  0
HATCH
  5
14F
330
E3
100
AcDbEntity
  8
Des_ Roofs
  6
Continuous
 62
   255
370
    18
100
AcDbHatch
 10
0.0
 20
0.0
 30
0.0
210
0.0
220
0.0
230
1.0
  2
SOLID
 70
     1
 71
     0
 91
        1
 92
        3
 72
     0
 73
     1
 93
        4
 10
265.7683678685576
 20
133.2264804424979
 10
129.9513045175392
 20
175.7009780699352
 10
131.4277194374576
 20
174.090087624965
 10
267.2832040747185
 20
132.1690059071094
 97
        0
 75
     0
 76
     1
 98
        0
  0
HATCH
  5
150
330
E3
100
AcDbEntity
  8
Des_ Roofs
  6
Continuous
 62
   254
370
    13
100
AcDbHatch
 10
0.0
 20
0.0
 30
0.0
210
0.0
220
0.0
230
1.0
  2
SOLID
 70
     1
 71
     0
 91
        1
 92
        3
 72
     0
 73
     1
 93
        4
 10
131.4277196305912
 20
174.0900877616867
 10
135.905917133166
 20
169.2040027349239
 10
267.120986365208
 20
130.407596195312
 10
267.2832040747185
 20
132.1690058896223
 97
        0
 75
     0
 76
     1
 98
        0
  0
HATCH
  5
151
330
E3
100
AcDbEntity
  8
Des_ Roofs
  6
Continuous
 62
   255
370
    18
100
AcDbHatch
 10
0.0
 20
0.0
 30
0.0
210
0.0
220
0.0
230
1.0
  2
SOLID
 70
     1
 71
     0
 91
        1
 92
        3
 72
     0
 73
     1
 93
        4
 10
135.905917434198
 20
169.2040049799086
 10
136.7480747358487
 20
168.2851417676573
 10
267.9644503564733
 20
129.8129440005075
 10
267.1209883852811
 20
130.4075958477791
 97
        0
 75
     0
 76
     1
 98
        0
  0
HATCH
  5
152
330
E3
100
AcDbEntity
  8
Des_ Roofs
  6
Continuous
 62
   255
370
    18
100
AcDbHatch
 10
0.0
 20
0.0
 30
0.0
210
0.0
220
0.0
230
1.0
  2
SOLID
 70
     1
 71
     0
 91
        1
 92
        3
 72
     0
 73
     1
 93
        4
 10
136.7480732722967
 20
168.2851411758522
 10
138.3799650239938
 20
166.504611669862
 10
274.2021008226351
 20
127.3390723979508
 10
272.6090086269409
 20
128.4511754506757
 97
        0
 75
     0
 76
     1
 98
        0
  0
HATCH
  5
153
330
E3
100
AcDbEntity
  8
Des_ Roofs
  6
Continuous
 62
   254
370
    13
100
AcDbHatch
 10
0.0
 20
0.0
 30
0.0
210
0.0
220
0.0
230
1.0
  2
SOLID
 70
     1
 71
     0
 91
        1
 92
        3
 72
     0
 73
     1
 93
        4
 10
138.3799650846147
 20
166.5046127950481
 10
142.954555028557
 20
161.5133585854683
 10
274.032059866622
 20
125.5352004122393
 10
274.2021006443022
 20
127.339072464843
 97
        0
 75
     0
 76
     1
 98
        0
  0
HATCH
  5
154
330
E3
100
AcDbEntity
  8
Des_ Roofs
  6
Continuous
 62
   255
370
    18
100
AcDbHatch
 10
0.0
 20
0.0
 30
0.0
210
0.0
220
0.0
230
1.0
  2
SOLID
 70
     1
 71
     0
 91
        1
 92
        3
 72
     0
 73
     1
 93
        4
 10
142.9545528697111
 20
161.5133605121951
 10
144.2759460992799
 20
160.071612056178
 10
275.2910727961845
 20
124.6475803008597
 10
274.0320588840052
 20
125.5352013283968
 97
        0
 75
     0
 76
     1
 98
        0
  0
HATCH
  5
155
330
E3
100
AcDbEntity
  8
Des_ Roofs
  6
Continuous
 62
   255
370
    18
100
AcDbHatch
 10
0.0
 20
0.0
 30
0.0
210
0.0
220
0.0
230
1.0
  2
SOLID
 70
     1
 71
     0
 91
        1
 92
        3
 72
     0
 73
     1
 93
        4
 10
144.2759456161878
 20
160.0716116074162
 10
146.089231220376
 20
158.0931660650782
 10
281.4842305544638
 20
122.2555735664715
 10
279.8066590673159
 20
123.4266511690185
 97
        0
 75
     0
 76
     1
 98
        0
  0
HATCH
  5
156
330
E3
100
AcDbEntity
  8
Des_ Roofs
  6
Continuous
 62
   254
370
    13
100
AcDbHatch
 10
0.0
 20
0.0
 30
0.0
210
0.0
220
0.0
230
1.0
  2
SOLID
 70
     1
 71
     0
 91
        1
 92
        3
 72
     0
 73
     1
 93
        4
 10
146.0892313909892
 20
158.0931666130945
 10
150.7555316848438
 20
153.0018483496326
 10
281.3057565388206
 20
120.4071498279722
 10
281.4842305544638
 20
122.2555737806967
 97
        0
 75
     0
 76
     1
 98
        0
  0
HATCH
  5
157
330
E3
100
AcDbEntity
  8
Des_ Roofs
  6
Continuous
 62
   255
370
    18
100
AcDbHatch
 10
0.0
 20
0.0
 30
0.0
210
0.0
220
0.0
230
1.0
  2
SOLID
 70
     1
 71
     0
 91
        1
 92
        3
 72
     0
 73
     1
 93
        5
 10
281.3057560383156
 20
120.4071498811609
 10
150.7555331683141
 20
153.0018484431849
 10
152.6595884846838
 20
150.9243617395607
 10
281.8390175999664
 20
119.4839074231306
 10
281.8390175999664
 20
120.0311923882159
 97
        0
 75
     0
 76
     1
 98
        0
  0
HATCH
  5
158
330
E3
100
AcDbEntity
  8
Des_ Roofs
  6
Continuous
 62
   255
370
    18
100
AcDbHatch
 10
0.0
 20
0.0
 30
0.0
210
0.0
220
0.0
230
1.0
  2
SOLID
 70
     1
 71
     0
 91
        1
 92
        3
 72
     0
 73
     1
 93
        4
 10
152.6595895106259
 20
150.9243644781417
 10
154.6862867437388
 20
148.7130729958891
 10
281.8390182520622
 20
118.629841387852
 10
281.8390182520622
 20
119.4839083699415
 97
        0
 75
     0
 76
     1
 98
        0
  0
HATCH
  5
159
330
E3
100
AcDbEntity
  8
Des_ Roofs
  6
Continuous
 62
   254
370
    13
100
AcDbHatch
 10
0.0
 20
0.0
 30
0.0
210
0.0
220
0.0
230
1.0
  2
SOLID
 70
     1
 71
     0
 91
        1
 92
        3
 72
     0
 73
     1
 93
        4
 10
154.6862867437388
 20
148.7130729958891
 10
159.4360966932819
 20
143.5306357901758
 10
281.8390182520622
 20
116.5735576056178
 10
281.8390182520622
 20
118.629841387852
 97
        0
 75
     0
 76
     1
 98
        0
  0
HATCH
  5
15A
330
E3
100
AcDbEntity
  8
Des_ Roofs
  6
Continuous
 62
   255
370
    18
100
AcDbHatch
 10
0.0
 20
0.0
 30
0.0
210
0.0
220
0.0
230
1.0
  2
SOLID
 70
     1
 71
     0
 91
        1
 92
        3
 72
     0
 73
     1
 93
        4
 10
281.8390206576944
 20
116.5735596589058
 10
159.4360954371009
 20
143.5306349335945
 10
162.0537269356838
 20
140.674583780367
 10
281.8390206576944
 20
115.406326548861
 97
        0
 75
     0
 76
     1
 98
        0
  0
HATCH
  5
15B
330
E3
100
AcDbEntity
  8
Des_ Roofs
  6
Continuous
 62
   255
370
    18
100
AcDbHatch
 10
0.0
 20
0.0
 30
0.0
210
0.0
220
0.0
230
1.0
  2
SOLID
 70
     1
 71
     0
 91
        1
 92
        3
 72
     0
 73
     1
 93
        5
 10
281.8390178438447
 20
115.406329598991
 10
162.0537248381628
 20
140.6745856049805
 10
162.5902112998098
 20
140.0892331944331
 10
167.68403511414
 20
137.5077178423622
 10
281.8390178438447
 20
114.3691161945943
 97
        0
 75
     0
 76
     1
 98
        0
  0
HATCH
  5
15C
330
E3
100
AcDbEntity
  8
Des_ Roofs
  6
Continuous
 62
   254
370
    13
100
AcDbHatch
 10
0.0
 20
0.0
 30
0.0
210
0.0
220
0.0
230
1.0
  2
SOLID
 70
     1
 71
     0
 91
        1
 92
        3
 72
     0
 73
     1
 93
        4
 10
281.8390178438447
 20
114.3691161945943
 10
167.68403511414
 20
137.5077178423622
 10
181.0618252768277
 20
130.7279421451782
 10
281.8390178438447
 20
112.1112163981553
 97
        0
 75
     0
 76
     1
 98
        0
  0
HATCH
  5
15D
330
E3
100
AcDbEntity
  8
Des_ Roofs
  6
Continuous
 62
   255
370
    18
100
AcDbHatch
 10
0.0
 20
0.0
 30
0.0
210
0.0
220
0.0
230
1.0
  2
SOLID
 70
     1
 71
     0
 91
        1
 92
        3
 72
     0
 73
     1
 93
        4
 10
281.8390192817897
 20
112.1112133007115
 10
181.0618292908395
 20
130.7279387841429
 10
190.173880043752
 20
126.1100094761797
 10
281.8390192817897
 20
110.414155281414
 97
        0
 75
     0
 76
     1
 98
        0
  0
HATCH
  5
15E
330
E3
100
AcDbEntity
  8
Des_ Roofs
  6
Continuous
 62
   255
370
    18
100
AcDbHatch
 10
0.0
 20
0.0
 30
0.0
210
0.0
220
0.0
230
1.0
  2
SOLID
 70
     1
 71
     0
 91
        1
 92
        3
 72
     0
 73
     1
 93
        4
 10
190.1738796378411
 20
126.1100110774336
 10
196.6061939033364
 20
122.8501550611371
 10
281.8390198955792
 20
109.1278942765692
 10
281.8390198955792
 20
110.4141562656713
 97
        0
 75
     0
 76
     1
 98
        0
  0
HATCH
  5
15F
330
E3
100
AcDbEntity
  8
Des_ Roofs
  6
Continuous
 62
   254
370
    13
100
AcDbHatch
 10
0.0
 20
0.0
 30
0.0
210
0.0
220
0.0
230
1.0
  2
SOLID
 70
     1
 71
     0
 91
        1
 92
        3
 72
     0
 73
     1
 93
        4
 10
281.8390198955792
 20
109.1278942765692
 10
196.6061939033364
 20
122.8501550611371
 10
208.0923384336568
 20
117.0290506416669
 10
281.8390198955792
 20
106.6246727630219
 97
        0
 75
     0
 76
     1
 98
        0
  0
HATCH
  5
160
330
E3
100
AcDbEntity
  8
Des_ Roofs
  6
Continuous
 62
   255
370
    18
100
AcDbHatch
 10
0.0
 20
0.0
 30
0.0
210
0.0
220
0.0
230
1.0
  2
SOLID
 70
     1
 71
     0
 91
        1
 92
        3
 72
     0
 73
     1
 93
        4
 10
208.0923386555469
 20
117.0290522875964
 10
218.2384353602575
 20
111.8870726419488
 10
281.8390198033528
 20
104.1608090436857
 10
281.8390198033528
 20
106.6246765997217
 97
        0
 75
     0
 76
     1
 98
        0
  0
HATCH
  5
161
330
E3
100
AcDbEntity
  8
Des_ Roofs
  6
Continuous
 62
   255
370
    18
100
AcDbHatch
 10
0.0
 20
0.0
 30
0.0
210
0.0
220
0.0
230
1.0
  2
SOLID
 70
     1
 71
     0
 91
        1
 92
        3
 72
     0
 73
     1
 93
        4
 10
218.2384340586482
 20
111.8870752748204
 10
224.4277984483049
 20
108.7503434396281
 10
281.8390180410717
 20
102.523705568834
 10
281.8390180410717
 20
104.1608093009474
 97
        0
 75
     0
 76
     1
 98
        0
  0
HATCH
  5
162
330
E3
100
AcDbEntity
  8
Des_ Roofs
  6
Continuous
 62
   254
370
    13
100
AcDbHatch
 10
0.0
 20
0.0
 30
0.0
210
0.0
220
0.0
230
1.0
  2
SOLID
 70
     1
 71
     0
 91
        1
 92
        3
 72
     0
 73
     1
 93
        4
 10
224.4277939275673
 20
108.7503434396281
 10
234.15180547197
 20
103.8222783899106
 10
281.8390180410717
 20
99.71561327090912
 10
281.8390180410717
 20
102.523705568834
 97
        0
 75
     0
 76
     1
 98
        0
  0
HATCH
  5
163
330
E3
100
AcDbEntity
  8
Des_ Roofs
  6
Continuous
 62
   255
370
    18
100
AcDbHatch
 10
0.0
 20
0.0
 30
0.0
210
0.0
220
0.0
230
1.0
  2
SOLID
 70
     1
 71
     0
 91
        1
 92
        3
 72
     0
 73
     1
 93
        4
 10
281.8390184233374
 20
99.71561302987183
 10
234.1518095497084
 20
103.8222790580425
 10
245.2505912239544
 20
98.19748914397009
 10
281.8390184233374
 20
96.09926880402098
 97
        0
 75
     0
 76
     1
 98
        0
  0
HATCH
  5
164
330
E3
100
AcDbEntity
  8
Des_ Roofs
  6
Continuous
 62
   255
370
    18
100
AcDbHatch
 10
0.0
 20
0.0
 30
0.0
210
0.0
220
0.0
230
1.0
  2
SOLID
 70
     1
 71
     0
 91
        1
 92
        3
 72
     0
 73
     1
 93
        4
 10
245.2505924756623
 20
98.19748862458663
 10
251.2105130968198
 20
95.17703814494291
 10
281.8390185002604
 20
93.94542621785735
 10
281.8390185002604
 20
96.09927094690524
 97
        0
 75
     0
 76
     1
 98
        0
  0
HATCH
  5
165
330
E3
100
AcDbEntity
  8
Des_ Roofs
  6
Continuous
 62
   254
370
    13
100
AcDbHatch
 10
0.0
 20
0.0
 30
0.0
210
0.0
220
0.0
230
1.0
  2
SOLID
 70
     1
 71
     0
 91
        1
 92
        3
 72
     0
 73
     1
 93
        4
 10
251.2105130968198
 20
95.17703814494291
 10
259.2916400546832
 20
91.08157286043053
 10
281.8390185002604
 20
90.74839354723626
 10
281.8390185002604
 20
93.94542621785735
 97
        0
 75
     0
 76
     1
 98
        0
  0
HATCH
  5
166
330
E3
100
AcDbEntity
  8
Des_ Roofs
  6
Continuous
 62
   255
370
    18
100
AcDbHatch
 10
0.0
 20
0.0
 30
0.0
210
0.0
220
0.0
230
1.0
  2
SOLID
 70
     1
 71
     0
 91
        1
 92
        3
 72
     0
 73
     1
 93
        4
 10
259.2916414824833
 20
91.08157286906925
 10
271.2684463619593
 20
85.01180600205247
 10
281.8390196461153
 20
85.31271971050225
 10
281.8390196461153
 20
90.7483945688091
 97
        0
 75
     0
 76
     1
 98
        0
  0
HATCH
  5
167
330
E3
100
AcDbEntity
  8
Des_ Roofs
  6
Continuous
 62
   255
370
    18
100
AcDbHatch
 10
0.0
 20
0.0
 30
0.0
210
0.0
220
0.0
230
1.0
  2
SOLID
 70
     1
 71
     0
 91
        1
 92
        3
 72
     0
 73
     1
 93
        4
 10
281.8390178559884
 20
85.31272271704826
 10
271.2684487699432
 20
85.01180848257019
 10
277.0114580230978
 20
82.10128944033812
 10
281.8390178559884
 20
82.35241252479355
 97
        0
 75
     0
 76
     1
 98
        0
  0
HATCH
  5
168
330
E3
100
AcDbEntity
  8
Des_ Roofs
  6
Continuous
 62
   254
370
    13
100
AcDbHatch
 10
0.0
 20
0.0
 30
0.0
210
0.0
220
0.0
230
1.0
  2
SOLID
 70
     1
 71
     0
 91
        1
 92
        3
 72
     0
 73
     1
 93
        3
 10
281.8390187018302
 20
82.35240777057464
 10
277.0114556857633
 20
82.10128476996334
 10
281.8390187018302
 20
79.65471035348301
 97
        0
 75
     0
 76
     1
 98
        0
  0
HATCH
  5
169
330
E3
100
AcDbEntity
  8
Des_ Roofs
  6
Continuous
 62
   254
370
    13
100
AcDbHatch
 10
0.0
 20
0.0
 30
0.0
210
0.0
220
0.0
230
1.0
  2
SOLID
 70
     1
 71
     0
 91
        1
 92
        3
 72
     0
 73
     1
 93
        6
 10
99.0135890758246
 20
197.7399764261999
 10
79.2323946815543
 20
197.7404896981918
 10
125.9687673599525
 20
127.8721987320697
 10
144.2831064032661
 20
136.5681756700199
 10
145.6094449572181
 20
140.6344902563956
 10
146.6768622575966
 20
140.2728500550342
 97
        0
 75
     0
 76
     1
 98
        0
  0
HATCH
  5
16A
330
E3
100
AcDbEntity
  8
Des_ Roofs
  6
Continuous
 62
     9
370
    18
100
AcDbHatch
 10
0.0
 20
0.0
 30
0.0
210
0.0
220
0.0
230
1.0
  2
SOLID
 70
     1
 71
     0
 91
        1
 92
        3
 72
     0
 73
     1
 93
        4
 10
18.35529591385762
 20
189.3676198255079
 10
18.35525966857696
 20
188.2636769592972
 10
37.06585421335845
 20
197.7416360681206
 10
34.74943003632894
 20
197.7416422019373
 97
        0
 75
     0
 76
     1
 98
        0
  0
HATCH
  5
16B
330
E3
100
AcDbEntity
  8
Des_ Roofs
  6
Continuous
 62
   254
370
    13
100
AcDbHatch
 10
0.0
 20
0.0
 30
0.0
210
0.0
220
0.0
230
1.0
  2
SOLID
 70
     1
 71
     0
 91
        1
 92
        3
 72
     0
 73
     1
 93
        4
 10
23.65298740472857
 20
197.7419296870668
 10
18.35510316130701
 20
194.9228133137977
 10
18.35529590985852
 20
189.3676197702158
 10
34.74943014801487
 20
197.7416421521554
 97
        0
 75
     0
 76
     1
 98
        0
  0
HATCH
  5
16C
330
E3
100
AcDbEntity
  8
Des_ Roofs
  6
Continuous
 62
   254
370
    13
100
AcDbHatch
 10
0.0
 20
0.0
 30
0.0
210
0.0
220
0.0
230
1.0
  2
SOLID
 70
     1
 71
     0
 91
        1
 92
        3
 72
     0
 73
     1
 93
        4
 10
88.65740797254153
 20
25.02832469469167
 10
107.9013903513904
 20
25.02832469469167
 10
144.2831094458368
 20
136.5681798376923
 10
125.9687676568649
 20
127.8721997178677
 97
        0
 75
     0
 76
     1
 98
        0
  0
HATCH
  5
16D
330
E3
100
AcDbEntity
  8
Des_ Roofs
  6
Continuous
 62
   254
370
    13
100
AcDbHatch
 10
0.0
 20
0.0
 30
0.0
210
0.0
220
0.0
230
1.0
  2
SOLID
 70
     1
 71
     0
 91
        1
 92
        3
 72
     0
 73
     1
 93
        3
 10
131.5148075750521
 20
88.75205826488481
 10
109.0142552479108
 20
25.02832100288417
 10
110.4876712908085
 20
25.02832100288417
 97
        0
 75
     0
 76
     1
 98
        0
  0
HATCH
  5
16E
330
E3
100
AcDbEntity
  8
Des_ Roofs
  6
Continuous
 62
   254
370
    13
100
AcDbHatch
 10
0.0
 20
0.0
 30
0.0
210
0.0
220
0.0
230
1.0
  2
SOLID
 70
     1
 71
     0
 91
        1
 92
        3
 72
     0
 73
     1
 93
        3
 10
86.66163507741518
 20
25.02832472622012
 10
88.65740797254153
 20
25.02832472622012
 10
89.6020500424541
 20
27.63210873512124
 97
        0
 75
     0
 76
     1
 98
        0
  0
HATCH
  5
16F
330
E3
100
AcDbEntity
  8
Des_ Roofs
  6
Continuous
 62
   254
370
    13
100
AcDbHatch
 10
0.0
 20
0.0
 30
0.0
210
0.0
220
0.0
230
1.0
  2
SOLID
 70
     1
 71
     0
 91
        1
 92
        3
 72
     0
 73
     1
 93
        4
 10
97.38379791320102
 20
49.08147175260532
 10
70.46823025075196
 20
25.02832263831822
 10
86.66163910573958
 20
25.02832263831822
 10
89.6020540707785
 20
27.63210664721935
 97
        0
 75
     0
 76
     1
 98
        0
  0
HATCH
  5
170
330
E3
100
AcDbEntity
  8
Des_ Roofs
  6
Continuous
 62
   254
370
    13
100
AcDbHatch
 10
0.0
 20
0.0
 30
0.0
210
0.0
220
0.0
230
1.0
  2
SOLID
 70
     1
 71
     0
 91
        1
 92
        3
 72
     0
 73
     1
 93
        4
 10
63.10711195636382
 20
25.02832291087508
 10
70.46823025075196
 20
25.02832291087508
 10
97.38379791320102
 20
49.08147202516219
 10
100.9915813519301
 20
59.02585404399886
 97
        0
 75
     0
 76
     1
 98
        0
  0
HATCH
  5
171
330
E3
100
AcDbEntity
  8
Des_ Roofs
  6
Continuous
 62
   254
370
    13
100
AcDbHatch
 10
0.0
 20
0.0
 30
0.0
210
0.0
220
0.0
230
1.0
  2
SOLID
 70
     1
 71
     0
 91
        1
 92
        3
 72
     0
 73
     1
 93
        4
 10
104.1129687902774
 20
67.62954893504607
 10
56.81143309542966
 20
25.02832256559288
 10
63.10710792803942
 20
25.02832256559288
 10
100.9915813519301
 20
59.02585772704106
 97
        0
 75
     0
 76
     1
 98
        0
  0
HATCH
  5
172
330
E3
100
AcDbEntity
  8
Des_ Roofs
  6
Continuous
 62
   254
370
    13
100
AcDbHatch
 10
0.0
 20
0.0
 30
0.0
210
0.0
220
0.0
230
1.0
  2
SOLID
 70
     1
 71
     0
 91
        1
 92
        3
 72
     0
 73
     1
 93
        4
 10
110.6401514256926
 20
85.62086684549867
 10
43.8605111666602
 20
25.02832196341535
 10
56.81142906710527
 20
25.02832196341535
 10
104.1129687902774
 20
67.62955236119294
 97
        0
 75
     0
 76
     1
 98
        0
  0
HATCH
  5
173
330
E3
100
AcDbEntity
  8
Des_ Roofs
  6
Continuous
 62
   254
370
    13
100
AcDbHatch
 10
0.0
 20
0.0
 30
0.0
210
0.0
220
0.0
230
1.0
  2
SOLID
 70
     1
 71
     0
 91
        1
 92
        3
 72
     0
 73
     1
 93
        4
 10
36.9212349742728
 20
25.0283238630142
 10
43.8605111666602
 20
25.0283238630142
 10
110.6401473973682
 20
85.62086471677311
 10
114.1975969228199
 20
95.4265072152266
 97
        0
 75
     0
 76
     1
 98
        0
  0
HATCH
  5
174
330
E3
100
AcDbEntity
  8
Des_ Roofs
  6
Continuous
 62
   254
370
    13
100
AcDbHatch
 10
0.0
 20
0.0
 30
0.0
210
0.0
220
0.0
230
1.0
  2
SOLID
 70
     1
 71
     0
 91
        1
 92
        3
 72
     0
 73
     1
 93
        4
 10
31.56753948915252
 20
25.02832289814799
 10
36.92123900259719
 20
25.02832289814799
 10
114.1975969228199
 20
95.42650625036039
 10
116.9714769291711
 20
103.0723465127717
 97
        0
 75
     0
 76
     1
 98
        0
  0
HATCH
  5
175
330
E3
100
AcDbEntity
  8
Des_ Roofs
  6
Continuous
 62
   254
370
    13
100
AcDbHatch
 10
0.0
 20
0.0
 30
0.0
210
0.0
220
0.0
230
1.0
  2
SOLID
 70
     1
 71
     0
 91
        1
 92
        3
 72
     0
 73
     1
 93
        4
 10
122.4667720449929
 20
118.2194045671307
 10
21.10632345082851
 20
25.02832130167991
 10
31.56753948915252
 20
25.02832130167991
 10
116.9714729008467
 20
103.0723408879792
 97
        0
 75
     0
 76
     1
 98
        0
  0
HATCH
  5
176
330
E3
100
AcDbEntity
  8
Des_ Roofs
  6
Continuous
 62
   254
370
    13
100
AcDbHatch
 10
0.0
 20
0.0
 30
0.0
210
0.0
220
0.0
230
1.0
  2
SOLID
 70
     1
 71
     0
 91
        1
 92
        3
 72
     0
 73
     1
 93
        5
 10
18.36066588516726
 20
25.028323434027
 10
21.10632345082851
 20
25.028323434027
 10
122.4667680166685
 20
118.2194026711533
 10
125.9632891356919
 20
127.8570962690576
 10
18.36072631003314
 20
28.54681906260848
 97
        0
 75
     0
 76
     1
 98
        0
  0
HATCH
  5
177
330
E3
100
AcDbEntity
  8
Des_ Roofs
  6
Continuous
 62
   254
370
    13
100
AcDbHatch
 10
0.0
 20
0.0
 30
0.0
210
0.0
220
0.0
230
1.0
  2
SOLID
 70
     1
 71
     0
 91
        1
 92
        3
 72
     0
 73
     1
 93
        5
 10
124.095870574927
 20
130.6720762393963
 10
18.36057997010943
 20
32.82092521869352
 10
18.36072588756096
 20
28.54681545521306
 10
125.9632884463563
 20
127.8570944900551
 10
125.9687675664869
 20
127.8721977480327
 97
        0
 75
     0
 76
     1
 98
        0
  0
HATCH
  5
178
330
E3
100
AcDbEntity
  8
Des_ Roofs
  6
Continuous
 62
   254
370
    13
100
AcDbHatch
 10
0.0
 20
0.0
 30
0.0
210
0.0
220
0.0
230
1.0
  2
SOLID
 70
     1
 71
     0
 91
        1
 92
        3
 72
     0
 73
     1
 93
        5
 10
120.6109757428101
 20
135.8818000554278
 10
18.36001829683373
 20
40.77934267044672
 10
18.36034286805976
 20
31.02213761863926
 10
18.36058078191965
 20
32.82092553368418
 10
124.0958702118652
 20
130.6720773699775
 97
        0
 75
     0
 76
     1
 98
        0
  0
HATCH
  5
179
330
E3
100
AcDbEntity
  8
Des_ Roofs
  6
Continuous
 62
   254
370
    13
100
AcDbHatch
 10
0.0
 20
0.0
 30
0.0
210
0.0
220
0.0
230
1.0
  2
SOLID
 70
     1
 71
     0
 91
        1
 92
        3
 72
     0
 73
     1
 93
        4
 10
18.36010666908216
 20
46.63703363503343
 10
18.36001829683373
 20
40.77934314044079
 10
120.6109759961473
 20
135.8817995745655
 10
118.054700530005
 20
139.7032898561031
 97
        0
 75
     0
 76
     1
 98
        0
  0
HATCH
  5
17A
330
E3
100
AcDbEntity
  8
Des_ Roofs
  6
Continuous
 62
   254
370
    13
100
AcDbHatch
 10
0.0
 20
0.0
 30
0.0
210
0.0
220
0.0
230
1.0
  2
SOLID
 70
     1
 71
     0
 91
        1
 92
        3
 72
     0
 73
     1
 93
        4
 10
18.35997695248645
 20
50.43923523885218
 10
18.36010768252089
 20
46.63703389273315
 10
118.0547012348675
 20
139.7032893582284
 10
116.399213327979
 20
142.1781530107869
 97
        0
 75
     0
 76
     1
 98
        0
  0
HATCH
  5
17B
330
E3
100
AcDbEntity
  8
Des_ Roofs
  6
Continuous
 62
   254
370
    13
100
AcDbHatch
 10
0.0
 20
0.0
 30
0.0
210
0.0
220
0.0
230
1.0
  2
SOLID
 70
     1
 71
     0
 91
        1
 92
        3
 72
     0
 73
     1
 93
        5
 10
18.35947541884278
 20
57.09396717869018
 10
18.35976494026753
 20
48.3705623618611
 10
18.35997696353311
 20
50.43923534626073
 10
116.3992132820133
 20
142.1781520741545
 10
113.5088916542745
 20
146.4990239194193
 97
        0
 75
     0
 76
     1
 98
        0
  0
HATCH
  5
17C
330
E3
100
AcDbEntity
  8
Des_ Roofs
  6
Continuous
 62
   254
370
    13
100
AcDbHatch
 10
0.0
 20
0.0
 30
0.0
210
0.0
220
0.0
230
1.0
  2
SOLID
 70
     1
 71
     0
 91
        1
 92
        3
 72
     0
 73
     1
 93
        4
 10
18.35947541884278
 20
57.09396862246766
 10
113.5088901629315
 20
146.4990249889525
 10
111.0510465164932
 20
150.1733652342562
 10
18.35955623561558
 20
62.77021547468455
 97
        0
 75
     0
 76
     1
 98
        0
  0
HATCH
  5
17D
330
E3
100
AcDbEntity
  8
Des_ Roofs
  6
Continuous
 62
   254
370
    13
100
AcDbHatch
 10
0.0
 20
0.0
 30
0.0
210
0.0
220
0.0
230
1.0
  2
SOLID
 70
     1
 71
     0
 91
        1
 92
        3
 72
     0
 73
     1
 93
        4
 10
109.5800891515064
 20
152.3723649424601
 10
18.35943838328885
 20
66.17456076812026
 10
18.35955440525858
 20
62.77021650823431
 10
111.0510474515728
 20
150.1733646387411
 97
        0
 75
     0
 76
     1
 98
        0
  0
HATCH
  5
17E
330
E3
100
AcDbEntity
  8
Des_ Roofs
  6
Continuous
 62
   254
370
    13
100
AcDbHatch
 10
0.0
 20
0.0
 30
0.0
210
0.0
220
0.0
230
1.0
  2
SOLID
 70
     1
 71
     0
 91
        1
 92
        3
 72
     0
 73
     1
 93
        5
 10
18.35898782144596
 20
71.74729594423955
 10
18.35924847169007
 20
63.9016769540605
 10
18.35943915792127
 20
66.17456080107357
 10
109.5800899256753
 20
152.3723647582724
 10
107.1772746756636
 20
155.9644406459931
 97
        0
 75
     0
 76
     1
 98
        0
  0
HATCH
  5
17F
330
E3
100
AcDbEntity
  8
Des_ Roofs
  6
Continuous
 62
   254
370
    13
100
AcDbHatch
 10
0.0
 20
0.0
 30
0.0
210
0.0
220
0.0
230
1.0
  2
SOLID
 70
     1
 71
     0
 91
        1
 92
        3
 72
     0
 73
     1
 93
        4
 10
18.35898782144596
 20
71.74729630917084
 10
107.177275280645
 20
155.9644389220662
 10
104.8121598851181
 20
159.5001568680343
 10
18.35905796678064
 20
77.24764346509427
 97
        0
 75
     0
 76
     1
 98
        0
  0
HATCH
  5
180
330
E3
100
AcDbEntity
  8
Des_ Roofs
  6
Continuous
 62
   254
370
    13
100
AcDbHatch
 10
0.0
 20
0.0
 30
0.0
210
0.0
220
0.0
230
1.0
  2
SOLID
 70
     1
 71
     0
 91
        1
 92
        3
 72
     0
 73
     1
 93
        4
 10
103.4965150537345
 20
161.4669715067869
 10
18.35895445460037
 20
80.31345997634519
 10
18.35906009145991
 20
77.24764385016186
 10
104.8121603031096
 20
159.5001561783666
 97
        0
 75
     0
 76
     1
 98
        0
  0
HATCH
  5
181
330
E3
100
AcDbEntity
  8
Des_ Roofs
  6
Continuous
 62
   254
370
    13
100
AcDbHatch
 10
0.0
 20
0.0
 30
0.0
210
0.0
220
0.0
230
1.0
  2
SOLID
 70
     1
 71
     0
 91
        1
 92
        3
 72
     0
 73
     1
 93
        5
 10
101.4972041271009
 20
164.4558333350449
 10
18.35854746999052
 20
84.98078298862289
 10
18.35878482630412
 20
77.8868258345654
 10
18.35895510365956
 20
80.31345874663434
 10
103.4965156958792
 20
161.4669716849262
 97
        0
 75
     0
 76
     1
 98
        0
  0
HATCH
  5
182
330
E3
100
AcDbEntity
  8
Des_ Roofs
  6
Continuous
 62
   254
370
    13
100
AcDbHatch
 10
0.0
 20
0.0
 30
0.0
210
0.0
220
0.0
230
1.0
  2
SOLID
 70
     1
 71
     0
 91
        1
 92
        3
 72
     0
 73
     1
 93
        4
 10
18.35861131953323
 20
90.31176803771696
 10
18.35854746999052
 20
84.98078320830962
 10
101.4972033880645
 20
164.4558330172741
 10
99.21926173527395
 20
167.8612298953806
 97
        0
 75
     0
 76
     1
 98
        0
  0
HATCH
  5
183
330
E3
100
AcDbEntity
  8
Des_ Roofs
  6
Continuous
 62
   254
370
    13
100
AcDbHatch
 10
0.0
 20
0.0
 30
0.0
210
0.0
220
0.0
230
1.0
  2
SOLID
 70
     1
 71
     0
 91
        1
 92
        3
 72
     0
 73
     1
 93
        4
 10
18.35851725254681
 20
93.0871513906757
 10
18.3586133013387
 20
90.31176712203246
 10
99.21926093636053
 20
167.8612303070475
 10
98.03557003271145
 20
169.6307852240076
 97
        0
 75
     0
 76
     1
 98
        0
  0
HATCH
  5
184
330
E3
100
AcDbEntity
  8
Des_ Roofs
  6
Continuous
 62
   254
370
    13
100
AcDbHatch
 10
0.0
 20
0.0
 30
0.0
210
0.0
220
0.0
230
1.0
  2
SOLID
 70
     1
 71
     0
 91
        1
 92
        3
 72
     0
 73
     1
 93
        5
 10
18.35814781491649
 20
96.99126083573401
 10
18.35836025906967
 20
90.54589211439085
 10
18.35851679686679
 20
93.08715067237927
 10
98.0355686712524
 20
169.6307854622141
 10
96.37302864798704
 20
172.116191973127
 97
        0
 75
     0
 76
     1
 98
        0
  0
HATCH
  5
185
330
E3
100
AcDbEntity
  8
Des_ Roofs
  6
Continuous
 62
   254
370
    13
100
AcDbHatch
 10
0.0
 20
0.0
 30
0.0
210
0.0
220
0.0
230
1.0
  2
SOLID
 70
     1
 71
     0
 91
        1
 92
        3
 72
     0
 73
     1
 93
        4
 10
18.35820786615311
 20
102.1599095904202
 10
18.35814781491649
 20
96.99125911847683
 10
96.37302880924008
 20
172.1161908637282
 10
94.17695958926261
 20
175.3991919706806
 97
        0
 75
     0
 76
     1
 98
        0
  0
HATCH
  5
186
330
E3
100
AcDbEntity
  8
Des_ Roofs
  6
Continuous
 62
   254
370
    13
100
AcDbHatch
 10
0.0
 20
0.0
 30
0.0
210
0.0
220
0.0
230
1.0
  2
SOLID
 70
     1
 71
     0
 91
        1
 92
        3
 72
     0
 73
     1
 93
        4
 10
18.35812032114623
 20
104.6842591537916
 10
18.35820577686268
 20
102.1599101080498
 10
94.17696002552341
 20
175.3991921010691
 10
93.10631953633745
 20
176.9997392152106
 97
        0
 75
     0
 76
     1
 98
        0
  0
HATCH
  5
187
330
E3
100
AcDbEntity
  8
Des_ Roofs
  6
Continuous
 62
   254
370
    13
100
AcDbHatch
 10
0.0
 20
0.0
 30
0.0
210
0.0
220
0.0
230
1.0
  2
SOLID
 70
     1
 71
     0
 91
        1
 92
        3
 72
     0
 73
     1
 93
        5
 10
18.3577834637893
 20
107.9407779816258
 10
18.35798021954785
 20
102.0589499296047
 10
18.35812137041812
 20
104.6842591643137
 10
93.10631983459899
 20
176.9997394887729
 10
91.72695075743465
 20
179.0618211069884
 97
        0
 75
     0
 76
     1
 98
        0
  0
HATCH
  5
188
330
E3
100
AcDbEntity
  8
Des_ Roofs
  6
Continuous
 62
   254
370
    13
100
AcDbHatch
 10
0.0
 20
0.0
 30
0.0
210
0.0
220
0.0
230
1.0
  2
SOLID
 70
     1
 71
     0
 91
        1
 92
        3
 72
     0
 73
     1
 93
        4
 10
18.3577834637893
 20
107.9407775802508
 10
91.72694995767415
 20
179.0618218160919
 10
89.6077622734991
 20
182.2298896828072
 10
18.35783698859814
 20
112.9542925394657
 97
        0
 75
     0
 76
     1
 98
        0
  0
HATCH
  5
189
330
E3
100
AcDbEntity
  8
Des_ Roofs
  6
Continuous
 62
   254
370
    13
100
AcDbHatch
 10
0.0
 20
0.0
 30
0.0
210
0.0
220
0.0
230
1.0
  2
SOLID
 70
     1
 71
     0
 91
        1
 92
        3
 72
     0
 73
     1
 93
        4
 10
88.63471976801874
 20
183.6845338222287
 10
18.35775834137601
 20
115.2601880863513
 10
18.35783667297908
 20
112.9542926768279
 10
89.60776252194151
 20
182.2298894213831
 97
        0
 75
     0
 76
     1
 98
        0
  0
HATCH
  5
18A
330
E3
100
AcDbEntity
  8
Des_ Roofs
  6
Continuous
 62
   254
370
    13
100
AcDbHatch
 10
0.0
 20
0.0
 30
0.0
210
0.0
220
0.0
230
1.0
  2
SOLID
 70
     1
 71
     0
 91
        1
 92
        3
 72
     0
 73
     1
 93
        6
 10
18.35744993656577
 20
117.9639718321163
 10
18.35762887496809
 20
112.5748776240421
 10
18.35783700190413
 20
112.9542930284329
 10
18.35775831976977
 20
115.2601884607593
 10
88.63471935823964
 20
183.6845342285189
 10
87.49504036878197
 20
185.388293053564
 97
        0
 75
     0
 76
     1
 98
        0
  0
HATCH
  5
18B
330
E3
100
AcDbEntity
  8
Des_ Roofs
  6
Continuous
 62
   254
370
    13
100
AcDbHatch
 10
0.0
 20
0.0
 30
0.0
210
0.0
220
0.0
230
1.0
  2
SOLID
 70
     1
 71
     0
 91
        1
 92
        3
 72
     0
 73
     1
 93
        4
 10
18.35749867568426
 20
122.8295117010961
 10
18.35744993656577
 20
117.9639722814854
 10
87.49504023560561
 20
185.3882934086213
 10
85.4480697732565
 20
188.4484003607785
 97
        0
 75
     0
 76
     1
 98
        0
  0
HATCH
  5
18C
330
E3
100
AcDbEntity
  8
Des_ Roofs
  6
Continuous
 62
   254
370
    13
100
AcDbHatch
 10
0.0
 20
0.0
 30
0.0
210
0.0
220
0.0
230
1.0
  2
SOLID
 70
     1
 71
     0
 91
        1
 92
        3
 72
     0
 73
     1
 93
        4
 10
18.35742689143863
 20
124.9441294692415
 10
18.35749879288692
 20
122.8295112985917
 10
85.44806912223305
 20
188.4483993602374
 10
84.55986254232273
 20
189.7762205254018
 97
        0
 75
     0
 76
     1
 98
        0
  0
HATCH
  5
18D
330
E3
100
AcDbEntity
  8
Des_ Roofs
  6
Continuous
 62
   254
370
    13
100
AcDbHatch
 10
0.0
 20
0.0
 30
0.0
210
0.0
220
0.0
230
1.0
  2
SOLID
 70
     1
 71
     0
 91
        1
 92
        3
 72
     0
 73
     1
 93
        6
 10
18.35714348046127
 20
127.17362342377
 10
18.35730922965032
 20
122.2178400778141
 10
18.35749915059606
 20
122.8295121370915
 10
18.35742778636187
 20
124.9441287802199
 10
84.55986271821182
 20
189.776220781505
 10
83.62427991044065
 20
191.1748665371306
 97
        0
 75
     0
 76
     1
 98
        0
  0
HATCH
  5
18E
330
E3
100
AcDbEntity
  8
Des_ Roofs
  6
Continuous
 62
   254
370
    13
100
AcDbHatch
 10
0.0
 20
0.0
 30
0.0
210
0.0
220
0.0
230
1.0
  2
SOLID
 70
     1
 71
     0
 91
        1
 92
        3
 72
     0
 73
     1
 93
        4
 10
18.35718851817911
 20
131.8981749642273
 10
18.35714348046127
 20
127.1736229283629
 10
83.62427928954351
 20
191.1748664455925
 10
81.64519007257789
 20
194.133494927563
 97
        0
 75
     0
 76
     1
 98
        0
  0
HATCH
  5
18F
330
E3
100
AcDbEntity
  8
Des_ Roofs
  6
Continuous
 62
   254
370
    13
100
AcDbHatch
 10
0.0
 20
0.0
 30
0.0
210
0.0
220
0.0
230
1.0
  2
SOLID
 70
     1
 71
     0
 91
        1
 92
        3
 72
     0
 73
     1
 93
        4
 10
80.83118857914103
 20
195.3503839615246
 10
18.35712226523556
 20
133.8443652551395
 10
18.35718811494558
 20
131.8981740822852
 10
81.64518976957189
 20
194.1334952884474
 97
        0
 75
     0
 76
     1
 98
        0
  0
HATCH
  5
190
330
E3
100
AcDbEntity
  8
Des_ Roofs
  6
Continuous
 62
   254
370
    13
100
AcDbHatch
 10
0.0
 20
0.0
 30
0.0
210
0.0
220
0.0
230
1.0
  2
SOLID
 70
     1
 71
     0
 91
        1
 92
        3
 72
     0
 73
     1
 93
        7
 10
18.35686092812791
 20
135.6649157637531
 10
18.35701369571352
 20
131.0922082143333
 10
18.35718918905566
 20
131.8981746447769
 10
18.35712227432809
 20
133.844364245497
 10
80.831189047151
 20
195.3503819671817
 10
80.38434764689991
 20
196.0183841173251
 10
80.07033071834603
 20
196.4878237573666
 97
        0
 75
     0
 76
     1
 98
        0
  0
HATCH
  5
191
330
E3
100
AcDbEntity
  8
Des_ Roofs
  6
Continuous
 62
   254
370
    13
100
AcDbHatch
 10
0.0
 20
0.0
 30
0.0
210
0.0
220
0.0
230
1.0
  2
SOLID
 70
     1
 71
     0
 91
        1
 92
        3
 72
     0
 73
     1
 93
        8
 10
18.35686092812791
 20
135.6649149532451
 10
80.07033058279431
 20
196.4878221145703
 10
79.23239418746147
 20
197.7404901697882
 10
79.65436263449139
 20
197.7404958538729
 10
79.88623729022596
 20
197.7405422738977
 10
81.34128433842729
 20
197.7404352236363
 10
76.52560369515012
 20
197.740627535168
 10
18.35690261141557
 20
140.2552169022293
 97
        0
 75
     0
 76
     1
 98
        0
  0
HATCH
  5
192
330
E3
100
AcDbEntity
  8
Des_ Roofs
  6
Continuous
 62
   254
370
    13
100
AcDbHatch
 10
0.0
 20
0.0
 30
0.0
210
0.0
220
0.0
230
1.0
  2
SOLID
 70
     1
 71
     0
 91
        1
 92
        3
 72
     0
 73
     1
 93
        4
 10
18.35690284255051
 20
140.2552169434884
 10
76.52560380848675
 20
197.7406277157334
 10
74.64726388488388
 20
197.7406757098958
 10
18.3568413331964
 20
142.052329982974
 97
        0
 75
     0
 76
     1
 98
        0
  0
HATCH
  5
193
330
E3
100
AcDbEntity
  8
Des_ Roofs
  6
Continuous
 62
   254
370
    13
100
AcDbHatch
 10
0.0
 20
0.0
 30
0.0
210
0.0
220
0.0
230
1.0
  2
SOLID
 70
     1
 71
     0
 91
        1
 92
        3
 72
     0
 73
     1
 93
        8
 10
18.35659958778249
 20
143.5187416421413
 10
18.35674037012985
 20
139.2863503134651
 10
18.35690273910379
 20
140.2552172435975
 10
18.35684079487096
 20
142.0523301869338
 10
74.64726394610229
 20
197.7406751045332
 10
76.52560361111654
 20
197.7406281770841
 10
77.53974802125566
 20
197.74063193128
 10
73.11746195407753
 20
197.7408477975459
 97
        0
 75
     0
 76
     1
 98
        0
  0
HATCH
  5
194
330
E3
100
AcDbEntity
  8
Des_ Roofs
  6
Continuous
 62
   254
370
    13
100
AcDbHatch
 10
0.0
 20
0.0
 30
0.0
210
0.0
220
0.0
230
1.0
  2
SOLID
 70
     1
 71
     0
 91
        1
 92
        3
 72
     0
 73
     1
 93
        4
 10
18.35659958778249
 20
143.5187421193296
 10
73.11746251595599
 20
197.740848004574
 10
68.47857350767227
 20
197.7408333283998
 10
18.35663840585755
 20
147.9812390193299
 97
        0
 75
     0
 76
     1
 98
        0
  0
HATCH
  5
195
330
E3
100
AcDbEntity
  8
Des_ Roofs
  6
Continuous
 62
   254
370
    13
100
AcDbHatch
 10
0.0
 20
0.0
 30
0.0
210
0.0
220
0.0
230
1.0
  2
SOLID
 70
     1
 71
     0
 91
        1
 92
        3
 72
     0
 73
     1
 93
        4
 10
18.35663840585755
 20
147.9812390193299
 10
68.47857350767227
 20
197.7408333283998
 10
66.75446204650171
 20
197.7408773818135
 10
18.35658143437027
 20
149.6457696350131
 97
        0
 75
     0
 76
     1
 98
        0
  0
HATCH
  5
196
330
E3
100
AcDbEntity
  8
Des_ Roofs
  6
Continuous
 62
   254
370
    13
100
AcDbHatch
 10
0.0
 20
0.0
 30
0.0
210
0.0
220
0.0
230
1.0
  2
SOLID
 70
     1
 71
     0
 91
        1
 92
        3
 72
     0
 73
     1
 93
        8
 10
18.35635715717821
 20
150.8042919714141
 10
18.35648771795201
 20
146.8755893587322
 10
18.35663867884671
 20
147.9812391917109
 10
18.35658155850817
 20
149.6457699210717
 10
66.75446161964577
 20
197.7408770997313
 10
68.47857375813432
 20
197.7408330354701
 10
69.62550853980117
 20
197.7408362994895
 10
65.55640168696976
 20
197.7410362206744
 97
        0
 75
     0
 76
     1
 98
        0
  0
HATCH
  5
197
330
E3
100
AcDbEntity
  8
Des_ Roofs
  6
Continuous
 62
   254
370
    13
100
AcDbHatch
 10
0.0
 20
0.0
 30
0.0
210
0.0
220
0.0
230
1.0
  2
SOLID
 70
     1
 71
     0
 91
        1
 92
        3
 72
     0
 73
     1
 93
        4
 10
18.35635715717821
 20
150.8042917679762
 10
65.55640195694593
 20
197.7410358309041
 10
61.08220723538296
 20
197.7410223157074
 10
18.35639320975593
 20
155.1451105524997
 97
        0
 75
     0
 76
     1
 98
        0
  0
HATCH
  5
198
330
E3
100
AcDbEntity
  8
Des_ Roofs
  6
Continuous
 62
   254
370
    13
100
AcDbHatch
 10
0.0
 20
0.0
 30
0.0
210
0.0
220
0.0
230
1.0
  2
SOLID
 70
     1
 71
     0
 91
        1
 92
        3
 72
     0
 73
     1
 93
        4
 10
18.35639320975593
 20
155.1451105524997
 10
61.08220723538296
 20
197.7410223157074
 10
59.49408026437131
 20
197.7410628945308
 10
18.35634029187466
 20
156.6912073195953
 97
        0
 75
     0
 76
     1
 98
        0
  0
HATCH
  5
199
330
E3
100
AcDbEntity
  8
Des_ Roofs
  6
Continuous
 62
   254
370
    13
100
AcDbHatch
 10
0.0
 20
0.0
 30
0.0
210
0.0
220
0.0
230
1.0
  2
SOLID
 70
     1
 71
     0
 91
        1
 92
        3
 72
     0
 73
     1
 93
        8
 10
18.35613165560374
 20
157.5810888914522
 10
18.35625333333843
 20
153.9245238558775
 10
18.35639329790031
 20
155.1451104896017
 10
18.35633984409779
 20
156.6912075705006
 10
59.49408031479319
 20
197.7410629564495
 10
61.08220755794602
 20
197.7410221627581
 10
62.3378605894663
 20
197.7410256794557
 10
58.58125324576817
 20
197.741209251067
 97
        0
 75
     0
 76
     1
 98
        0
  0
HATCH
  5
19A
330
E3
100
AcDbEntity
  8
Des_ Roofs
  6
Continuous
 62
   254
370
    13
100
AcDbHatch
 10
0.0
 20
0.0
 30
0.0
210
0.0
220
0.0
230
1.0
  2
SOLID
 70
     1
 71
     0
 91
        1
 92
        3
 72
     0
 73
     1
 93
        4
 10
18.35613165560374
 20
157.5810884793702
 10
58.5812526410142
 20
197.741209102456
 10
54.26065477239408
 20
197.7411966157335
 10
18.35616522802208
 20
161.8060315037805
 97
        0
 75
     0
 76
     1
 98
        0
  0
HATCH
  5
19B
330
E3
100
AcDbEntity
  8
Des_ Roofs
  6
Continuous
 62
   254
370
    13
100
AcDbHatch
 10
0.0
 20
0.0
 30
0.0
210
0.0
220
0.0
230
1.0
  2
SOLID
 70
     1
 71
     0
 91
        1
 92
        3
 72
     0
 73
     1
 93
        4
 10
18.35616522802208
 20
161.8060315037805
 10
54.26065477239408
 20
197.7411966157335
 10
52.7930363330968
 20
197.7412341153985
 10
18.35611594601891
 20
163.2458991706226
 97
        0
 75
     0
 76
     1
 98
        0
  0
HATCH
  5
19C
330
E3
100
AcDbEntity
  8
Des_ Roofs
  6
Continuous
 62
   254
370
    13
100
AcDbHatch
 10
0.0
 20
0.0
 30
0.0
210
0.0
220
0.0
230
1.0
  2
SOLID
 70
     1
 71
     0
 91
        1
 92
        3
 72
     0
 73
     1
 93
        8
 10
18.35592136964081
 20
163.9006237992594
 10
18.35603525653706
 20
160.4888690936145
 10
18.35616532736065
 20
161.8060315883634
 10
18.35611617617383
 20
163.2458988221317
 10
52.79303625571459
 20
197.7412338883665
 10
54.26065472906989
 20
197.741196725274
 10
55.60522620331258
 20
197.741200921107
 10
52.12645085745181
 20
197.7413693538325
 97
        0
 75
     0
 76
     1
 98
        0
  0
HATCH
  5
19D
330
E3
100
AcDbEntity
  8
Des_ Roofs
  6
Continuous
 62
   254
370
    13
100
AcDbHatch
 10
0.0
 20
0.0
 30
0.0
210
0.0
220
0.0
230
1.0
  2
SOLID
 70
     1
 71
     0
 91
        1
 92
        3
 72
     0
 73
     1
 93
        4
 10
18.35592136964081
 20
163.9006240480876
 10
52.12645091698945
 20
197.7413694479144
 10
47.94941442642145
 20
197.7413578765847
 10
18.35595270929319
 20
168.0151712844936
 97
        0
 75
     0
 76
     1
 98
        0
  0
HATCH
  5
19E
330
E3
100
AcDbEntity
  8
Des_ Roofs
  6
Continuous
 62
   254
370
    13
100
AcDbHatch
 10
0.0
 20
0.0
 30
0.0
210
0.0
220
0.0
230
1.0
  2
SOLID
 70
     1
 71
     0
 91
        1
 92
        3
 72
     0
 73
     1
 93
        4
 10
18.35595270929319
 20
168.0151712844936
 10
47.94941442642145
 20
197.7413578765847
 10
46.58909085067678
 20
197.7413926347186
 10
18.35590670092493
 20
169.3593934797013
 97
        0
 75
     0
 76
     1
 98
        0
  0
HATCH
  5
19F
330
E3
100
AcDbEntity
  8
Des_ Roofs
  6
Continuous
 62
   254
370
    13
100
AcDbHatch
 10
0.0
 20
0.0
 30
0.0
210
0.0
220
0.0
230
1.0
  2
SOLID
 70
     1
 71
     0
 91
        1
 92
        3
 72
     0
 73
     1
 93
        8
 10
18.35572480954978
 20
169.807668094796
 10
18.35583121032999
 20
166.6169361216109
 10
18.35595273918322
 20
168.0151714664826
 10
18.35590685069507
 20
169.3593935394584
 10
46.58909115567381
 20
197.7413926986945
 10
47.94941454102955
 20
197.7413579041265
 10
49.3665256868723
 20
197.7413619382793
 10
46.13586316496171
 20
197.7415182617005
 97
        0
 75
     0
 76
     1
 98
        0
  0
HATCH
  5
1A0
330
E3
100
AcDbEntity
  8
Des_ Roofs
  6
Continuous
 62
   254
370
    13
100
AcDbHatch
 10
0.0
 20
0.0
 30
0.0
210
0.0
220
0.0
230
1.0
  2
SOLID
 70
     1
 71
     0
 91
        1
 92
        3
 72
     0
 73
     1
 93
        4
 10
18.35572480954978
 20
169.8076682813419
 10
46.13586350397741
 20
197.7415182617005
 10
42.09328713366625
 20
197.7415075086729
 10
18.3557541319889
 20
173.816985785075
 97
        0
 75
     0
 76
     1
 98
        0
  0
HATCH
  5
1A1
330
E3
100
AcDbEntity
  8
Des_ Roofs
  6
Continuous
 62
   254
370
    13
100
AcDbHatch
 10
0.0
 20
0.0
 30
0.0
210
0.0
220
0.0
230
1.0
  2
SOLID
 70
     1
 71
     0
 91
        1
 92
        3
 72
     0
 73
     1
 93
        4
 10
18.3557541319889
 20
173.816985785075
 10
42.09328713366625
 20
197.7415075086729
 10
40.82890827739297
 20
197.7415398152877
 10
18.35571108158118
 20
175.0747855061823
 97
        0
 75
     0
 76
     1
 98
        0
  0
HATCH
  5
1A2
330
E3
100
AcDbEntity
  8
Des_ Roofs
  6
Continuous
 62
   254
370
    13
100
AcDbHatch
 10
0.0
 20
0.0
 30
0.0
210
0.0
220
0.0
230
1.0
  2
SOLID
 70
     1
 71
     0
 91
        1
 92
        3
 72
     0
 73
     1
 93
        8
 10
18.35554067392314
 20
175.3413309232267
 10
18.35564015749672
 20
172.3508189039482
 10
18.35575420979449
 20
173.8169857501727
 10
18.35571091987123
 20
175.0747852921551
 10
40.82890825079902
 20
197.7415397785885
 10
42.09328702861414
 20
197.7415073111461
 10
43.56932897232665
 20
197.7415110573894
 10
40.56115091812623
 20
197.7416567446311
 97
        0
 75
     0
 76
     1
 98
        0
  0
HATCH
  5
1A3
330
E3
100
AcDbEntity
  8
Des_ Roofs
  6
Continuous
 62
   254
370
    13
100
AcDbHatch
 10
0.0
 20
0.0
 30
0.0
210
0.0
220
0.0
230
1.0
  2
SOLID
 70
     1
 71
     0
 91
        1
 92
        3
 72
     0
 73
     1
 93
        5
 10
18.35556804479987
 20
179.2502832984117
 10
18.35554067392314
 20
175.3413312325511
 10
40.56115077035205
 20
197.7416567446311
 10
37.06585409686031
 20
197.7416360495779
 10
36.22192284791787
 20
197.3141376694096
 97
        0
 75
     0
 76
     1
 98
        0
  0
HATCH
  5
1A4
330
E3
100
AcDbEntity
  8
Des_ Roofs
  6
Continuous
 62
   254
370
    13
100
AcDbHatch
 10
0.0
 20
0.0
 30
0.0
210
0.0
220
0.0
230
1.0
  2
SOLID
 70
     1
 71
     0
 91
        1
 92
        3
 72
     0
 73
     1
 93
        4
 10
33.86277505442995
 20
196.1190978971447
 10
18.35552792437064
 20
180.4297349773795
 10
18.35556815372111
 20
179.2502834404987
 10
36.22192281081627
 20
197.3141377562472
 97
        0
 75
     0
 76
     1
 98
        0
  0
HATCH
  5
1A5
330
E3
100
AcDbEntity
  8
Des_ Roofs
  6
Continuous
 62
   254
370
    13
100
AcDbHatch
 10
0.0
 20
0.0
 30
0.0
210
0.0
220
0.0
230
1.0
  2
SOLID
 70
     1
 71
     0
 91
        1
 92
        3
 72
     0
 73
     1
 93
        6
 10
18.35536792862644
 20
180.5359303470059
 10
18.35546139069574
 20
177.7273661241667
 10
18.35556820448925
 20
179.2502834787853
 10
18.35552781552358
 20
180.4297347383358
 10
33.86277538481058
 20
196.1190981565747
 10
33.65036213712555
 20
196.0114989478994
 97
        0
 75
     0
 76
     1
 98
        0
  0
HATCH
  5
1A6
330
E3
100
AcDbEntity
  8
Des_ Roofs
  6
Continuous
 62
   254
370
    13
100
AcDbHatch
 10
0.0
 20
0.0
 30
0.0
210
0.0
220
0.0
230
1.0
  2
SOLID
 70
     1
 71
     0
 91
        1
 92
        3
 72
     0
 73
     1
 93
        4
 10
18.35536795258574
 20
180.5359301762587
 10
33.65036246787844
 20
196.0114990648997
 10
26.06929648640091
 20
192.1712666821455
 10
18.35539377729775
 20
184.3490945335558
 97
        0
 75
     0
 76
     1
 98
        0
  0
HATCH
  5
1A7
330
E3
100
AcDbEntity
  8
Des_ Roofs
  6
Continuous
 62
   254
370
    13
100
AcDbHatch
 10
0.0
 20
0.0
 30
0.0
210
0.0
220
0.0
230
1.0
  2
SOLID
 70
     1
 71
     0
 91
        1
 92
        3
 72
     0
 73
     1
 93
        4
 10
18.35535570581509
 20
185.4572964291593
 10
18.35539377729775
 20
184.3490944071567
 10
26.06929622016677
 20
192.1712665557464
 10
23.87843175139578
 20
191.0614713886239
 97
        0
 75
     0
 76
     1
 98
        0
  0
HATCH
  5
1A8
330
E3
100
AcDbEntity
  8
Des_ Roofs
  6
Continuous
 62
   254
370
    13
100
AcDbHatch
 10
0.0
 20
0.0
 30
0.0
210
0.0
220
0.0
230
1.0
  2
SOLID
 70
     1
 71
     0
 91
        1
 92
        3
 72
     0
 73
     1
 93
        5
 10
18.35520524413706
 20
185.421702047751
 10
18.35535571774949
 20
185.457296441075
 10
23.87843238633269
 20
191.0614720006115
 10
18.35525952639513
 20
188.2636770094908
 10
18.35528866319541
 20
189.1434441343661
 97
        0
 75
     0
 76
     1
 98
        0
  0
HATCH
  5
1A9
330
E3
100
AcDbEntity
  8
Des_ Roofs
  6
Continuous
 62
     9
370
    18
100
AcDbHatch
 10
0.0
 20
0.0
 30
0.0
210
0.0
220
0.0
230
1.0
  2
SOLID
 70
     1
 71
     0
 91
        1
 92
        3
 72
     0
 73
     1
 93
        3
 10
18.35354227731603
 20
154.9413290922589
 10
18.35353819219745
 20
154.6467784250998
 10
18.35591164609629
 20
154.9419023705673
 97
        0
 75
     0
 76
     1
 98
        0
  0
HATCH
  5
1AA
330
E3
100
AcDbEntity
  8
Des_ Roofs
  6
Continuous
 62
   255
370
    18
100
AcDbHatch
 10
0.0
 20
0.0
 30
0.0
210
0.0
220
0.0
230
1.0
  2
SOLID
 70
     1
 71
     0
 91
        1
 92
        3
 72
     0
 73
     1
 93
        3
 10
18.35334146212752
 20
164.0235594580751
 10
18.35354163293828
 20
154.9413304539651
 10
18.35562368171129
 20
164.024080991548
 97
        0
 75
     0
 76
     1
 98
        0
  0
HATCH
  5
1AB
330
E3
100
AcDbEntity
  8
Des_ Roofs
  6
Continuous
 62
   255
370
    18
100
AcDbHatch
 10
0.0
 20
0.0
 30
0.0
210
0.0
220
0.0
230
1.0
  2
SOLID
 70
     1
 71
     0
 91
        1
 92
        3
 72
     0
 73
     1
 93
        7
 10
110.4876672624841
 20
25.02832150355212
 10
141.065199326734
 20
25.02832150355212
 10
163.9830296643399
 20
105.725246486388
 10
149.3730020515014
 20
135.8406209781225
 10
149.2329895806104
 20
135.9090299829466
 10
133.2884344932599
 20
85.79078110848793
 10
131.5147995184033
 20
88.75203056728202
 97
        0
 75
     0
 76
     1
 98
        0
  0
HATCH
  5
1AC
330
E3
100
AcDbEntity
  8
Des_ Roofs
  6
Continuous
 62
     9
370
    18
100
AcDbHatch
 10
0.0
 20
0.0
 30
0.0
210
0.0
220
0.0
230
1.0
  2
SOLID
 70
     1
 71
     0
 91
        1
 92
        3
 72
     0
 73
     1
 93
        4
 10
163.9830268937374
 20
105.7252464782076
 10
163.7834005614017
 20
105.022337194977
 10
281.8390177520735
 20
47.91366585580015
 10
281.8390177520735
 20
48.65011550832165
 97
        0
 75
     0
 76
     1
 98
        0
  0
HATCH
  5
1AD
330
E3
100
AcDbEntity
  8
Des_ Roofs
  6
Continuous
 62
   255
370
    18
100
AcDbHatch
 10
0.0
 20
0.0
 30
0.0
210
0.0
220
0.0
230
1.0
  2
SOLID
 70
     1
 71
     0
 91
        1
 92
        3
 72
     0
 73
     1
 93
        6
 10
199.5100011078831
 20
111.3442798525064
 10
149.373000150156
 20
135.8406228698481
 10
163.9830293743844
 20
105.7252491880785
 10
281.839017816023
 20
48.65011857413177
 10
281.839017816023
 20
71.6339550994895
 10
198.6425634828139
 20
113.3128014897276
 97
        0
 75
     0
 76
     1
 98
        0
  0
HATCH
  5
1AE
330
E3
100
AcDbEntity
  8
Des_ Roofs
  6
Continuous
 62
   255
370
    18
100
AcDbHatch
 10
0.0
 20
0.0
 30
0.0
210
0.0
220
0.0
230
1.0
  2
SOLID
 70
     1
 71
     0
 91
        1
 92
        3
 72
     0
 73
     1
 93
        3
 10
279.9079862905002
 20
48.84778730866741
 10
281.8390183155775
 20
45.30124472381174
 10
281.8390183155775
 20
47.91366371697218
 97
        0
 75
     0
 76
     1
 98
        0
  0
HATCH
  5
1AF
330
E3
100
AcDbEntity
  8
Des_ Roofs
  6
Continuous
 62
   255
370
    18
100
AcDbHatch
 10
0.0
 20
0.0
 30
0.0
210
0.0
220
0.0
230
1.0
  2
SOLID
 70
     1
 71
     0
 91
        1
 92
        3
 72
     0
 73
     1
 93
        4
 10
279.9079915895153
 20
48.84779126515709
 10
273.2895869197839
 20
52.04940028877648
 10
281.8390206193424
 20
36.25222262545217
 10
281.8390206193424
 20
45.30124908444017
 97
        0
 75
     0
 76
     1
 98
        0
  0
HATCH
  5
1B0
330
E3
100
AcDbEntity
  8
Des_ Roofs
  6
Continuous
 62
   253
370
    25
100
AcDbHatch
 10
0.0
 20
0.0
 30
0.0
210
0.0
220
0.0
230
1.0
  2
SOLID
 70
     1
 71
     0
 91
        1
 92
        3
 72
     0
 73
     1
 93
        4
 10
273.2895862012132
 20
52.04940108278483
 10
266.3692307224746
 20
55.39707901614778
 10
281.8390212278982
 20
26.62959223633064
 10
281.8390212278982
 20
36.2522194131223
 97
        0
 75
     0
 76
     1
 98
        0
  0
HATCH
  5
1B1
330
E3
100
AcDbEntity
  8
Des_ Roofs
  6
Continuous
 62
   255
370
    18
100
AcDbHatch
 10
0.0
 20
0.0
 30
0.0
210
0.0
220
0.0
230
1.0
  2
SOLID
 70
     1
 71
     0
 91
        1
 92
        3
 72
     0
 73
     1
 93
        5
 10
266.3692332430726
 20
55.39707842717414
 10
250.2069677589674
 20
63.21547688593315
 10
270.4324135089648
 20
25.02832363239975
 10
281.8390198253691
 20
25.02832363239975
 10
281.8390198253691
 20
26.62959829795759
 97
        0
 75
     0
 76
     1
 98
        0
  0
HATCH
  5
1B2
330
E3
100
AcDbEntity
  8
Des_ Roofs
  6
Continuous
 62
   254
370
    13
100
AcDbHatch
 10
0.0
 20
0.0
 30
0.0
210
0.0
220
0.0
230
1.0
  2
SOLID
 70
     1
 71
     0
 91
        1
 92
        3
 72
     0
 73
     1
 93
        4
 10
250.2069670618624
 20
63.2154747090314
 10
250.1075489808195
 20
63.2635678564945
 10
270.3565488427334
 20
25.02832298999597
 10
270.4324145005672
 20
25.02832298999597
 97
        0
 75
     0
 76
     1
 98
        0
  0
HATCH
  5
1B3
330
E3
100
AcDbEntity
  8
Des_ Roofs
  6
Continuous
 62
   255
370
    18
100
AcDbHatch
 10
0.0
 20
0.0
 30
0.0
210
0.0
220
0.0
230
1.0
  2
SOLID
 70
     1
 71
     0
 91
        1
 92
        3
 72
     0
 73
     1
 93
        4
 10
250.1075482314761
 20
63.263569395666
 10
243.1992884135315
 20
66.6053937037478
 10
265.0728167163266
 20
25.02832110164374
 10
270.3565494824355
 20
25.02832110164374
 97
        0
 75
     0
 76
     1
 98
        0
  0
HATCH
  5
1B4
330
E3
100
AcDbEntity
  8
Des_ Roofs
  6
Continuous
 62
   253
370
    25
100
AcDbHatch
 10
0.0
 20
0.0
 30
0.0
210
0.0
220
0.0
230
1.0
  2
SOLID
 70
     1
 71
     0
 91
        1
 92
        3
 72
     0
 73
     1
 93
        4
 10
243.1992882086894
 20
66.60539524768255
 10
236.6124395988953
 20
69.79174213132733
 10
260.0124976128984
 20
25.02832307469549
 10
265.0728148571341
 20
25.02832307469549
 97
        0
 75
     0
 76
     1
 98
        0
  0
HATCH
  5
1B5
330
E3
100
AcDbEntity
  8
Des_ Roofs
  6
Continuous
 62
   255
370
    18
100
AcDbHatch
 10
0.0
 20
0.0
 30
0.0
210
0.0
220
0.0
230
1.0
  2
SOLID
 70
     1
 71
     0
 91
        1
 92
        3
 72
     0
 73
     1
 93
        4
 10
236.6124414723882
 20
69.79174151234248
 10
219.7478734904576
 20
77.94987184432698
 10
246.95564774765
 20
25.02832411048265
 10
260.0124944663058
 20
25.02832411048265
 97
        0
 75
     0
 76
     1
 98
        0
  0
HATCH
  5
1B6
330
E3
100
AcDbEntity
  8
Des_ Roofs
  6
Continuous
 62
   254
370
    13
100
AcDbHatch
 10
0.0
 20
0.0
 30
0.0
210
0.0
220
0.0
230
1.0
  2
SOLID
 70
     1
 71
     0
 91
        1
 92
        3
 72
     0
 73
     1
 93
        4
 10
219.7478734904576
 20
77.94987111970347
 10
218.9906733828269
 20
78.3161626283392
 10
246.3659856514806
 20
25.02832338585915
 10
246.95564774765
 20
25.02832338585915
 97
        0
 75
     0
 76
     1
 98
        0
  0
HATCH
  5
1B7
330
E3
100
AcDbEntity
  8
Des_ Roofs
  6
Continuous
 62
   255
370
    18
100
AcDbHatch
 10
0.0
 20
0.0
 30
0.0
210
0.0
220
0.0
230
1.0
  2
SOLID
 70
     1
 71
     0
 91
        1
 92
        3
 72
     0
 73
     1
 93
        4
 10
218.9906733828269
 20
78.31616180710427
 10
211.7730923431728
 20
81.80762335069137
 10
240.7304524786018
 20
25.02832256462422
 10
246.3659856514806
 20
25.02832256462422
 97
        0
 75
     0
 76
     1
 98
        0
  0
HATCH
  5
1B8
330
E3
100
AcDbEntity
  8
Des_ Roofs
  6
Continuous
 62
   253
370
    25
100
AcDbHatch
 10
0.0
 20
0.0
 30
0.0
210
0.0
220
0.0
230
1.0
  2
SOLID
 70
     1
 71
     0
 91
        1
 92
        3
 72
     0
 73
     1
 93
        4
 10
211.7730923431728
 20
81.80762388247285
 10
205.5561470824793
 20
84.81502988214991
 10
235.8545041813938
 20
25.02832309640569
 10
240.7304524786018
 20
25.02832309640569
 97
        0
 75
     0
 76
     1
 98
        0
  0
HATCH
  5
1B9
330
E3
100
AcDbEntity
  8
Des_ Roofs
  6
Continuous
 62
   255
370
    18
100
AcDbHatch
 10
0.0
 20
0.0
 30
0.0
210
0.0
220
0.0
230
1.0
  2
SOLID
 70
     1
 71
     0
 91
        1
 92
        3
 72
     0
 73
     1
 93
        4
 10
205.5561470824793
 20
84.81503001087388
 10
187.9424920382434
 20
93.33552826353633
 10
221.9298315106555
 20
25.02832322512967
 10
235.8545082097182
 20
25.02832322512967
 97
        0
 75
     0
 76
     1
 98
        0
  0
HATCH
  5
1BA
330
E3
100
AcDbEntity
  8
Des_ Roofs
  6
Continuous
 62
   254
370
    13
100
AcDbHatch
 10
0.0
 20
0.0
 30
0.0
210
0.0
220
0.0
230
1.0
  2
SOLID
 70
     1
 71
     0
 91
        1
 92
        3
 72
     0
 73
     1
 93
        4
 10
187.9424920382434
 20
93.33552837271841
 10
186.4681655940332
 20
94.04872306469143
 10
220.756831787612
 20
25.02832333431175
 10
221.9298315106555
 20
25.02832333431175
 97
        0
 75
     0
 76
     1
 98
        0
  0
HATCH
  5
1BB
330
E3
100
AcDbEntity
  8
Des_ Roofs
  6
Continuous
 62
   255
370
    18
100
AcDbHatch
 10
0.0
 20
0.0
 30
0.0
210
0.0
220
0.0
230
1.0
  2
SOLID
 70
     1
 71
     0
 91
        1
 92
        3
 72
     0
 73
     1
 93
        4
 10
186.4681655940332
 20
94.04872261028301
 10
178.9200041414779
 20
97.70010057558177
 10
214.7331574745956
 20
25.02832287990332
 10
220.7568277592877
 20
25.02832287990332
 97
        0
 75
     0
 76
     1
 98
        0
  0
HATCH
  5
1BC
330
E3
100
AcDbEntity
  8
Des_ Roofs
  6
Continuous
 62
   253
370
    25
100
AcDbHatch
 10
0.0
 20
0.0
 30
0.0
210
0.0
220
0.0
230
1.0
  2
SOLID
 70
     1
 71
     0
 91
        1
 92
        3
 72
     0
 73
     1
 93
        4
 10
178.9200081698023
 20
97.70010100439022
 10
173.1133276068071
 20
100.509043546249
 10
210.078408498074
 20
25.02832330871177
 10
214.73316150292
 20
25.02832330871177
 97
        0
 75
     0
 76
     1
 98
        0
  0
HATCH
  5
1BD
330
E3
100
AcDbEntity
  8
Des_ Roofs
  6
Continuous
 62
   255
370
    18
100
AcDbHatch
 10
0.0
 20
0.0
 30
0.0
210
0.0
220
0.0
230
1.0
  2
SOLID
 70
     1
 71
     0
 91
        1
 92
        3
 72
     0
 73
     1
 93
        5
 10
163.7834020207724
 20
105.0223347794855
 10
161.1901843067513
 20
95.89125937041062
 10
195.1964206488861
 20
25.02832420477442
 10
210.078408498074
 20
25.02832420477442
 10
173.1133276068071
 20
100.5090444423117
 97
        0
 75
     0
 76
     1
 98
        0
  0
HATCH
  5
1BE
330
E3
100
AcDbEntity
  8
Des_ Roofs
  6
Continuous
 62
   254
370
    13
100
AcDbHatch
 10
0.0
 20
0.0
 30
0.0
210
0.0
220
0.0
230
1.0
  2
SOLID
 70
     1
 71
     0
 91
        1
 92
        3
 72
     0
 73
     1
 93
        4
 10
161.1901883350757
 20
95.8912565603981
 10
160.5382402871579
 20
93.59565548077882
 10
193.3595570943734
 20
25.0283213947619
 10
195.1964246772105
 20
25.0283213947619
 97
        0
 75
     0
 76
     1
 98
        0
  0
HATCH
  5
1BF
330
E3
100
AcDbEntity
  8
Des_ Roofs
  6
Continuous
 62
   255
370
    18
100
AcDbHatch
 10
0.0
 20
0.0
 30
0.0
210
0.0
220
0.0
230
1.0
  2
SOLID
 70
     1
 71
     0
 91
        1
 92
        3
 72
     0
 73
     1
 93
        4
 10
160.5382362588335
 20
93.59565776689024
 10
158.2312390495094
 20
85.47238855419371
 10
186.9062257300359
 20
25.02832368087333
 10
193.3595570943734
 20
25.02832368087333
 97
        0
 75
     0
 76
     1
 98
        0
  0
HATCH
  5
1C0
330
E3
100
AcDbEntity
  8
Des_ Roofs
  6
Continuous
 62
   253
370
    25
100
AcDbHatch
 10
0.0
 20
0.0
 30
0.0
210
0.0
220
0.0
230
1.0
  2
SOLID
 70
     1
 71
     0
 91
        1
 92
        3
 72
     0
 73
     1
 93
        4
 10
158.2312390495094
 20
85.47238872936379
 10
156.6468869811818
 20
79.89364687376278
 10
182.5160007030362
 20
25.02832385604339
 10
186.9062257300359
 20
25.02832385604339
 97
        0
 75
     0
 76
     1
 98
        0
  0
HATCH
  5
1C1
330
E3
100
AcDbEntity
  8
Des_ Roofs
  6
Continuous
 62
   255
370
    18
100
AcDbHatch
 10
0.0
 20
0.0
 30
0.0
210
0.0
220
0.0
230
1.0
  2
SOLID
 70
     1
 71
     0
 91
        1
 92
        3
 72
     0
 73
     1
 93
        4
 10
156.6468869811818
 20
79.89364798850238
 10
150.7900336378849
 20
59.27084268012768
 10
166.5744749156285
 20
25.02832094245861
 10
182.5160007030362
 20
25.02832094245861
 97
        0
 75
     0
 76
     1
 98
        0
  0
HATCH
  5
1C2
330
E3
100
AcDbEntity
  8
Des_ Roofs
  6
Continuous
 62
   254
370
    13
100
AcDbHatch
 10
0.0
 20
0.0
 30
0.0
210
0.0
220
0.0
230
1.0
  2
SOLID
 70
     1
 71
     0
 91
        1
 92
        3
 72
     0
 73
     1
 93
        4
 10
150.7900336378849
 20
59.27084294892185
 10
149.8211611967547
 20
55.85930738959545
 10
163.9801252424533
 20
25.02832121125277
 10
166.5744749156285
 20
25.02832121125277
 97
        0
 75
     0
 76
     1
 98
        0
  0
HATCH
  5
1C3
330
E3
100
AcDbEntity
  8
Des_ Roofs
  6
Continuous
 62
   255
370
    18
100
AcDbHatch
 10
0.0
 20
0.0
 30
0.0
210
0.0
220
0.0
230
1.0
  2
SOLID
 70
     1
 71
     0
 91
        1
 92
        3
 72
     0
 73
     1
 93
        4
 10
149.8211611967547
 20
55.85930397268188
 10
147.2107989341216
 20
46.66785203762042
 10
157.0494616076159
 20
25.0283218226636
 10
163.9801212141289
 20
25.0283218226636
 97
        0
 75
     0
 76
     1
 98
        0
  0
HATCH
  5
1C4
330
E3
100
AcDbEntity
  8
Des_ Roofs
  6
Continuous
 62
   253
370
    25
100
AcDbHatch
 10
0.0
 20
0.0
 30
0.0
210
0.0
220
0.0
230
1.0
  2
SOLID
 70
     1
 71
     0
 91
        1
 92
        3
 72
     0
 73
     1
 93
        4
 10
147.2107989341216
 20
46.66785187426317
 10
145.6609937757794
 20
41.21076541529908
 10
152.9749242782402
 20
25.02832165930635
 10
157.0494616076159
 20
25.02832165930635
 97
        0
 75
     0
 76
     1
 98
        0
  0
HATCH
  5
1C5
330
E3
100
AcDbEntity
  8
Des_ Roofs
  6
Continuous
 62
   255
370
    18
100
AcDbHatch
 10
0.0
 20
0.0
 30
0.0
210
0.0
220
0.0
230
1.0
  2
SOLID
 70
     1
 71
     0
 91
        1
 92
        3
 72
     0
 73
     1
 93
        3
 10
141.065199326734
 20
25.02832141281789
 10
152.9749242782402
 20
25.02832141281789
 10
145.6609937757794
 20
41.21076516881062
 97
        0
 75
     0
 76
     1
 98
        0
  0
HATCH
  5
1C6
330
E3
100
AcDbEntity
  8
Des_ Roof Beams
  6
Continuous
 62
    41
370
     0
100
AcDbHatch
 10
0.0
 20
0.0
 30
0.0
210
0.0
220
0.0
230
1.0
  2
SOLID
 70
     1
 71
     0
 91
        1
 92
        3
 72
     0
 73
     1
 93
        9
 10
107.9013903513904
 20
25.02832117678027
 10
109.0142552479108
 20
25.02832117678027
 10
131.5147954900789
 20
88.75203024051017
 10
133.2884304649355
 20
85.79078078171608
 10
149.348372876169
 20
136.3684439397792
 10
147.0295847613497
 20
137.4830047608686
 10
147.105405883055
 20
137.718951777154
 10
148.1598157643238
 20
139.7704283419723
 10
145.60944733686
 20
140.6344878107482
 97
        0
 75
     0
 76
     1
 98
        0
  0
HATCH
  5
1C8
330
E3
100
AcDbEntity
  8
Des_ Roof Beams
  6
Continuous
 62
    45
370
     0
100
AcDbHatch
 10
0.0
 20
0.0
 30
0.0
210
0.0
220
0.0
230
1.0
  2
SOLID
 70
     1
 71
     0
 91
        1
 92
        3
 72
     0
 73
     1
 93
        3
 10
149.34837589921
 20
136.3684559903039
 10
133.2884343367343
 20
85.7907817239315
 10
149.2329878882531
 20
135.9090301479678
 97
        0
 75
     0
 76
     1
 98
        0
  0
HATCH
  5
1C9
330
E3
100
AcDbEntity
  8
Des_ Roof Beams
  6
Continuous
 62
    41
370
     0
100
AcDbHatch
 10
0.0
 20
0.0
 30
0.0
210
0.0
220
0.0
230
1.0
  2
SOLID
 70
     1
 71
     0
 91
        1
 92
        3
 72
     0
 73
     1
 93
        6
 10
149.0228011152331
 20
141.4494727184535
 10
147.1054042440888
 20
137.7189501221647
 10
199.5099982313457
 20
111.344277878442
 10
198.6425662577971
 20
113.3128017084825
 10
281.8390186131411
 20
72.99400371365998
 10
281.8390186131411
 20
74.10763767461009
 97
        0
 75
     0
 76
     1
 98
        0
  0
HATCH
  5
1CA
330
E3
100
AcDbEntity
  8
Des_ Roof Beams
  6
Continuous
 62
    55
370
     0
100
AcDbHatch
 10
0.0
 20
0.0
 30
0.0
210
0.0
220
0.0
230
1.0
  2
SOLID
 70
     1
 71
     0
 91
        1
 92
        3
 72
     0
 73
     1
 93
        5
 10
147.0295854821935
 20
137.4830046778866
 10
149.3483722441662
 20
136.3684466788641
 10
149.2329872944762
 20
135.9090300697542
 10
199.5099933151037
 20
111.3442809004719
 10
147.1054041682866
 20
137.7189507193547
 97
        0
 75
     0
 76
     1
 98
        0
  0
LINE
  5
1CB
330
E3
100
AcDbEntity
  8
Des_ Roofs
  6
Continuous
100
AcDbLine
 10
158.9704017775182
 20
197.7432405543729
 30
0.0
 11
158.9678958944177
 21
197.7435586978767
 31
0.0
  0
LINE
  5
1CC
330
E3
100
AcDbEntity
  8
Des_ Roofs
  6
Continuous
100
AcDbLine
 10
60.57013400104199
 20
197.741730742706
 30
0.0
 11
60.56936456708256
 21
197.7413712465023
 31
0.0
  0
LINE
  5
1CD
330
E3
100
AcDbEntity
  8
Des_ Roofs
  6
Continuous
100
AcDbLine
 10
162.5902123358764
 20
140.0892315391033
 30
0.0
 11
109.7516319712087
 21
197.7404913380791
 31
0.0
  0
LINE
  5
1CE
330
E3
100
AcDbEntity
  8
Des_ Roofs
  6
Continuous
100
AcDbLine
 10
281.8390204384814
 20
79.65470835822326
 30
0.0
 11
162.5902122696277
 21
140.089234146709
 31
0.0
  0
LINE
  5
1CF
330
E3
100
AcDbEntity
  8
Des_ Roofs
  6
Continuous
100
AcDbLine
 10
174.3060379211005
 20
197.0743716449504
 30
0.0
 11
173.6523375520722
 21
197.530704260395
 31
0.0
  0
LINE
  5
1D0
330
E3
100
AcDbEntity
  8
Des_ Roofs
  6
Continuous
100
AcDbLine
 10
174.2727800749205
 20
196.5507821254577
 30
0.0
 11
174.3060379211005
 21
197.0743716449504
 31
0.0
  0
LINE
  5
1D1
330
E3
100
AcDbEntity
  8
Des_ Roofs
  6
Continuous
100
AcDbLine
 10
177.260056537611
 20
195.0122321054666
 30
0.0
 11
176.584458197188
 21
195.4838522119787
 31
0.0
  0
LINE
  5
1D2
330
E3
100
AcDbEntity
  8
Des_ Roofs
  6
Continuous
100
AcDbLine
 10
177.224732161018
 20
194.4638724192879
 30
0.0
 11
177.260056537611
 21
195.0122321054666
 31
0.0
  0
LINE
  5
1D3
330
E3
100
AcDbEntity
  8
Des_ Roofs
  6
Continuous
100
AcDbLine
 10
180.3140460805566
 20
192.8803099025411
 30
0.0
 11
179.6154379512068
 21
193.3679949667283
 31
0.0
  0
LINE
  5
1D4
330
E3
100
AcDbEntity
  8
Des_ Roofs
  6
Continuous
100
AcDbLine
 10
180.2764779272772
 20
192.3053109071584
 30
0.0
 11
180.3140460805566
 21
192.8803099025411
 31
0.0
  0
LINE
  5
1D5
330
E3
100
AcDbEntity
  8
Des_ Roofs
  6
Continuous
100
AcDbLine
 10
183.4731748901321
 20
190.6749916291943
 30
0.0
 11
182.7503525028623
 21
191.1795755142057
 31
0.0
  0
LINE
  5
1D6
330
E3
100
AcDbEntity
  8
Des_ Roofs
  6
Continuous
100
AcDbLine
 10
183.4331534872981
 20
190.0712948508432
 30
0.0
 11
183.4731748901321
 21
190.6749916291943
 31
0.0
  0
LINE
  5
1D7
330
E3
100
AcDbEntity
  8
Des_ Roofs
  6
Continuous
100
AcDbLine
 10
186.7429617707545
 20
188.3924221789829
 30
0.0
 11
185.9946481467325
 21
188.914803201158
 31
0.0
  0
LINE
  5
1D8
330
E3
100
AcDbEntity
  8
Des_ Roofs
  6
Continuous
100
AcDbLine
 10
186.7002575038754
 20
187.7577355010847
 30
0.0
 11
186.7429617707545
 21
188.3924221789829
 31
0.0
  0
LINE
  5
1D9
330
E3
100
AcDbEntity
  8
Des_ Roofs
  6
Continuous
100
AcDbLine
 10
190.1293243309556
 20
186.0284725194054
 30
0.0
 11
189.354149839888
 21
186.569605391625
 31
0.0
  0
LINE
  5
1DA
330
E3
100
AcDbEntity
  8
Des_ Roofs
  6
Continuous
100
AcDbLine
 10
190.083675358946
 20
185.3602540692685
 30
0.0
 11
190.1293243309556
 21
186.0284725194054
 31
0.0
  0
LINE
  5
1DB
330
E3
100
AcDbEntity
  8
Des_ Roofs
  6
Continuous
100
AcDbLine
 10
193.6386152383015
 20
183.5787155219549
 30
0.0
 11
192.8351055134609
 21
184.139627466939
 31
0.0
  0
LINE
  5
1DC
330
E3
100
AcDbEntity
  8
Des_ Roofs
  6
Continuous
100
AcDbLine
 10
193.5897315218051
 20
182.87411324591
 30
0.0
 11
193.6386152383015
 21
183.5787155219549
 31
0.0
  0
LINE
  5
1DD
330
E3
100
AcDbEntity
  8
Des_ Roofs
  6
Continuous
100
AcDbLine
 10
197.2776463893389
 20
181.0383856788758
 30
0.0
 11
196.4442182992393
 21
181.6201804575078
 31
0.0
  0
LINE
  5
1DE
330
E3
100
AcDbEntity
  8
Des_ Roofs
  6
Continuous
100
AcDbLine
 10
197.2251935774313
 20
180.2942091440044
 30
0.0
 11
197.2776463893389
 21
181.0383856788758
 31
0.0
  0
LINE
  5
1DF
330
E3
100
AcDbEntity
  8
Des_ Roofs
  6
Continuous
100
AcDbLine
 10
201.0537533627857
 20
178.4023670181903
 30
0.0
 11
200.1887029262093
 21
179.0062370144902
 31
0.0
  0
LINE
  5
1E0
330
E3
100
AcDbEntity
  8
Des_ Roofs
  6
Continuous
100
AcDbLine
 10
200.997352792974
 20
177.6150269874591
 30
0.0
 11
201.0537533627857
 21
178.4023670181903
 31
0.0
  0
LINE
  5
1E1
330
E3
100
AcDbEntity
  8
Des_ Roofs
  6
Continuous
100
AcDbLine
 10
204.9748236178012
 20
175.6651487921302
 30
0.0
 11
204.0763179471497
 21
176.2923750132546
 31
0.0
  0
LINE
  5
1E2
330
E3
100
AcDbEntity
  8
Des_ Roofs
  6
Continuous
100
AcDbLine
 10
204.9140442593755
 20
174.8305847145521
 30
0.0
 11
204.9748236178012
 21
175.6651487921302
 31
0.0
  0
LINE
  5
1E3
330
E3
100
AcDbEntity
  8
Des_ Roofs
  6
Continuous
100
AcDbLine
 10
209.0493730321501
 20
172.8207932505418
 30
0.0
 11
208.1154342201469
 21
173.4727574117571
 31
0.0
  0
LINE
  5
1E4
330
E3
100
AcDbEntity
  8
Des_ Roofs
  6
Continuous
100
AcDbLine
 10
208.9837153728857
 20
171.9343967230124
 30
0.0
 11
209.0493730321501
 21
172.8207932505418
 31
0.0
  0
LINE
  5
1E5
330
E3
100
AcDbEntity
  8
Des_ Roofs
  6
Continuous
100
AcDbLine
 10
213.2865942420947
 20
169.8628792443442
 30
0.0
 11
212.3150832484878
 21
170.5410718256755
 31
0.0
  0
LINE
  5
1E6
330
E3
100
AcDbEntity
  8
Des_ Roofs
  6
Continuous
100
AcDbLine
 10
213.2154822316036
 20
168.9193933035321
 30
0.0
 11
213.2865942420947
 21
169.8628792443442
 31
0.0
  0
LINE
  5
1E7
330
E3
100
AcDbEntity
  8
Des_ Roofs
  6
Continuous
100
AcDbLine
 10
217.69642512391
 20
166.784474027259
 30
0.0
 11
216.6850256621741
 21
167.4905103867875
 31
0.0
  0
LINE
  5
1E8
330
E3
100
AcDbEntity
  8
Des_ Roofs
  6
Continuous
100
AcDbLine
 10
217.6191940886676
 20
165.7778642432251
 30
0.0
 11
217.69642512391
 21
166.784474027259
 31
0.0
  0
LINE
  5
1E9
330
E3
100
AcDbEntity
  8
Des_ Roofs
  6
Continuous
100
AcDbLine
 10
222.2896293603714
 20
163.5780567176463
 30
0.0
 11
221.2358358127346
 21
164.3136851481581
 31
0.0
  0
LINE
  5
1EA
330
E3
100
AcDbEntity
  8
Des_ Roofs
  6
Continuous
100
AcDbLine
 10
222.2055018337699
 20
162.5013621458413
 30
0.0
 11
222.2896293603714
 21
163.5780567176463
 31
0.0
  0
LINE
  5
1EB
330
E3
100
AcDbEntity
  8
Des_ Roofs
  6
Continuous
100
AcDbLine
 10
227.0778890922155
 20
160.235473986937
 30
0.0
 11
225.9789783113887
 21
161.0025998858694
 31
0.0
  0
LINE
  5
1EC
330
E3
100
AcDbEntity
  8
Des_ Roofs
  6
Continuous
100
AcDbLine
 10
226.9859546729424
 20
159.0806178369549
 30
0.0
 11
227.0778890922155
 21
160.235473986937
 31
0.0
  0
LINE
  5
1ED
330
E3
100
AcDbEntity
  8
Des_ Roofs
  6
Continuous
100
AcDbLine
 10
232.0739015979256
 20
156.7478635214686
 30
0.0
 11
230.9269127654809
 21
157.5485534192348
 31
0.0
  0
LINE
  5
1EE
330
E3
100
AcDbEntity
  8
Des_ Roofs
  6
Continuous
100
AcDbLine
 10
231.9730766667195
 20
155.5053913159615
 30
0.0
 11
232.0739015979256
 21
156.7478635214686
 31
0.0
  0
LINE
  5
1EF
330
E3
100
AcDbEntity
  8
Des_ Roofs
  6
Continuous
100
AcDbLine
 10
237.2914840301662
 20
153.1055815126469
 30
0.0
 11
236.0931944865901
 21
153.9420832142575
 31
0.0
  0
LINE
  5
1F0
330
E3
100
AcDbEntity
  8
Des_ Roofs
  6
Continuous
100
AcDbLine
 10
237.180483551546
 20
151.7643509063467
 30
0.0
 11
237.2914840301662
 21
153.1055815126469
 31
0.0
  0
LINE
  5
1F1
330
E3
100
AcDbEntity
  8
Des_ Roofs
  6
Continuous
100
AcDbLine
 10
242.7457144071364
 20
149.2981019488356
 30
0.0
 11
241.4925993685858
 21
150.1728727321697
 31
0.0
  0
LINE
  5
1F2
330
E3
100
AcDbEntity
  8
Des_ Roofs
  6
Continuous
100
AcDbLine
 10
242.6229874762113
 20
147.844871839466
 30
0.0
 11
242.7457144071364
 21
149.2981019488356
 31
0.0
  0
LINE
  5
1F3
330
E3
100
AcDbEntity
  8
Des_ Roofs
  6
Continuous
100
AcDbLine
 10
248.4530605189505
 20
145.3139239638957
 30
0.0
 11
247.1412729356311
 21
146.2296547496473
 31
0.0
  0
LINE
  5
1F4
330
E3
100
AcDbEntity
  8
Des_ Roofs
  6
Continuous
100
AcDbLine
 10
248.3167339648781
 20
143.7327985834061
 30
0.0
 11
248.4530605189505
 21
145.3139239638957
 31
0.0
  0
LINE
  5
1F5
330
E3
100
AcDbEntity
  8
Des_ Roofs
  6
Continuous
100
AcDbLine
 10
254.43156523056
 20
141.1404590441025
 30
0.0
 11
253.0568874468335
 21
142.1000945374019
 31
0.0
  0
LINE
  5
1F6
330
E3
100
AcDbEntity
  8
Des_ Roofs
  6
Continuous
100
AcDbLine
 10
254.2833994310996
 20
139.4582630046188
 30
0.0
 11
254.43156523056
 21
141.1404590441025
 31
0.0
  0
LINE
  5
1F7
330
E3
100
AcDbEntity
  8
Des_ Roofs
  6
Continuous
100
AcDbLine
 10
254.409828392141
 20
139.3691282707981
 30
0.0
 11
254.2833994310996
 21
139.4582630046188
 31
0.0
  0
LINE
  5
1F8
330
E3
100
AcDbEntity
  8
Des_ Roofs
  6
Continuous
100
AcDbLine
 10
260.7010237280269
 20
136.7638819801427
 30
0.0
 11
259.2588191425181
 21
137.7706569254767
 31
0.0
  0
LINE
  5
1F9
330
E3
100
AcDbEntity
  8
Des_ Roofs
  6
Continuous
100
AcDbLine
 10
260.5460822869393
 20
135.04298985655
 30
0.0
 11
260.7010237280269
 21
136.7638819801427
 31
0.0
  0
LINE
  5
1FA
330
E3
100
AcDbEntity
  8
Des_ Roofs
  6
Continuous
100
AcDbLine
 10
261.0134202846228
 20
134.7135091762079
 30
0.0
 11
260.5460822869393
 21
135.04298985655
 31
0.0
  0
LINE
  5
1FB
330
E3
100
AcDbEntity
  8
Des_ Roofs
  6
Continuous
100
AcDbLine
 10
267.2832050763654
 20
132.1690059890587
 30
0.0
 11
265.7683698020697
 21
133.2264814251898
 31
0.0
  0
LINE
  5
1FC
330
E3
100
AcDbEntity
  8
Des_ Roofs
  6
Continuous
100
AcDbLine
 10
267.120988481426
 20
130.4075969787317
 30
0.0
 11
267.2832050763654
 21
132.1690059890587
 31
0.0
  0
LINE
  5
1FD
330
E3
100
AcDbEntity
  8
Des_ Roofs
  6
Continuous
100
AcDbLine
 10
267.9644470992615
 20
129.8129437886406
 30
0.0
 11
267.120988481426
 21
130.4075969787317
 31
0.0
  0
LINE
  5
1FE
330
E3
100
AcDbEntity
  8
Des_ Roofs
  6
Continuous
100
AcDbLine
 10
274.202101975654
 20
127.3390732413799
 30
0.0
 11
272.6090084433958
 21
128.4511767845903
 31
0.0
  0
LINE
  5
1FF
330
E3
100
AcDbEntity
  8
Des_ Roofs
  6
Continuous
100
AcDbLine
 10
274.0320583464209
 20
125.5352016636373
 30
0.0
 11
274.202101975654
 21
127.3390732413799
 31
0.0
  0
LINE
  5
200
330
E3
100
AcDbEntity
  8
Des_ Roofs
  6
Continuous
100
AcDbLine
 10
275.2910708518814
 20
124.6475805254929
 30
0.0
 11
274.0320583464209
 21
125.5352016636373
 31
0.0
  0
LINE
  5
201
330
E3
100
AcDbEntity
  8
Des_ Roofs
  6
Continuous
100
AcDbLine
 10
281.4842288570403
 20
122.2555735865254
 30
0.0
 11
279.8066573339586
 21
123.4266517988339
 31
0.0
  0
LINE
  5
202
330
E3
100
AcDbEntity
  8
Des_ Roofs
  6
Continuous
100
AcDbLine
 10
281.3057579731794
 20
120.4071487410078
 30
0.0
 11
281.4842288570403
 21
122.2555735865254
 31
0.0
  0
LINE
  5
203
330
E3
100
AcDbEntity
  8
Des_ Roofs
  6
Continuous
100
AcDbLine
 10
281.839017821711
 20
120.0311924661425
 30
0.0
 11
281.3057562596228
 21
120.4071499593959
 31
0.0
  0
LINE
  5
204
330
E3
100
AcDbEntity
  8
Des_ Roofs
  6
Continuous
100
AcDbLine
 10
173.6523375520722
 20
197.530704260395
 30
0.0
 11
173.1940793975682
 21
197.7435689779145
 31
0.0
  0
LINE
  5
205
330
E3
100
AcDbEntity
  8
Des_ Roofs
  6
Continuous
100
AcDbLine
 10
176.584458197188
 20
195.4838522119787
 30
0.0
 11
171.6885535809423
 21
197.7434964680754
 31
0.0
  0
LINE
  5
206
330
E3
100
AcDbEntity
  8
Des_ Roofs
  6
Continuous
100
AcDbLine
 10
179.6154379512068
 20
193.3679949667283
 30
0.0
 11
170.0702669079369
 21
197.743419929912
 31
0.0
  0
LINE
  5
207
330
E3
100
AcDbEntity
  8
Des_ Roofs
  6
Continuous
100
AcDbLine
 10
182.7503525028623
 20
191.1795755142057
 30
0.0
 11
168.3260507861147
 21
197.7433393634242
 31
0.0
  0
LINE
  5
208
330
E3
100
AcDbEntity
  8
Des_ Roofs
  6
Continuous
100
AcDbLine
 10
185.9946481467325
 20
188.914803201158
 30
0.0
 11
166.4406217527327
 21
197.7432547686119
 31
0.0
  0
LINE
  5
209
330
E3
100
AcDbEntity
  8
Des_ Roofs
  6
Continuous
100
AcDbLine
 10
189.354149839888
 20
186.569605391625
 30
0.0
 11
164.396098075815
 21
197.7431580888265
 31
0.0
  0
LINE
  5
20A
330
E3
100
AcDbEntity
  8
Des_ Roofs
  6
Continuous
100
AcDbLine
 10
192.8351055134609
 20
184.139627466939
 30
0.0
 11
162.1714599586843
 21
197.7430533523923
 31
0.0
  0
LINE
  5
20B
330
E3
100
AcDbEntity
  8
Des_ Roofs
  6
Continuous
100
AcDbLine
 10
196.4442182992393
 20
181.6201804575078
 30
0.0
 11
159.7418083282741
 21
197.7429405593093
 31
0.0
  0
LINE
  5
20C
330
E3
100
AcDbEntity
  8
Des_ Roofs
  6
Continuous
100
AcDbLine
 10
200.1887029262093
 20
179.0062370144902
 30
0.0
 11
157.077438320518
 21
197.7428156812532
 31
0.0
  0
LINE
  5
20D
330
E3
100
AcDbEntity
  8
Des_ Roofs
  6
Continuous
100
AcDbLine
 10
204.0763179471497
 20
176.2923750132546
 30
0.0
 11
154.1426066130863
 21
197.7426787182239
 31
0.0
  0
LINE
  5
20E
330
E3
100
AcDbEntity
  8
Des_ Roofs
  6
Continuous
100
AcDbLine
 10
208.1154342201469
 20
173.4727574117571
 30
0.0
 11
150.8939281522777
 21
197.7425296702214
 31
0.0
  0
LINE
  5
20F
330
E3
100
AcDbEntity
  8
Des_ Roofs
  6
Continuous
100
AcDbLine
 10
212.3150832484878
 20
170.5410718256755
 30
0.0
 11
147.2782169711453
 21
197.7423604805969
 31
0.0
  0
LINE
  5
210
330
E3
100
AcDbEntity
  8
Des_ Roofs
  6
Continuous
100
AcDbLine
 10
216.6850256621741
 20
167.4905103867875
 30
0.0
 11
143.2295535693391
 21
197.7421711493505
 31
0.0
  0
LINE
  5
211
330
E3
100
AcDbEntity
  8
Des_ Roofs
  6
Continuous
100
AcDbLine
 10
221.2358358127346
 20
164.3136851481581
 30
0.0
 11
138.6652163054705
 21
197.7419616764821
 31
0.0
  0
LINE
  5
212
330
E3
100
AcDbEntity
  8
Des_ Roofs
  6
Continuous
100
AcDbLine
 10
225.9789783113887
 20
161.0025998858694
 30
0.0
 11
133.4799813180972
 21
197.7417199770186
 31
0.0
  0
LINE
  5
213
330
E3
100
AcDbEntity
  8
Des_ Roofs
  6
Continuous
100
AcDbLine
 10
230.9269127654809
 20
157.5485534192348
 30
0.0
 11
127.5379128006129
 21
197.7414420226355
 31
0.0
  0
LINE
  5
214
330
E3
100
AcDbEntity
  8
Des_ Roofs
  6
Continuous
100
AcDbLine
 10
236.0931944865901
 20
153.9420832142575
 30
0.0
 11
120.6602699714224
 21
197.7411237850086
 31
0.0
  0
LINE
  5
215
330
E3
100
AcDbEntity
  8
Des_ Roofs
  6
Continuous
100
AcDbLine
 10
111.4689102866909
 20
197.740695000255
 30
0.0
 11
111.4682626015493
 21
197.7409331229587
 31
0.0
  0
LINE
  5
216
330
E3
100
AcDbEntity
  8
Des_ Roofs
  6
Continuous
100
AcDbLine
 10
241.4925993685858
 20
150.1728727321697
 30
0.0
 11
112.6072023679044
 21
197.7407491508402
 31
0.0
  0
LINE
  5
217
330
E3
100
AcDbEntity
  8
Des_ Roofs
  6
Continuous
100
AcDbLine
 10
102.2141741930457
 20
197.7402643586452
 30
0.0
 11
102.2134464976347
 21
197.7405237867849
 31
0.0
  0
LINE
  5
218
330
E3
100
AcDbEntity
  8
Des_ Roofs
  6
Continuous
100
AcDbLine
 10
247.1412729356311
 20
146.2296547496473
 30
0.0
 11
113.0179786628004
 21
194.1766327485198
 31
0.0
  0
LINE
  5
219
330
E3
100
AcDbEntity
  8
Des_ Roofs
  6
Continuous
100
AcDbLine
 10
253.0568874468335
 20
142.1000945374019
 30
0.0
 11
118.1627612166297
 21
188.5632513314724
 31
0.0
  0
LINE
  5
21A
330
E3
100
AcDbEntity
  8
Des_ Roofs
  6
Continuous
100
AcDbLine
 10
254.2833994310996
 20
139.4582630046188
 30
0.0
 11
123.6686185990071
 21
182.5559078455409
 31
0.0
  0
LINE
  5
21B
330
E3
100
AcDbEntity
  8
Des_ Roofs
  6
Continuous
100
AcDbLine
 10
259.2588191425181
 20
137.7706569254767
 30
0.0
 11
123.7840623194317
 21
182.429946170129
 31
0.0
  0
LINE
  5
21C
330
E3
100
AcDbEntity
  8
Des_ Roofs
  6
Continuous
100
AcDbLine
 10
260.5460822869393
 20
135.04298985655
 30
0.0
 11
129.5057935776494
 21
176.1870665570002
 31
0.0
  0
LINE
  5
21D
330
E3
100
AcDbEntity
  8
Des_ Roofs
  6
Continuous
100
AcDbLine
 10
265.7683698020697
 20
133.2264814251898
 30
0.0
 11
129.9513020854529
 21
175.7009767092722
 31
0.0
  0
LINE
  5
21E
330
E3
100
AcDbEntity
  8
Des_ Roofs
  6
Continuous
100
AcDbLine
 10
267.120988481426
 20
130.4075969787317
 30
0.0
 11
135.9059188334181
 21
169.2040024784723
 31
0.0
  0
LINE
  5
21F
330
E3
100
AcDbEntity
  8
Des_ Roofs
  6
Continuous
100
AcDbLine
 10
272.6090084433958
 20
128.4511767845903
 30
0.0
 11
136.7480722741506
 21
168.2851416846682
 31
0.0
  0
LINE
  5
220
330
E3
100
AcDbEntity
  8
Des_ Roofs
  6
Continuous
100
AcDbLine
 10
274.0320583464209
 20
125.5352016636373
 30
0.0
 11
142.9545559763981
 21
161.5133591921737
 31
0.0
  0
LINE
  5
221
330
E3
100
AcDbEntity
  8
Des_ Roofs
  6
Continuous
100
AcDbLine
 10
279.8066573339586
 20
123.4266517988339
 30
0.0
 11
144.2759470850679
 21
160.0716098073212
 31
0.0
  0
LINE
  5
222
330
E3
100
AcDbEntity
  8
Des_ Roofs
  6
Continuous
100
AcDbLine
 10
281.3057579731794
 20
120.4071487410078
 30
0.0
 11
150.7555310394679
 21
153.0018481312297
 31
0.0
  0
LINE
  5
223
330
E3
100
AcDbEntity
  8
Des_ Roofs
  6
Continuous
100
AcDbLine
 10
281.839020123853
 20
119.4839073296656
 30
0.0
 11
152.6595874953239
 21
150.9243658336791
 31
0.0
  0
LINE
  5
224
330
E3
100
AcDbEntity
  8
Des_ Roofs
  6
Continuous
100
AcDbLine
 10
281.8390198848597
 20
116.5735601282361
 30
0.0
 11
159.4360962657161
 21
143.5306351841845
 31
0.0
  0
LINE
  5
225
330
E3
100
AcDbEntity
  8
Des_ Roofs
  6
Continuous
100
AcDbLine
 10
281.8390208854336
 20
115.4063275517941
 30
0.0
 11
162.0537236602902
 21
140.6745860390609
 31
0.0
  0
LINE
  5
226
330
E3
100
AcDbEntity
  8
Des_ Roofs
  6
Continuous
100
AcDbLine
 10
281.8390182699816
 20
112.1112159143785
 30
0.0
 11
181.061820298997
 21
130.727942099645
 31
0.0
  0
LINE
  5
227
330
E3
100
AcDbEntity
  8
Des_ Roofs
  6
Continuous
100
AcDbLine
 10
281.8390193339301
 20
110.414155862737
 30
0.0
 11
190.1738745212219
 21
126.1100109452815
 31
0.0
  0
LINE
  5
228
330
E3
100
AcDbEntity
  8
Des_ Roofs
  6
Continuous
100
AcDbLine
 10
281.8390216836573
 20
106.624672161569
 30
0.0
 11
208.0923338177215
 21
117.0290508353754
 31
0.0
  0
LINE
  5
229
330
E3
100
AcDbEntity
  8
Des_ Roofs
  6
Continuous
100
AcDbLine
 10
281.8390178182765
 20
104.1608077833994
 30
0.0
 11
218.2384388809128
 21
111.8870754204393
 31
0.0
  0
LINE
  5
22A
330
E3
100
AcDbEntity
  8
Des_ Roofs
  6
Continuous
100
AcDbLine
 10
281.8390195230249
 20
99.71561040160618
 30
0.0
 11
234.1518085045386
 21
103.8222778795995
 31
0.0
  0
LINE
  5
22B
330
E3
100
AcDbEntity
  8
Des_ Roofs
  6
Continuous
100
AcDbLine
 10
281.839018390024
 20
96.09926943928211
 30
0.0
 11
245.2505944840623
 21
98.19748798330279
 31
0.0
  0
LINE
  5
22C
330
E3
100
AcDbEntity
  8
Des_ Roofs
  6
Continuous
100
AcDbLine
 10
281.839017884126
 20
90.74839568033225
 30
0.0
 11
259.2916422278248
 21
91.08157458665383
 31
0.0
  0
LINE
  5
22D
330
E3
100
AcDbEntity
  8
Des_ Roofs
  6
Continuous
100
AcDbLine
 10
281.8390179764114
 20
85.31272242265871
 30
0.0
 11
271.2684521958648
 21
85.01180600763239
 31
0.0
  0
LINE
  5
22E
330
E3
100
AcDbEntity
  8
Des_ Roofs
  6
Continuous
100
AcDbLine
 10
281.8390193866533
 20
126.170009595208
 30
0.0
 11
177.1193405205492
 21
197.7435691074231
 31
0.0
  0
LINE
  5
22F
330
E3
100
AcDbEntity
  8
Des_ Roofs
  6
Continuous
100
AcDbLine
 10
281.839017961639
 20
126.730313735243
 30
0.0
 11
177.6394561514415
 21
197.7435725924313
 31
0.0
  0
LINE
  5
230
330
E3
100
AcDbEntity
  8
Des_ Roofs
  6
Continuous
100
AcDbLine
 10
281.8390204173881
 20
125.9828063855773
 30
0.0
 11
176.94621063003
 21
197.7435820198524
 31
0.0
  0
LINE
  5
231
330
E3
100
AcDbEntity
  8
Des_ Roofs
  6
Continuous
100
AcDbLine
 10
281.8390218842526
 20
125.4212603796966
 30
0.0
 11
176.4289240875638
 21
197.7435833565705
 31
0.0
  0
LINE
  5
232
330
E3
100
AcDbEntity
  8
Des_ Roofs
  6
Continuous
100
AcDbLine
 10
18.35525987383327
 20
188.2636769314162
 30
0.0
 11
37.06585584826824
 21
197.7416353822063
 31
0.0
  0
LINE
  5
233
330
E3
100
AcDbEntity
  8
Des_ Roofs
  6
Continuous
100
AcDbLine
 10
18.35529612875279
 20
189.3676190894084
 30
0.0
 11
34.74942833154256
 21
197.7416434388551
 31
0.0
  0
LINE
  5
234
330
E3
100
AcDbEntity
  8
Des_ Roofs
  6
Continuous
100
AcDbLine
 10
18.35510276918198
 20
194.9228113606141
 30
0.0
 11
23.65298581985176
 21
197.741929449887
 31
0.0
  0
LINE
  5
235
330
E3
100
AcDbEntity
  8
Des_ Roofs
  6
Continuous
100
AcDbLine
 10
125.9687676568649
 20
127.8721967578884
 30
0.0
 11
88.65740797254153
 21
25.02832173471235
 31
0.0
  0
LINE
  5
236
330
E3
100
AcDbEntity
  8
Des_ Roofs
  6
Continuous
100
AcDbLine
 10
79.23239378923476
 20
197.7404913380791
 30
0.0
 11
125.9687676568649
 21
127.8721978047083
 31
0.0
  0
LINE
  5
237
330
E3
100
AcDbEntity
  8
Des_ Roofs
  6
Continuous
100
AcDbLine
 10
99.01358948066982
 20
197.7399757125569
 30
0.0
 11
146.6768646775904
 21
140.2728506215372
 31
0.0
  0
LINE
  5
238
330
E3
100
AcDbEntity
  8
Des_ Roofs
  6
Continuous
100
AcDbLine
 10
86.66163104909079
 20
25.02832085927084
 30
0.0
 11
89.6020500424541
 21
27.63210889649636
 31
0.0
  0
LINE
  5
239
330
E3
100
AcDbEntity
  8
Des_ Roofs
  6
Continuous
100
AcDbLine
 10
70.46823025075196
 20
25.02832203351429
 30
0.0
 11
97.38379791320102
 21
49.08147114780139
 31
0.0
  0
LINE
  5
23A
330
E3
100
AcDbEntity
  8
Des_ Roofs
  6
Continuous
100
AcDbLine
 10
56.81142906710527
 20
25.02832107320939
 30
0.0
 11
104.1129687902774
 21
67.6295474426626
 31
0.0
  0
LINE
  5
23B
330
E3
100
AcDbEntity
  8
Des_ Roofs
  6
Continuous
100
AcDbLine
 10
43.8605111666602
 20
25.0283238630142
 30
0.0
 11
110.6401473973682
 21
85.62086471677311
 31
0.0
  0
LINE
  5
23C
330
E3
100
AcDbEntity
  8
Des_ Roofs
  6
Continuous
100
AcDbLine
 10
31.56753948915252
 20
25.02832393413555
 30
0.0
 11
116.9714769291711
 21
103.0723435204348
 31
0.0
  0
LINE
  5
23D
330
E3
100
AcDbEntity
  8
Des_ Roofs
  6
Continuous
100
AcDbLine
 10
21.10632345082851
 20
25.02832294316015
 30
0.0
 11
122.4667720449929
 21
118.2194021802865
 31
0.0
  0
LINE
  5
23E
330
E3
100
AcDbEntity
  8
Des_ Roofs
  6
Continuous
100
AcDbLine
 10
18.36058129035503
 20
32.82092698651551
 30
0.0
 11
124.0958707406663
 21
130.6720766166852
 31
0.0
  0
LINE
  5
23F
330
E3
100
AcDbEntity
  8
Des_ Roofs
  6
Continuous
100
AcDbLine
 10
18.36001732494016
 20
40.77934508012022
 30
0.0
 11
120.610975365838
 21
135.8817997880372
 31
0.0
  0
LINE
  5
240
330
E3
100
AcDbEntity
  8
Des_ Roofs
  6
Continuous
100
AcDbLine
 10
18.35997704169624
 20
50.43923474542412
 30
0.0
 11
116.3992131660505
 21
142.1781513791447
 31
0.0
  0
LINE
  5
241
330
E3
100
AcDbEntity
  8
Des_ Roofs
  6
Continuous
100
AcDbLine
 10
18.35947350114725
 20
57.09397024438606
 30
0.0
 11
113.5088904148255
 21
146.4990247734127
 31
0.0
  0
LINE
  5
242
330
E3
100
AcDbEntity
  8
Des_ Roofs
  6
Continuous
100
AcDbLine
 10
18.35943724622772
 20
66.17456269218101
 30
0.0
 11
109.5800898053019
 21
152.3723660484458
 31
0.0
  0
LINE
  5
243
330
E3
100
AcDbEntity
  8
Des_ Roofs
  6
Continuous
100
AcDbLine
 10
18.35898607389582
 20
71.74729831611364
 30
0.0
 11
107.1772748719908
 21
155.9644390220463
 31
0.0
  0
LINE
  5
244
330
E3
100
AcDbEntity
  8
Des_ Roofs
  6
Continuous
100
AcDbLine
 10
18.35895384730069
 20
80.31346165408324
 30
0.0
 11
103.4965143085771
 21
161.4669730368004
 31
0.0
  0
LINE
  5
245
330
E3
100
AcDbEntity
  8
Des_ Roofs
  6
Continuous
100
AcDbLine
 10
18.3585469865371
 20
84.98078303103213
 30
0.0
 11
101.4972045446346
 21
164.4558326309769
 31
0.0
  0
LINE
  5
246
330
E3
100
AcDbEntity
  8
Des_ Roofs
  6
Continuous
100
AcDbLine
 10
18.35851878826635
 20
93.08714939458002
 30
0.0
 11
98.03556871484555
 21
169.6307833061775
 31
0.0
  0
LINE
  5
247
330
E3
100
AcDbEntity
  8
Des_ Roofs
  6
Continuous
100
AcDbLine
 10
18.35814818242229
 20
96.99126040390543
 30
0.0
 11
96.37302687007018
 21
172.1161909744968
 31
0.0
  0
LINE
  5
248
330
E3
100
AcDbEntity
  8
Des_ Roofs
  6
Continuous
100
AcDbLine
 10
18.35811998415155
 20
104.6842602599733
 30
0.0
 11
93.10632165760761
 21
176.9997407198324
 31
0.0
  0
LINE
  5
249
330
E3
100
AcDbEntity
  8
Des_ Roofs
  6
Continuous
100
AcDbLine
 10
18.35778160490262
 20
107.9407778400486
 30
0.0
 11
91.72695087596446
 21
179.0618198344503
 31
0.0
  0
LINE
  5
24A
330
E3
100
AcDbEntity
  8
Des_ Roofs
  6
Continuous
100
AcDbLine
 10
18.35775743495627
 20
115.2601868636825
 30
0.0
 11
88.63472044956607
 21
183.6845355754071
 31
0.0
  0
LINE
  5
24B
330
E3
100
AcDbEntity
  8
Des_ Roofs
  6
Continuous
100
AcDbLine
 10
18.35745128230249
 20
117.9639740256138
 30
0.0
 11
87.49503899756841
 21
185.3882912070365
 31
0.0
  0
LINE
  5
24C
330
E3
100
AcDbEntity
  8
Des_ Roofs
  6
Continuous
100
AcDbLine
 10
18.35742711235613
 20
124.9441296539307
 30
0.0
 11
84.55986085423905
 21
189.7762200891328
 31
0.0
  0
LINE
  5
24D
330
E3
100
AcDbEntity
  8
Des_ Roofs
  6
Continuous
100
AcDbLine
 10
18.3571451296487
 20
127.1736219019537
 30
0.0
 11
83.62427848588396
 21
191.1748664029915
 31
0.0
  0
LINE
  5
24E
330
E3
100
AcDbEntity
  8
Des_ Roofs
  6
Continuous
100
AcDbLine
 10
18.35712095970235
 20
133.8443659620492
 30
0.0
 11
80.8311874005075
 21
195.3503817399002
 31
0.0
  0
LINE
  5
24F
330
E3
100
AcDbEntity
  8
Des_ Roofs
  6
Continuous
100
AcDbLine
 10
18.35685911861687
 20
135.6649148027745
 30
0.0
 11
80.07032957432892
 21
196.4878234435359
 31
0.0
  0
LINE
  5
250
330
E3
100
AcDbEntity
  8
Des_ Roofs
  6
Continuous
100
AcDbLine
 10
18.3568430053193
 20
142.0523306950865
 30
0.0
 11
74.64726231485486
 21
197.7406766410011
 31
0.0
  0
LINE
  5
251
330
E3
100
AcDbEntity
  8
Des_ Roofs
  6
Continuous
100
AcDbLine
 10
18.35660130585579
 20
143.5187414818666
 30
0.0
 11
73.11746181544306
 21
197.74084985895
 31
0.0
  0
LINE
  5
252
330
E3
100
AcDbEntity
  8
Des_ Roofs
  6
Continuous
100
AcDbLine
 10
18.35658116423382
 20
149.6457705138073
 30
0.0
 11
66.75446159727063
 21
197.7408780572207
 31
0.0
  0
LINE
  5
253
330
E3
100
AcDbEntity
  8
Des_ Roofs
  6
Continuous
100
AcDbLine
 10
18.35635557806788
 20
150.8042924389861
 30
0.0
 11
65.55640166818482
 21
197.741035161872
 31
0.0
  0
LINE
  5
254
330
E3
100
AcDbEntity
  8
Des_ Roofs
  6
Continuous
100
AcDbLine
 10
18.35633946477031
 20
156.6912091672202
 30
0.0
 11
59.49407961095201
 21
197.7410633601427
 31
0.0
  0
LINE
  5
255
330
E3
100
AcDbEntity
  8
Des_ Roofs
  6
Continuous
100
AcDbLine
 10
18.35612999190193
 20
157.5810901953486
 30
0.0
 11
58.58125324708708
 21
197.7412083798208
 31
0.0
  0
LINE
  5
256
330
E3
100
AcDbEntity
  8
Des_ Roofs
  6
Continuous
100
AcDbLine
 10
18.35611790692875
 20
163.2458972015836
 30
0.0
 11
52.79303449478022
 21
197.7412325497672
 31
0.0
  0
LINE
  5
257
330
E3
100
AcDbEntity
  8
Des_ Roofs
  6
Continuous
100
AcDbLine
 10
18.35592051903354
 20
163.9006247933318
 30
0.0
 11
52.12645154434647
 21
197.7413695127965
 31
0.0
  0
LINE
  5
258
330
E3
100
AcDbEntity
  8
Des_ Roofs
  6
Continuous
100
AcDbLine
 10
18.35590843406037
 20
169.3593950918918
 30
0.0
 11
46.58909266522397
 21
197.7413936827429
 31
0.0
  0
LINE
  5
259
330
E3
100
AcDbEntity
  8
Des_ Roofs
  6
Continuous
100
AcDbLine
 10
18.35572313113834
 20
169.8076670302281
 30
0.0
 11
46.13586185956115
 21
197.741518560799
 31
0.0
  0
LINE
  5
25A
330
E3
100
AcDbEntity
  8
Des_ Roofs
  6
Continuous
100
AcDbLine
 10
18.35571104616517
 20
175.0747857675166
 30
0.0
 11
40.82890702236069
 21
197.7415387024209
 31
0.0
  0
LINE
  5
25B
330
E3
100
AcDbEntity
  8
Des_ Roofs
  6
Continuous
100
AcDbLine
 10
18.3555418565407
 20
175.3413319358832
 30
0.0
 11
40.56115235667647
 21
197.7416555238283
 31
0.0
  0
LINE
  5
25C
330
E3
100
AcDbEntity
  8
Des_ Roofs
  6
Continuous
100
AcDbLine
 10
18.35552977156753
 20
180.4297340615227
 30
0.0
 11
33.86277399125214
 21
196.1190988269675
 31
0.0
  0
LINE
  5
25D
330
E3
100
AcDbEntity
  8
Des_ Roofs
  6
Continuous
100
AcDbLine
 10
18.35536863859185
 20
180.5359287491434
 30
0.0
 11
33.65036044606455
 21
196.011498254134
 31
0.0
  0
LINE
  5
25E
330
E3
100
AcDbEntity
  8
Des_ Roofs
  6
Continuous
100
AcDbLine
 10
18.35535655361867
 20
185.4572964038706
 30
0.0
 11
23.87843099444731
 21
191.0614730996824
 31
0.0
  0
LINE
  5
25F
330
E3
100
AcDbEntity
  8
Des_ Roofs
  6
Continuous
100
AcDbLine
 10
64.15511843090495
 20
197.7417973416885
 30
0.0
 11
64.1573167019253
 21
197.7422202287842
 31
0.0
  0
LINE
  5
260
330
E3
100
AcDbEntity
  8
Des_ Roofs
  6
Continuous
100
AcDbLine
 10
46.21164200922833
 20
197.7418080801611
 30
0.0
 11
46.21329827578793
 21
197.7421180206329
 31
0.0
  0
LINE
  5
261
330
E3
100
AcDbEntity
  8
Des_ Roofs
  6
Continuous
100
AcDbLine
 10
69.42326629779322
 20
197.7423069071791
 30
0.0
 11
69.42114357432135
 21
197.7418951697051
 31
0.0
  0
LINE
  5
262
330
E3
100
AcDbEntity
  8
Des_ Roofs
  6
Continuous
100
AcDbLine
 10
115.7363024098629
 20
197.7427555758002
 30
0.0
 11
115.7378017210707
 21
197.7430692520367
 31
0.0
  0
LINE
  5
263
330
E3
100
AcDbEntity
  8
Des_ Roofs
  6
Continuous
100
AcDbLine
 10
18.35412610429646
 20
180.2418097360721
 30
0.0
 11
18.35477243670899
 21
180.2419422530616
 31
0.0
  0
LINE
  5
264
330
E3
100
AcDbEntity
  8
Des_ Roofs
  6
Continuous
100
AcDbLine
 10
103.711363792531
 20
197.7425321860777
 30
0.0
 11
103.7137111603598
 21
197.7430134649238
 31
0.0
  0
LINE
  5
265
330
E3
100
AcDbEntity
  8
Des_ Roofs
  6
Continuous
100
AcDbLine
 10
118.6549926168504
 20
197.7431172694778
 30
0.0
 11
118.6535301052066
 21
197.7428097697305
 31
0.0
  0
LINE
  5
266
330
E3
100
AcDbEntity
  8
Des_ Roofs
  6
Continuous
100
AcDbLine
 10
146.1441787383489
 20
197.7433204690833
 30
0.0
 11
146.1453088260097
 21
197.7435697645962
 31
0.0
  0
LINE
  5
267
330
E3
100
AcDbEntity
  8
Des_ Roofs
  6
Continuous
100
AcDbLine
 10
18.35343990795207
 20
171.9434931204024
 30
0.0
 11
18.35412315027693
 21
171.943641463409
 31
0.0
  0
LINE
  5
268
330
E3
100
AcDbEntity
  8
Des_ Roofs
  6
Continuous
100
AcDbLine
 10
137.1822318845449
 20
197.7431539811797
 30
0.0
 11
137.1839853724852
 21
197.7435346918933
 31
0.0
  0
LINE
  5
269
330
E3
100
AcDbEntity
  8
Des_ Roofs
  6
Continuous
100
AcDbLine
 10
147.9954001674108
 20
197.7436002174035
 30
0.0
 11
147.9942915193675
 21
197.7433548390035
 31
0.0
  0
LINE
  5
26A
330
E3
100
AcDbEntity
  8
Des_ Roofs
  6
Continuous
100
AcDbLine
 10
129.0121541046948
 20
197.743570783465
 30
0.0
 11
129.0113908564429
 21
197.7434074214489
 31
0.0
  0
LINE
  5
26B
330
E3
100
AcDbEntity
  8
Des_ Roofs
  6
Continuous
100
AcDbLine
 10
128.1180708911811
 20
197.743570783465
 30
0.0
 11
128.1172413001574
 21
197.7433934970077
 31
0.0
  0
LINE
  5
26C
330
E3
100
AcDbEntity
  8
Des_ Roofs
  6
Continuous
100
AcDbLine
 10
130.3969200396934
 20
197.7435813222996
 30
0.0
 11
130.396210021089
 21
197.7434289870056
 31
0.0
  0
LINE
  5
26D
330
E3
100
AcDbEntity
  8
Des_ Roofs
  6
Continuous
100
AcDbLine
 10
18.35353819219745
 20
154.6467772752695
 30
0.0
 11
18.35592129716737
 21
154.6473547268583
 31
0.0
  0
LINE
  5
26E
330
E3
100
AcDbEntity
  8
Des_ Roofs
  6
Continuous
100
AcDbLine
 10
18.35354109313148
 20
154.9413298068436
 30
0.0
 11
18.35591197272554
 21
154.941903278885
 31
0.0
  0
LINE
  5
26F
330
E3
100
AcDbEntity
  8
Des_ Roofs
  6
Continuous
100
AcDbLine
 10
141.065199326734
 20
25.02832206383486
 30
0.0
 11
163.9830256360155
 21
105.7252470466707
 31
0.0
  0
LINE
  5
270
330
E3
100
AcDbEntity
  8
Des_ Roofs
  6
Continuous
100
AcDbLine
 10
110.4876672624841
 20
25.02832465414109
 30
0.0
 11
131.5151620675986
 21
88.7531374787544
 31
0.0
  0
LINE
  5
271
330
E3
100
AcDbEntity
  8
Des_ Roofs
  6
Continuous
100
AcDbLine
 10
163.7834005614017
 20
105.0223380861757
 30
0.0
 11
281.8390177520735
 21
47.91366674699881
 31
0.0
  0
LINE
  5
272
330
E3
100
AcDbEntity
  8
Des_ Roofs
  6
Continuous
100
AcDbLine
 10
163.9830277702498
 20
105.7252456377115
 30
0.0
 11
281.8390206041709
 21
48.65011310803003
 31
0.0
  0
LINE
  5
273
330
E3
100
AcDbEntity
  8
Des_ Roofs
  6
Continuous
100
AcDbLine
 10
198.641786707352
 20
113.3131934201282
 30
0.0
 11
281.839017816023
 21
71.63395864215919
 31
0.0
  0
LINE
  5
274
330
E3
100
AcDbEntity
  8
Des_ Roofs
  6
Continuous
100
AcDbLine
 10
281.839020796354
 20
45.30124461033748
 30
0.0
 11
279.9079872520256
 21
48.84779130661354
 31
0.0
  0
LINE
  5
275
330
E3
100
AcDbEntity
  8
Des_ Roofs
  6
Continuous
100
AcDbLine
 10
281.8390202744947
 20
26.62959738338617
 30
0.0
 11
266.3692336664972
 21
55.39707756039586
 31
0.0
  0
LINE
  5
276
330
E3
100
AcDbEntity
  8
Des_ Roofs
  6
Continuous
100
AcDbLine
 10
270.4324101796757
 20
25.02832296698811
 30
0.0
 11
250.2069627527537
 21
63.21547466377679
 31
0.0
  0
LINE
  5
277
330
E3
100
AcDbEntity
  8
Des_ Roofs
  6
Continuous
100
AcDbLine
 10
260.0124984946303
 20
25.02832461609441
 30
0.0
 11
236.6124414723882
 21
69.79174201795423
 31
0.0
  0
LINE
  5
278
330
E3
100
AcDbEntity
  8
Des_ Roofs
  6
Continuous
100
AcDbLine
 10
246.95564774765
 20
25.02832279481631
 30
0.0
 11
219.7478734904576
 21
77.94987052866064
 31
0.0
  0
LINE
  5
279
330
E3
100
AcDbEntity
  8
Des_ Roofs
  6
Continuous
100
AcDbLine
 10
235.8545082097182
 20
25.02832369460116
 30
0.0
 11
205.5561470824793
 21
84.81503048034537
 31
0.0
  0
LINE
  5
27A
330
E3
100
AcDbEntity
  8
Des_ Roofs
  6
Continuous
100
AcDbLine
 10
221.9298315106555
 20
25.02832333431175
 30
0.0
 11
187.9424920382434
 21
93.33552837271841
 31
0.0
  0
LINE
  5
27B
330
E3
100
AcDbEntity
  8
Des_ Roofs
  6
Continuous
100
AcDbLine
 10
210.0784125263984
 20
25.02832440597777
 30
0.0
 11
173.1133276068071
 21
100.509044643515
 31
0.0
  0
LINE
  5
27C
330
E3
100
AcDbEntity
  8
Des_ Roofs
  6
Continuous
100
AcDbLine
 10
195.1964246772105
 20
25.02832245978318
 30
0.0
 11
161.1901843067513
 21
95.89125762541939
 31
0.0
  0
LINE
  5
27D
330
E3
100
AcDbEntity
  8
Des_ Roofs
  6
Continuous
100
AcDbLine
 10
182.5160007030362
 20
25.0283245666329
 30
0.0
 11
156.6468829528575
 21
79.89364758435228
 31
0.0
  0
LINE
  5
27E
330
E3
100
AcDbEntity
  8
Des_ Roofs
  6
Continuous
100
AcDbLine
 10
166.5744749156285
 20
25.02832215569332
 30
0.0
 11
150.7900336378849
 21
59.2708438933624
 31
0.0
  0
LINE
  5
27F
330
E3
100
AcDbEntity
  8
Des_ Roofs
  6
Continuous
100
AcDbLine
 10
152.9749242782402
 20
25.02832225783558
 30
0.0
 11
145.6609937757794
 21
41.21076601382832
 31
0.0
  0
LINE
  5
280
330
E3
100
AcDbEntity
  8
Des_ Roof Beams
  6
Continuous
100
AcDbLine
 10
107.9013903513904
 20
25.02832375858769
 30
0.0
 11
145.6094433085356
 21
140.6344903925556
 31
0.0
  0
LINE
  5
281
330
E3
100
AcDbEntity
  8
Des_ Roof Beams
  6
Continuous
100
AcDbLine
 10
133.288075972389
 20
85.78965848396275
 30
0.0
 11
149.3483769044934
 21
136.3684576295044
 31
0.0
  0
LINE
  5
282
330
E3
100
AcDbEntity
  8
Des_ Roof Beams
  6
Continuous
100
AcDbLine
 10
145.6094433085356
 20
140.6344894155003
 30
0.0
 11
148.1598157643238
 21
139.7704299467243
 31
0.0
  0
LINE
  5
283
330
E3
100
AcDbEntity
  8
Des_ Roof Beams
  6
Continuous
100
AcDbLine
 10
199.5107802426122
 20
111.343886144747
 30
0.0
 11
147.105405883055
 21
137.7189493535816
 31
0.0
  0
LINE
  5
284
330
E3
100
AcDbEntity
  8
Des_ Roof Beams
  6
Continuous
100
AcDbLine
 10
147.105405883055
 20
137.7189493535816
 30
0.0
 11
147.0295807330253
 21
137.4829942806475
 31
0.0
  0
LINE
  5
285
330
E3
100
AcDbEntity
  8
Des_ Roof Beams
  6
Continuous
100
AcDbLine
 10
281.8390184631154
 20
74.10763404318529
 30
0.0
 11
149.0228006676477
 21
141.4494709812613
 31
0.0
  0
LINE
  5
286
330
E3
100
AcDbEntity
  8
Des_ Roof Beams
  6
Continuous
100
AcDbLine
 10
147.105405883055
 20
137.7189493535816
 30
0.0
 11
149.0228036988115
 21
141.4494718082091
 31
0.0
  0
HATCH
  5
287
330
E3
100
AcDbEntity
  8
Des_ Roofs
  6
Continuous
 62
   254
370
    25
100
AcDbHatch
 10
0.0
 20
0.0
 30
0.0
210
0.0
220
0.0
230
1.0
  2
SOLID
 70
     1
 71
     0
 91
        1
 92
        3
 72
     0
 73
     1
 93
        9
 10
101.1368755423032
 20
197.7184473682225
 10
96.16899822760132
 20
197.5376626950295
 10
144.5573382072882
 20
137.4089157689862
 10
107.9173599877961
 20
25.02832085162543
 10
114.1992899261365
 20
25.02832085162543
 10
148.8261093978374
 20
134.7574840869271
 10
281.8390175417215
 20
69.84257642389458
 10
281.8390175417215
 20
74.0642864361982
 10
149.0228036987072
 20
141.4494712284678
 97
        0
 75
     0
 76
     1
 98
        0
  0
LINE
  5
288
330
E3
100
AcDbEntity
  8
Des_ Roofs
  6
Continuous
100
AcDbLine
 10
96.16899626794225
 20
197.5376652049443
 30
0.0
 11
101.1368789844234
 21
197.7184483470063
 31
0.0
  0
LINE
  5
289
330
E3
100
AcDbEntity
  8
Des_ Roofs
  6
Continuous
100
AcDbLine
 10
144.5573376288189
 20
137.4089133950795
 30
0.0
 11
96.16899626794225
 21
197.5376652049443
 31
0.0
  0
LINE
  5
28A
330
E3
100
AcDbEntity
  8
Des_ Roofs
  6
Continuous
100
AcDbLine
 10
107.9173586292801
 20
25.02832368894931
 30
0.0
 11
144.5573376288189
 21
137.4089143024965
 31
0.0
  0
LINE
  5
28B
330
E3
100
AcDbEntity
  8
Des_ Roofs
  6
Continuous
100
AcDbLine
 10
148.8261127037257
 20
134.757480894295
 30
0.0
 11
114.1992928473889
 21
25.02832131055693
 31
0.0
  0
LINE
  5
28C
330
E3
100
AcDbEntity
  8
Des_ Roofs
  6
Continuous
100
AcDbLine
 10
281.8390175417215
 20
69.84257835380144
 30
0.0
 11
148.8261093978374
 21
134.7574812132024
 31
0.0
  0
LINE
  5
28D
330
E3
100
AcDbEntity
  8
Des_ Roofs
  6
Continuous
100
AcDbLine
 10
149.0228036987072
 20
141.4494731583747
 30
0.0
 11
281.8390175417215
 21
74.06428356247349
 31
0.0
  0
LINE
  5
28E
330
E3
100
AcDbEntity
  8
Des_ Roofs
  6
Continuous
100
AcDbLine
 10
101.1368789844234
 20
197.7184483470063
 30
0.0
 11
149.0228036988115
 21
141.4494718082091
 31
0.0
  0
LWPOLYLINE
  5
28F
330
E3
100
AcDbEntity
  8
Des_ Roofs
  6
Continuous
100
AcDbPolyline
 90
        9
 70
   128
 43
0.0
 10
144.5573369951109
 20
137.4089146295141
 10
144.8097576186363
 20
138.6681115462825
 10
145.1375705633746
 20
139.1878072619639
 10
145.5644962324275
 20
139.8002194669695
 10
146.0915119886094
 20
140.3272352231513
 10
146.8657697044815
 20
140.7501491015688
 10
147.6725592571549
 20
141.1535438779055
 10
148.2841577890202
 20
141.2966839598315
 10
149.0228024453515
 20
141.449472723637
  0
LWPOLYLINE
  5
290
330
E3
100
AcDbEntity
  8
Des_ Roofs
  6
Continuous
100
AcDbPolyline
 90
        8
 70
   128
 43
0.0
 10
146.7501259765941
 20
140.6869823594455
 10
147.3809885947113
 20
140.3265701455909
 10
147.714226121194
 20
139.9213934326013
 10
148.017632544312
 20
139.2679720790513
 10
148.2498053973375
 20
138.5749174424838
 10
148.4528040589779
 20
137.6380005426051
 10
148.7022157839351
 20
135.7425601297102
 10
148.8261117470621
 20
134.7574820693848
  0
LWPOLYLINE
  5
292
330
E3
100
AcDbEntity
  8
Des_ Roofs
  6
Dashed
100
AcDbPolyline
 90
        6
 70
   129
 43
0.0
 10
135.6768394590184
 20
152.5805147773118
 10
118.3488274146252
 20
140.4382263670765
 10
131.0623534753543
 20
121.5573123498339
 10
140.2613571380075
 20
107.6165746265596
 10
174.7800428137642
 20
123.7906020428395
 10
150.4428103184469
 20
150.1267789030134
  0
LWPOLYLINE
  5
293
330
E3
100
AcDbEntity
  8
Des_ Roofs
  6
Continuous
100
AcDbPolyline
 90
        2
 70
   128
 43
0.0
 10
148.8261117470621
 20
134.7574820693848
 10
163.9588600456902
 20
106.1288305364098
  0
HATCH
  5
294
330
E3
100
AcDbEntity
  8
Des_ Roofs
  6
Continuous
 62
     9
370
    18
100
AcDbHatch
 10
0.0
 20
0.0
 30
0.0
210
0.0
220
0.0
230
1.0
  2
SOLID
 70
     1
 71
     0
 91
        1
 92
        3
 72
     0
 73
     1
 93
       29
 10
99.13645337462432
 20
167.9850189108626
 10
70.438086299327
 20
197.9260394662647
 10
92.19671392493186
 20
163.9216198984307
 10
94.76260751460228
 20
166.4865346052738
 10
96.2984424439532
 20
164.9951643205613
 10
95.5144298091697
 20
158.7366950920356
 10
97.45332679220608
 20
155.7065773994367
 10
100.6107757905102
 20
158.7162714873684
 10
101.80844497213
 20
156.6871118396815
 10
101.022567223153
 20
150.1285646705506
 10
103.404003838916
 20
146.406848133044
 10
106.090727018723
 20
149.0751336721091
 10
107.9556881358695
 20
147.1930360629992
 10
107.1614193871841
 20
140.5347596668967
 10
109.9915509153445
 20
136.1118206175099
 10
112.9515354802796
 20
138.567185042514
 10
114.8542621386006
 20
136.6061161620243
 10
114.0458942545434
 20
129.7756893230318
 10
117.4527086176824
 20
124.52426090925
 10
118.9271236850293
 20
125.8887389756161
 10
121.5173322407295
 20
123.0898269614933
 10
111.0642655026504
 20
107.7359088248151
 10
105.1355710221474
 20
92.25642781683982
 10
110.397541560863
 20
97.06493390707779
 10
109.4482226063313
 20
91.25974382410763
 10
98.30872939186376
 20
74.43194638722674
 10
79.38696462447831
 20
25.02832225990025
 10
89.25294336567444
 20
25.02832225990025
 10
125.9687676568649
 20
127.8722013114006
 97
        0
 75
     0
 76
     1
 98
        0
  0
LINE
  5
295
330
E3
100
AcDbEntity
  8
Des_ Roofs
  6
Continuous
100
AcDbLine
 10
125.9687676568649
 20
127.8722018330327
 30
0.0
 11
99.13645337462432
 21
167.9850194324947
 31
0.0
  0
LINE
  5
296
330
E3
100
AcDbEntity
  8
Des_ Roofs
  6
Continuous
100
AcDbLine
 10
99.13645337462432
 20
167.9850194324947
 30
0.0
 11
70.438086299327
 21
197.9260399878967
 31
0.0
  0
LINE
  5
297
330
E3
100
AcDbEntity
  8
Des_ Roofs
  6
Continuous
100
AcDbLine
 10
70.438086299327
 20
197.9260399878967
 30
0.0
 11
92.19671392493186
 21
163.9216204200627
 31
0.0
  0
LINE
  5
298
330
E3
100
AcDbEntity
  8
Des_ Roofs
  6
Continuous
100
AcDbLine
 10
92.19671392493186
 20
163.9216204200627
 30
0.0
 11
94.76260751460228
 21
166.4865351269059
 31
0.0
  0
LINE
  5
299
330
E3
100
AcDbEntity
  8
Des_ Roofs
  6
Continuous
100
AcDbLine
 10
94.76260751460228
 20
166.4865351269059
 30
0.0
 11
96.2984424439532
 21
164.9951608138689
 31
0.0
  0
LINE
  5
29A
330
E3
100
AcDbEntity
  8
Des_ Roofs
  6
Continuous
100
AcDbLine
 10
96.2984424439532
 20
164.9951608138689
 30
0.0
 11
95.5144298091697
 21
158.7366915853433
 31
0.0
  0
LINE
  5
29B
330
E3
100
AcDbEntity
  8
Des_ Roofs
  6
Continuous
100
AcDbLine
 10
95.5144298091697
 20
158.7366915853433
 30
0.0
 11
97.45332679220608
 21
155.7065779210687
 31
0.0
  0
LINE
  5
29C
330
E3
100
AcDbEntity
  8
Des_ Roofs
  6
Continuous
100
AcDbLine
 10
97.45332679220608
 20
155.7065779210687
 30
0.0
 11
100.6107757905102
 21
158.7162720090004
 31
0.0
  0
LINE
  5
29D
330
E3
100
AcDbEntity
  8
Des_ Roofs
  6
Continuous
100
AcDbLine
 10
100.6107757905102
 20
158.7162720090004
 30
0.0
 11
101.80844497213
 21
156.6871123613136
 31
0.0
  0
LINE
  5
29E
330
E3
100
AcDbEntity
  8
Des_ Roofs
  6
Continuous
100
AcDbLine
 10
101.80844497213
 20
156.6871123613136
 30
0.0
 11
101.022567223153
 21
150.1285651921827
 31
0.0
  0
LINE
  5
29F
330
E3
100
AcDbEntity
  8
Des_ Roofs
  6
Continuous
100
AcDbLine
 10
101.022567223153
 20
150.1285651921827
 30
0.0
 11
103.404003838916
 21
146.406848654676
 31
0.0
  0
LINE
  5
2A0
330
E3
100
AcDbEntity
  8
Des_ Roofs
  6
Continuous
100
AcDbLine
 10
103.404003838916
 20
146.406848654676
 30
0.0
 11
106.090727018723
 21
149.0751341937411
 31
0.0
  0
LINE
  5
2A1
330
E3
100
AcDbEntity
  8
Des_ Roofs
  6
Continuous
100
AcDbLine
 10
106.090727018723
 20
149.0751341937411
 30
0.0
 11
107.9556881358695
 21
147.1930365846312
 31
0.0
  0
LINE
  5
2A2
330
E3
100
AcDbEntity
  8
Des_ Roofs
  6
Continuous
100
AcDbLine
 10
107.9556881358695
 20
147.1930365846312
 30
0.0
 11
107.1614193871841
 21
140.5347601885287
 31
0.0
  0
LINE
  5
2A3
330
E3
100
AcDbEntity
  8
Des_ Roofs
  6
Continuous
100
AcDbLine
 10
107.1614193871841
 20
140.5347601885287
 30
0.0
 11
109.9915509153445
 21
136.1118211391419
 31
0.0
  0
LINE
  5
2A4
330
E3
100
AcDbEntity
  8
Des_ Roofs
  6
Continuous
100
AcDbLine
 10
109.9915509153445
 20
136.1118211391419
 30
0.0
 11
112.9515354802796
 21
138.5671855641461
 31
0.0
  0
LINE
  5
2A5
330
E3
100
AcDbEntity
  8
Des_ Roofs
  6
Continuous
100
AcDbLine
 10
112.9515354802796
 20
138.5671855641461
 30
0.0
 11
114.8542621386006
 21
136.6061166836564
 31
0.0
  0
LINE
  5
2A6
330
E3
100
AcDbEntity
  8
Des_ Roofs
  6
Continuous
100
AcDbLine
 10
114.8542621386006
 20
136.6061166836564
 30
0.0
 11
114.0458942545434
 21
129.7756898446638
 31
0.0
  0
LINE
  5
2A7
330
E3
100
AcDbEntity
  8
Des_ Roofs
  6
Continuous
100
AcDbLine
 10
114.0458942545434
 20
129.7756898446638
 30
0.0
 11
117.4527086176824
 21
124.524261430882
 31
0.0
  0
LINE
  5
2A8
330
E3
100
AcDbEntity
  8
Des_ Roofs
  6
Continuous
100
AcDbLine
 10
117.4527086176824
 20
124.524261430882
 30
0.0
 11
118.9271236850293
 21
125.8887354689238
 31
0.0
  0
LINE
  5
2A9
330
E3
100
AcDbEntity
  8
Des_ Roofs
  6
Continuous
100
AcDbLine
 10
118.9271236850293
 20
125.8887354689238
 30
0.0
 11
121.5173322407295
 21
123.0898234548009
 31
0.0
  0
LINE
  5
2AA
330
E3
100
AcDbEntity
  8
Des_ Roofs
  6
Continuous
100
AcDbLine
 10
121.5173322407295
 20
123.0898234548009
 30
0.0
 11
111.0642655026504
 21
107.7359093464471
 31
0.0
  0
LINE
  5
2AB
330
E3
100
AcDbEntity
  8
Des_ Roofs
  6
Continuous
100
AcDbLine
 10
111.0642655026504
 20
107.7359093464471
 30
0.0
 11
105.1355710221474
 21
92.25642833847185
 31
0.0
  0
LINE
  5
2AC
330
E3
100
AcDbEntity
  8
Des_ Roofs
  6
Continuous
100
AcDbLine
 10
105.1355710221474
 20
92.25642833847185
 30
0.0
 11
110.397541560863
 21
97.06493442870983
 31
0.0
  0
LINE
  5
2AD
330
E3
100
AcDbEntity
  8
Des_ Roofs
  6
Continuous
100
AcDbLine
 10
110.397541560863
 20
97.06493442870983
 30
0.0
 11
109.4482226063313
 21
91.25974031741528
 31
0.0
  0
LINE
  5
2AE
330
E3
100
AcDbEntity
  8
Des_ Roofs
  6
Continuous
100
AcDbLine
 10
109.4482226063313
 20
91.25974031741528
 30
0.0
 11
98.30872939186376
 21
74.43194690885878
 31
0.0
  0
LINE
  5
2AF
330
E3
100
AcDbEntity
  8
Des_ Roofs
  6
Continuous
100
AcDbLine
 10
98.30872939186376
 20
74.43194638722674
 30
0.0
 11
79.38696865280271
 21
25.02832225990025
 31
0.0
  0
LINE
  5
2B0
330
E3
100
AcDbEntity
  8
Des_ Roofs
  6
Continuous
100
AcDbLine
 10
89.25294336567444
 20
25.02832266972892
 30
0.0
 11
125.9687676568649
 21
127.8722017212294
 31
0.0
  0
HATCH
  5
2B1
330
E3
100
AcDbEntity
  8
Des_ Roofs
  6
Continuous
 62
     9
370
    18
100
AcDbHatch
 10
0.0
 20
0.0
 30
0.0
210
0.0
220
0.0
230
1.0
  2
SOLID
 70
     1
 71
     0
 91
        1
 92
        3
 72
     0
 73
     1
 93
        6
 10
112.3465346382153
 20
197.6530693781586
 10
109.1443007741479
 20
197.9315211509069
 10
162.6531419509165
 20
138.9855404490455
 10
281.8390186353257
 20
78.68828899978227
 10
281.8390186353257
 20
79.96651990504245
 10
166.506000838419
 20
138.0637310834875
 97
        0
 75
     0
 76
     1
 98
        0
  0
LINE
  5
2B2
330
E3
100
AcDbEntity
  8
Des_ Roofs
  6
Continuous
100
AcDbLine
 10
109.1443016442562
 20
197.9315225373942
 30
0.0
 11
162.6531428195275
 21
138.9855431655477
 31
0.0
  0
LINE
  5
2B3
330
E3
100
AcDbEntity
  8
Des_ Roofs
  6
Continuous
100
AcDbLine
 10
162.6531419509165
 20
138.9855404490455
 30
0.0
 11
281.8390186353257
 21
78.68828899978227
 31
0.0
  0
LINE
  5
2B4
330
E3
100
AcDbEntity
  8
Des_ Roofs
  6
Continuous
100
AcDbLine
 10
281.8390186353257
 20
79.96651990504245
 30
0.0
 11
166.506000838419
 21
138.0637310834875
 31
0.0
  0
LINE
  5
2B5
330
E3
100
AcDbEntity
  8
Des_ Roofs
  6
Continuous
100
AcDbLine
 10
166.5060014576141
 20
138.0637296099644
 30
0.0
 11
112.3465335248256
 21
197.653068642125
 31
0.0
  0
LINE
  5
2B6
330
E3
100
AcDbEntity
  8
Des_ Roofs
  6
Continuous
100
AcDbLine
 10
112.3465335248256
 20
197.653068642125
 30
0.0
 11
109.1443016442562
 21
197.9315225373942
 31
0.0
  0
HATCH
  5
2B7
330
E3
100
AcDbEntity
  8
Des_ Roofs
  6
Continuous
 62
     9
370
    18
100
AcDbHatch
 10
0.0
 20
0.0
 30
0.0
210
0.0
220
0.0
230
1.0
  2
SOLID
 70
     1
 71
     0
 91
        1
 92
        3
 72
     0
 73
     1
 93
       14
 10
163.7227648521217
 20
105.2982039360389
 10
140.9142675006332
 20
25.02832219598447
 10
147.793686175923
 20
25.02832219598447
 10
159.9113793926971
 20
68.19067558709584
 10
159.9333182587085
 20
79.2687340202421
 10
162.8020322992733
 20
88.83111255769663
 10
165.2898287643399
 20
87.34833377109422
 10
167.7724436881878
 20
96.19121624505019
 10
177.5190185863773
 20
91.51285971872503
 10
182.1692912551625
 20
92.07063034214868
 10
190.8073183095002
 20
87.5778506426741
 10
192.4045176052913
 20
84.36782594158842
 10
281.8390214966624
 20
41.43926023910222
 10
281.8390214966624
 20
48.24109000809411
 97
        0
 75
     0
 76
     1
 98
        0
  0
LINE
  5
2B8
330
E3
100
AcDbEntity
  8
Des_ Roofs
  6
Continuous
100
AcDbLine
 10
163.7227636537003
 20
105.2982047272816
 30
0.0
 11
140.9142700967407
 21
25.02832241323647
 31
0.0
  0
LINE
  5
2B9
330
E3
100
AcDbEntity
  8
Des_ Roofs
  6
Continuous
100
AcDbLine
 10
147.7936853886638
 20
25.02832241323647
 30
0.0
 11
159.9113806435532
 21
68.19067825719091
 31
0.0
  0
LINE
  5
2BA
330
E3
100
AcDbEntity
  8
Des_ Roofs
  6
Continuous
100
AcDbLine
 10
159.9113806435532
 20
68.19067862548673
 30
0.0
 11
159.9333188981918
 21
79.26873183632827
 31
0.0
  0
LINE
  5
2BB
330
E3
100
AcDbEntity
  8
Des_ Roofs
  6
Continuous
100
AcDbLine
 10
159.9333188981918
 20
79.26873183632827
 30
0.0
 11
162.802029689054
 21
88.8311118814006
 31
0.0
  0
LINE
  5
2BC
330
E3
100
AcDbEntity
  8
Des_ Roofs
  6
Continuous
100
AcDbLine
 10
162.802029689054
 20
88.8311118814006
 30
0.0
 11
165.289830182062
 21
87.34833401261605
 31
0.0
  0
LINE
  5
2BD
330
E3
100
AcDbEntity
  8
Des_ Roofs
  6
Continuous
100
AcDbLine
 10
165.289830182062
 20
87.34833401261605
 30
0.0
 11
167.7724421932533
 21
96.19121906636637
 31
0.0
  0
LINE
  5
2BE
330
E3
100
AcDbEntity
  8
Des_ Roofs
  6
Continuous
100
AcDbLine
 10
167.7724421932533
 20
96.19121906636637
 30
0.0
 11
177.5190173711476
 21
91.51286008058354
 31
0.0
  0
LINE
  5
2BF
330
E3
100
AcDbEntity
  8
Des_ Roofs
  6
Continuous
100
AcDbLine
 10
177.5190173711476
 20
91.51286008058354
 30
0.0
 11
182.1692949075941
 21
92.07062993254188
 31
0.0
  0
LINE
  5
2C0
330
E3
100
AcDbEntity
  8
Des_ Roofs
  6
Continuous
100
AcDbLine
 10
182.1692949075941
 20
92.07062993254188
 30
0.0
 11
190.8073195243917
 21
87.57784779484747
 31
0.0
  0
LINE
  5
2C1
330
E3
100
AcDbEntity
  8
Des_ Roofs
  6
Continuous
100
AcDbLine
 10
190.8073195243917
 20
87.57784779484747
 30
0.0
 11
192.4045179192053
 21
84.36782513490404
 31
0.0
  0
LINE
  5
2C2
330
E3
100
AcDbEntity
  8
Des_ Roofs
  6
Continuous
100
AcDbLine
 10
192.4045176052913
 20
84.36782576056002
 30
0.0
 11
281.8390214966624
 21
41.43926005807382
 31
0.0
  0
LINE
  5
2C3
330
E3
100
AcDbEntity
  8
Des_ Roofs
  6
Continuous
100
AcDbLine
 10
281.8390173042298
 20
48.24109035278357
 30
0.0
 11
163.722766458075
 21
105.2982029855717
 31
0.0
  0
HATCH
  5
2C4
330
E3
100
AcDbEntity
  8
Des_ Roofs
  6
Continuous
 62
   255
370
     0
100
AcDbHatch
 10
0.0
 20
0.0
 30
0.0
210
0.0
220
0.0
230
1.0
  2
SOLID
 70
     1
 71
     0
 91
        2
 92
        3
 72
     0
 73
     1
 93
        4
 10
11.50300716112249
 20
25.02832362983395
 10
281.8390205606229
 20
25.02832362983395
 10
281.8390205606229
 20
202.1643803945743
 10
11.50300716112249
 20
202.1643803945743
 97
        0
 92
        2
 72
     0
 73
     1
 93
        4
 10
199.4072287656888
 20
73.21667747802867
 10
90.39672501403284
 20
73.21667747802867
 10
90.39672501403284
 20
166.7346547158453
 10
199.4072287656888
 20
166.7346547158453
 97
        0
 75
     0
 76
     1
 98
        0
  0
LINE
  5
2C5
330
E3
100
AcDbEntity
  8
Des_ Roofs
  6
Continuous
100
AcDbLine
 10
90.3967216235787
 20
73.21668200629495
 30
0.0
 11
90.3967216235787
 21
166.7346557395038
 31
0.0
  0
LINE
  5
2C6
330
E3
100
AcDbEntity
  8
Des_ Roofs
  6
Continuous
100
AcDbLine
 10
90.3967216235787
 20
166.7346557395038
 30
0.0
 11
199.4072281357927
 21
166.7346557395038
 31
0.0
  0
LINE
  5
2C7
330
E3
100
AcDbEntity
  8
Des_ Roofs
  6
Continuous
100
AcDbLine
 10
199.4072281357927
 20
166.7346557395038
 30
0.0
 11
199.4072281357927
 21
73.21668200629495
 31
0.0
  0
LINE
  5
2C8
330
E3
100
AcDbEntity
  8
Des_ Roofs
  6
Continuous
100
AcDbLine
 10
199.4072281357927
 20
73.21668200629495
 30
0.0
 11
90.3967216235787
 21
73.21668200629495
 31
0.0
  0
MTEXT
  5
2CA
330
E3
100
AcDbEntity
  8
0
  6
Continuous
100
AcDbMText
 10
204.8693638518631
 20
157.2885834140493
 30
0.0
 40
2.499999999999999
 41
56.6835322004004
 71
     4
 72
     1
  1
\A1;{\fCentury Gothic|b0|i0|c0|p34;TRS 7\PMIN. ROOF PITCH 3\fArial|b0|i0|c0|p34;\H1.029412x;\U+00B0}
  7
GENERATED_STYLE_1
 73
     1
 44
1.056356172275314
  0
LINE
  5
2CB
330
E3
100
AcDbEntity
  8
Des_ Roofs
  6
Continuous
100
AcDbLine
 10
185.229721712918
 20
143.7870359430193
 30
0.0
 11
186.7466436592487
 21
147.3405054839717
 31
0.0
  0
LINE
  5
2CC
330
E3
100
AcDbEntity
  8
Des_ Roofs
  6
Continuous
100
AcDbLine
 10
185.229721712918
 20
143.7870359430193
 30
0.0
 11
188.3201514783132
 21
146.1059690775168
 31
0.0
  0
LINE
  5
2CD
330
E3
100
AcDbEntity
  8
Des_ Roofs
  6
Continuous
100
AcDbLine
 10
186.7466436592487
 20
147.3405054839717
 30
0.0
 11
188.3201514783132
 21
146.1059690775168
 31
0.0
  0
LWPOLYLINE
  5
2CE
330
E3
100
AcDbEntity
  8
Des_ Roofs
  6
Continuous
100
AcDbPolyline
 90
        9
 70
   128
 43
0.0
 10
187.5333968227678
 20
146.7232371997385
 10
189.840918010458
 20
149.436946798856
 10
191.9938926500977
 20
151.6962441130847
 10
194.0316618287046
 20
153.5296654110908
 10
195.9935666332962
 20
154.9657469615408
 10
197.9189481508902
 20
156.0330250331011
 10
199.8471474685043
 20
156.7600358944382
 10
201.817505673156
 20
157.1753158142184
 10
203.8693638518631
 20
157.3074010611081
  0
MTEXT
  5
2CF
330
E3
100
AcDbEntity
  8
0
  6
Continuous
100
AcDbMText
 10
204.8693638518631
 20
101.6778216009083
 30
0.0
 40
2.5
 41
62.9542404587124
 71
     4
 72
     1
  1
{NOTCHED TURN-DOWN OVER TRS 7. \P5MM MAX. GAP BETWEEN PAN AND EDGE OF FLASHING}
  7
GENERATED_STYLE_1
 73
     1
 44
1.065340909090909
  0
LINE
  5
2D0
330
E3
100
AcDbEntity
  8
Des_ Roofs
  6
Continuous
100
AcDbLine
 10
186.8326846399364
 20
89.010573733062
 30
0.0
 11
188.0706169238538
 21
92.67059245418153
 31
0.0
  0
LINE
  5
2D1
330
E3
100
AcDbEntity
  8
Des_ Roofs
  6
Continuous
100
AcDbLine
 10
186.8326846399364
 20
89.010573733062
 30
0.0
 11
189.7347741267103
 21
91.561272483126
 31
0.0
  0
LINE
  5
2D2
330
E3
100
AcDbEntity
  8
Des_ Roofs
  6
Continuous
100
AcDbLine
 10
188.0706169238538
 20
92.67059245418153
 30
0.0
 11
189.7347741267103
 21
91.561272483126
 31
0.0
  0
LWPOLYLINE
  5
2D3
330
E3
100
AcDbEntity
  8
Des_ Roofs
  6
Continuous
100
AcDbPolyline
 90
        9
 70
   128
 43
0.0
 10
188.9026964489691
 20
92.11593224125981
 10
190.7414299665297
 20
94.56974251628728
 10
192.5208133535354
 20
96.61360722036108
 10
194.2751073763782
 20
98.27303792226718
 10
196.0385728014499
 20
99.57354619079153
 10
197.8454703951424
 20
100.5406435947201
 10
199.7300609238475
 20
101.1998417028388
 10
201.7266051539571
 20
101.5766520839337
 10
203.8693638518631
 20
101.6965863067907
  0
MTEXT
  5
2D4
330
E3
100
AcDbEntity
  8
0
  6
Continuous
100
AcDbMText
 10
204.8693638518631
 20
121.7369149592688
 30
0.0
 40
2.5
 41
78.98554724178597
 71
     4
 72
     1
  1
{POP RIVET AND SEALANT JOINTS TO JUNCTIONS OF RIDGE AND HIP FLASHINGS}
  7
GENERATED_STYLE_1
 73
     1
 44
1.070162922071087
  0
LINE
  5
2D5
330
E3
100
AcDbEntity
  8
Des_ Roofs
  6
Continuous
100
AcDbLine
 10
160.8824606064502
 20
110.9151274097653
 30
0.0
 11
164.1371936388199
 21
112.9971749283941
 31
0.0
  0
LINE
  5
2D6
330
E3
100
AcDbEntity
  8
Des_ Roofs
  6
Continuous
100
AcDbLine
 10
160.8824606064502
 20
110.9151274097653
 30
0.0
 11
164.7421633676787
 21
111.0908670896886
 31
0.0
  0
LINE
  5
2D7
330
E3
100
AcDbEntity
  8
Des_ Roofs
  6
Continuous
100
AcDbLine
 10
164.1371936388199
 20
112.9971749283941
 30
0.0
 11
164.7421633676787
 21
111.0908670896886
 31
0.0
  0
LWPOLYLINE
  5
2D8
330
E3
100
AcDbEntity
  8
Des_ Roofs
  6
Continuous
100
AcDbPolyline
 90
        8
 70
   128
 43
0.0
 10
164.4396775487791
 20
112.0440198512901
 10
179.3885775413956
 20
116.6219351730357
 10
185.3183316772447
 20
118.3048458441168
 10
190.36326257612
 20
119.6202852988275
 10
194.6321007405203
 20
120.5956736197859
 10
198.2335766729449
 20
121.25843088961
 10
201.2764208758929
 20
121.6359771909179
 10
203.8693638518631
 20
121.7557326063276
  0
MTEXT
  5
2D9
330
E3
100
AcDbEntity
  8
0
  6
Continuous
100
AcDbMText
 10
79.65718581730191
 20
141.182894602966
 30
0.0
 40
2.5
 41
0.0
 71
     6
 72
     1
  1
{TOP RIDGE FLASHING}
  7
GENERATED_STYLE_1
 73
     1
 44
1.0
  0
LINE
  5
2DA
330
E3
100
AcDbEntity
  8
Des_ Roofs
  6
Continuous
100
AcDbLine
 10
131.595208901591
 20
157.5297572576219
 30
0.0
 11
128.4776967113088
 21
155.2473690820082
 31
0.0
  0
LINE
  5
2DB
330
E3
100
AcDbEntity
  8
Des_ Roofs
  6
Continuous
100
AcDbLine
 10
131.595208901591
 20
157.5297572576219
 30
0.0
 11
127.7541693672704
 21
157.1119072250936
 31
0.0
  0
LINE
  5
2DC
330
E3
100
AcDbEntity
  8
Des_ Roofs
  6
Continuous
100
AcDbLine
 10
128.4776967113088
 20
155.2473690820082
 30
0.0
 11
127.7541693672704
 21
157.1119072250936
 31
0.0
  0
LWPOLYLINE
  5
2DD
330
E3
100
AcDbEntity
  8
Des_ Roofs
  6
Continuous
100
AcDbPolyline
 90
        8
 70
   128
 43
0.0
 10
128.1159315033088
 20
156.1796372161719
 10
109.4015083162655
 20
149.1152318666362
 10
102.0891968796895
 20
146.5195786503189
 10
95.96283703277831
 20
144.4914536742341
 10
90.88944238930804
 20
142.9882283893309
 10
86.7360265630546
 20
141.9672742465583
 10
83.3696031677939
 20
141.3859626968654
 10
80.6571858173019
 20
141.2016651912013
  0
MTEXT
  5
2DE
330
E3
100
AcDbEntity
  8
0
  6
Continuous
100
AcDbMText
 10
79.65718581730191
 20
108.1004441064374
 30
0.0
 40
2.5
 41
41.6439835959254
 71
     6
 72
     1
  1
{BUTYL UNDER FLASHING TO RIDGE AND HIP FLASHINGS}
  7
GENERATED_STYLE_1
 73
     1
 44
1.065340909090909
  0
LINE
  5
2DF
330
E3
100
AcDbEntity
  8
Des_ Roofs
  6
Continuous
100
AcDbLine
 10
129.7010706308736
 20
123.5789587157692
 30
0.0
 11
126.5768673937763
 21
121.3057349781472
 31
0.0
  0
LINE
  5
2E0
330
E3
100
AcDbEntity
  8
Des_ Roofs
  6
Continuous
100
AcDbLine
 10
129.7010706308736
 20
123.5789587157692
 30
0.0
 11
125.858818570911
 21
123.1723920198627
 31
0.0
  0
LINE
  5
2E1
330
E3
100
AcDbEntity
  8
Des_ Roofs
  6
Continuous
100
AcDbLine
 10
126.5768673937763
 20
121.3057349781472
 30
0.0
 11
125.858818570911
 21
123.1723920198627
 31
0.0
  0
LWPOLYLINE
  5
2E2
330
E3
100
AcDbEntity
  8
Des_ Roofs
  6
Continuous
100
AcDbPolyline
 90
        8
 70
   128
 43
0.0
 10
126.2178439990332
 20
122.239062232535
 10
108.3950284684757
 20
115.5800991636546
 10
101.4100287793223
 20
113.1331857238244
 10
95.53957029833565
 20
111.2211479917858
 10
90.65635489357796
 20
109.8038587010774
 10
86.63308443311155
 20
108.8411905852378
 10
83.34246078499875
 20
108.2930163778057
 10
80.6571858173019
 20
108.1192088123197
  0
ENDBLK
  5
E5
330
E3
100
AcDbEntity
  8
0
100
AcDbBlockEnd
  0
BLOCK
  5
2EB
330
2EA
100
AcDbEntity
  8
0
100
AcDbBlockBegin
  2
R-TRS7-13 TOP RIDGE - HIP FLASH_STORY_MARKER
 70
     0
 10
0.0
 20
0.0
 30
0.0
  3
R-TRS7-13 TOP RIDGE - HIP FLASH_STORY_MARKER
  1

  0
ENDBLK
  5
2EC
330
2EA
100
AcDbEntity
  8
0
100
AcDbBlockEnd
  0
ENDSEC
  0
SECTION
  2
ENTITIES
  0
HATCH
  5
3F
330
1F
100
AcDbEntity
  8
Doc_ Finishes
  6
Continuous
100
AcDbHatch
 10
0.0
 20
0.0
 30
0.0
210
0.0
220
0.0
230
1.0
  2
SOLID
 70
     1
 71
     0
 91
        1
 92
        3
 72
     0
 73
     1
 93
       54
 10
27.4117749414874
 20
16.87044408857867
 10
26.89356552397386
 20
16.5825499677378
 10
26.5480925789648
 20
16.29465584689693
 10
26.12584786839819
 20
16.02595466744544
 10
25.76118198199976
 20
15.60370995687884
 10
25.39651609560134
 20
15.33500877742737
 10
25.07023609198168
 20
14.89357112547136
 10
24.49444785029994
 20
14.45213347351537
 10
23.93785255000758
 20
14.02988876294876
 10
23.43883607388344
 20
13.81876640766546
 10
22.74789018386533
 20
13.39652169709885
 10
22.09533017662603
 20
12.99346992792163
 10
21.63469958328064
 20
12.55203227596564
 10
20.90536781048376
 20
12.12978756539902
 10
20.59828074825351
 20
11.7459287376112
 10
20.04168544796116
 20
11.28529814426581
 10
19.36993249933246
 20
10.8630534336992
 10
18.73656543348255
 20
10.42161578174319
 10
18.04561954346447
 20
10.15291460229172
 10
17.1051654153843
 20
9.692284008946325
 10
16.39502658397681
 20
9.020531060317637
 10
15.83843128368446
 20
8.598286349751023
 10
15.12829245227699
 20
8.137655756405634
 10
14.84039833143612
 20
7.98411222529051
 10
14.37976773809073
 20
7.81137575278599
 10
14.07268067586046
 20
7.523481631945121
 10
14.0151018516923
 20
7.216394569714853
 10
14.14945244141803
 20
6.890114566095209
 10
14.4373465622589
 20
6.563834562475543
 10
14.8787842142149
 20
6.659799269422514
 10
15.51215128006482
 20
7.06285103859973
 10
16.01116775618899
 20
7.389131042219374
 10
16.33744775980864
 20
7.696218104449641
 10
16.51018423231316
 20
7.907340459732938
 10
17.01303929671522
 20
8.421711288968723
 10
17.33548071205699
 20
8.652026585641417
 10
17.75004824606785
 20
8.99749953065046
 10
18.14158425041142
 20
9.204783297655894
 10
19.24709767444037
 20
9.75754000967037
 10
20.23745345013295
 20
10.47151742935572
 10
21.4120614631637
 20
11.1624633193738
 10
21.84966052684182
 20
11.64612544238645
 10
22.49454335752537
 20
12.06069297639732
 10
23.78430901889248
 20
12.9819541630881
 10
24.3600972605742
 20
13.25833251909534
 10
25.6498629219413
 20
14.24868829478776
 10
25.85714668894673
 20
14.64022429913134
 10
26.68628175696843
 20
15.23904407048036
 10
27.28510152831745
 20
15.72270619349301
 10
27.81482671066464
 20
16.1142421978366
 10
28.27545730401003
 20
16.52880973184745
 10
28.22939424467549
 20
16.7821565581874
 10
28.09120506667188
 20
16.89731420652375
 10
27.56147988432467
 20
16.89731420652375
 97
        0
 75
     0
 76
     1
 98
        0
  0
LINE
  5
41
330
1F
100
AcDbEntity
  8
Doc_ Finishes
  6
Continuous
100
AcDbLine
 10
27.41177566876475
 20
16.87044600708104
 30
0.0
 11
26.89356756490952
 21
16.58254868214004
 31
0.0
  0
LINE
  5
42
330
1F
100
AcDbEntity
  8
Doc_ Finishes
  6
Continuous
100
AcDbLine
 10
26.89356756490952
 20
16.58254868214004
 30
0.0
 11
26.54809254523997
 21
16.29465578284815
 31
0.0
  0
LINE
  5
43
330
1F
100
AcDbEntity
  8
Doc_ Finishes
  6
Continuous
100
AcDbLine
 10
26.54809254523997
 20
16.29465578284815
 30
0.0
 11
26.12584579071597
 21
16.02595249803305
 31
0.0
  0
LINE
  5
44
330
1F
100
AcDbEntity
  8
Doc_ Finishes
  6
Continuous
100
AcDbLine
 10
26.12584579071597
 20
16.02595249803305
 30
0.0
 11
25.76118115656963
 21
15.60371016915814
 31
0.0
  0
LINE
  5
45
330
1F
100
AcDbEntity
  8
Doc_ Finishes
  6
Continuous
100
AcDbLine
 10
25.76118115656963
 20
15.60371016915814
 30
0.0
 11
25.39651652242329
 21
15.33500688434304
 31
0.0
  0
LINE
  5
46
330
1F
100
AcDbEntity
  8
Doc_ Finishes
  6
Continuous
100
AcDbLine
 10
25.39651652242329
 20
15.33500688434304
 30
0.0
 11
25.07023554287962
 21
14.89357051534225
 31
0.0
  0
LINE
  5
47
330
1F
100
AcDbEntity
  8
Doc_ Finishes
  6
Continuous
100
AcDbLine
 10
25.07023554287962
 20
14.89357051534225
 30
0.0
 11
24.49444974429583
 21
14.45213414634146
 31
0.0
  0
LINE
  5
48
330
1F
100
AcDbEntity
  8
Doc_ Finishes
  6
Continuous
100
AcDbLine
 10
24.49444974429583
 20
14.45213414634146
 30
0.0
 11
23.93785356018882
 21
14.02988739181747
 31
0.0
  0
LINE
  5
49
330
1F
100
AcDbEntity
  8
Doc_ Finishes
  6
Continuous
100
AcDbLine
 10
23.93785356018882
 20
14.02988739181747
 30
0.0
 11
23.43883507081038
 21
13.81876622738001
 31
0.0
  0
LINE
  5
4A
330
1F
100
AcDbEntity
  8
Doc_ Finishes
  6
Continuous
100
AcDbLine
 10
23.43883507081038
 20
13.81876622738001
 30
0.0
 11
22.74788945712038
 21
13.39652389850511
 31
0.0
  0
LINE
  5
4B
330
1F
100
AcDbEntity
  8
Doc_ Finishes
  6
Continuous
100
AcDbLine
 10
22.74788945712038
 20
13.39652389850511
 30
0.0
 11
22.09533192368214
 21
12.993471184107
 31
0.0
  0
LINE
  5
4C
330
1F
100
AcDbEntity
  8
Doc_ Finishes
  6
Continuous
100
AcDbLine
 10
22.09533192368214
 20
12.993471184107
 30
0.0
 11
21.63470151455547
 21
12.55203038945712
 31
0.0
  0
LINE
  5
4D
330
1F
100
AcDbEntity
  8
Doc_ Finishes
  6
Continuous
100
AcDbLine
 10
21.63470151455547
 20
12.55203038945712
 30
0.0
 11
20.90536782061369
 21
12.12978806058222
 31
0.0
  0
LINE
  5
4E
330
1F
100
AcDbEntity
  8
Doc_ Finishes
  6
Continuous
100
AcDbLine
 10
20.90536782061369
 20
12.12978806058222
 30
0.0
 11
20.59828088119591
 21
11.74592938630999
 31
0.0
  0
LINE
  5
4F
330
1F
100
AcDbEntity
  8
Doc_ Finishes
  6
Continuous
100
AcDbLine
 10
20.59828088119591
 20
11.74592938630999
 30
0.0
 11
20.0416846970889
 21
11.28529897718332
 31
0.0
  0
LINE
  5
50
330
1F
100
AcDbEntity
  8
Doc_ Finishes
  6
Continuous
100
AcDbLine
 10
20.0416846970889
 20
11.28529897718332
 30
0.0
 11
19.36993312352478
 21
10.86305222265932
 31
0.0
  0
LINE
  5
51
330
1F
100
AcDbEntity
  8
Doc_ Finishes
  6
Continuous
100
AcDbLine
 10
19.36993312352478
 20
10.86305222265932
 30
0.0
 11
18.73656520456333
 21
10.42161585365854
 31
0.0
  0
LINE
  5
52
330
1F
100
AcDbEntity
  8
Doc_ Finishes
  6
Continuous
100
AcDbLine
 10
18.73656520456333
 20
10.42161585365854
 30
0.0
 11
18.04561959087333
 21
10.15291256884343
 31
0.0
  0
LINE
  5
53
330
1F
100
AcDbEntity
  8
Doc_ Finishes
  6
Continuous
100
AcDbLine
 10
18.04561959087333
 20
10.15291256884343
 30
0.0
 11
17.1051647324941
 21
9.692282159716758
 31
0.0
  0
LINE
  5
54
330
1F
100
AcDbEntity
  8
Doc_ Finishes
  6
Continuous
100
AcDbLine
 10
17.1051647324941
 20
9.692282159716758
 30
0.0
 11
16.3950250786782
 21
9.020530586152635
 31
0.0
  0
LINE
  5
55
330
1F
100
AcDbEntity
  8
Doc_ Finishes
  6
Continuous
100
AcDbLine
 10
16.3950250786782
 20
9.020530586152635
 30
0.0
 11
15.8384333202203
 21
8.598288257277733
 31
0.0
  0
LINE
  5
56
330
1F
100
AcDbEntity
  8
Doc_ Finishes
  6
Continuous
100
AcDbLine
 10
15.8384333202203
 20
8.598288257277733
 30
0.0
 11
15.1282936664044
 21
8.137657848151063
 31
0.0
  0
LINE
  5
57
330
1F
100
AcDbEntity
  8
Doc_ Finishes
  6
Continuous
100
AcDbLine
 10
15.1282936664044
 20
8.137657848151063
 30
0.0
 11
14.84039634146341
 21
7.984114378442171
 31
0.0
  0
LINE
  5
58
330
1F
100
AcDbEntity
  8
Doc_ Finishes
  6
Continuous
100
AcDbLine
 10
14.84039634146341
 20
7.984114378442171
 30
0.0
 11
14.37976593233674
 21
7.811376868607396
 31
0.0
  0
LINE
  5
59
330
1F
100
AcDbEntity
  8
Doc_ Finishes
  6
Continuous
100
AcDbLine
 10
14.37976593233674
 20
7.811376868607396
 30
0.0
 11
14.07267899291896
 21
7.523479543666405
 31
0.0
  0
LINE
  5
5A
330
1F
100
AcDbEntity
  8
Doc_ Finishes
  6
Continuous
100
AcDbLine
 10
14.07267899291896
 20
7.523479543666405
 30
0.0
 11
14.0151012981904
 21
7.216392604248622
 31
0.0
  0
LINE
  5
5B
330
1F
100
AcDbEntity
  8
Doc_ Finishes
  6
Continuous
100
AcDbLine
 10
14.0151012981904
 20
7.216392604248622
 30
0.0
 11
14.14945072777341
 21
6.890116050354051
 31
0.0
  0
LINE
  5
5C
330
1F
100
AcDbEntity
  8
Doc_ Finishes
  6
Continuous
100
AcDbLine
 10
14.14945072777341
 20
6.890116050354051
 30
0.0
 11
14.4373480527144
 21
6.563835070810386
 31
0.0
  0
LINE
  5
5D
330
1F
100
AcDbEntity
  8
Doc_ Finishes
  6
Continuous
100
AcDbLine
 10
14.4373480527144
 20
6.563835070810386
 30
0.0
 11
14.87878442171519
 21
6.659800845790715
 31
0.0
  0
LINE
  5
5E
330
1F
100
AcDbEntity
  8
Doc_ Finishes
  6
Continuous
100
AcDbLine
 10
14.87878442171519
 20
6.659800845790715
 30
0.0
 11
15.51215234067663
 21
7.062849134539732
 31
0.0
  0
LINE
  5
5F
330
1F
100
AcDbEntity
  8
Doc_ Finishes
  6
Continuous
100
AcDbLine
 10
15.51215234067663
 20
7.062849134539732
 30
0.0
 11
16.01116640440598
 21
7.389130114083398
 31
0.0
  0
LINE
  5
60
330
1F
100
AcDbEntity
  8
Doc_ Finishes
  6
Continuous
100
AcDbLine
 10
16.01116640440598
 20
7.389130114083398
 30
0.0
 11
16.33744738394964
 21
7.69621705350118
 31
0.0
  0
LINE
  5
61
330
1F
100
AcDbEntity
  8
Doc_ Finishes
  6
Continuous
100
AcDbLine
 10
16.33744738394964
 20
7.69621705350118
 30
0.0
 11
16.51018489378442
 21
7.907342643587726
 31
0.0
  0
LINE
  5
62
330
1F
100
AcDbEntity
  8
Doc_ Finishes
  6
Continuous
100
AcDbLine
 10
16.51018489378442
 20
7.907342643587726
 30
0.0
 11
17.0130404209284
 21
8.421709284028323
 31
0.0
  0
LINE
  5
63
330
1F
100
AcDbEntity
  8
Doc_ Finishes
  6
Continuous
100
AcDbLine
 10
17.0130404209284
 20
8.421709284028323
 30
0.0
 11
17.33547993705743
 21
8.65202448859166
 31
0.0
  0
LINE
  5
64
330
1F
100
AcDbEntity
  8
Doc_ Finishes
  6
Continuous
100
AcDbLine
 10
17.33547993705743
 20
8.65202448859166
 30
0.0
 11
17.75004819040126
 21
8.997499508261212
 31
0.0
  0
LINE
  5
65
330
1F
100
AcDbEntity
  8
Doc_ Finishes
  6
Continuous
100
AcDbLine
 10
17.75004819040126
 20
8.997499508261212
 30
0.0
 11
18.14158536585366
 21
9.204783634933122
 31
0.0
  0
LINE
  5
66
330
1F
100
AcDbEntity
  8
Doc_ Finishes
  6
Continuous
100
AcDbLine
 10
18.14158536585366
 20
9.204783634933122
 30
0.0
 11
19.24709923288749
 21
9.75753835562549
 31
0.0
  0
LINE
  5
67
330
1F
100
AcDbEntity
  8
Doc_ Finishes
  6
Continuous
100
AcDbLine
 10
19.24709923288749
 20
9.75753835562549
 30
0.0
 11
20.23745328481511
 21
10.47151947285602
 31
0.0
  0
LINE
  5
68
330
1F
100
AcDbEntity
  8
Doc_ Finishes
  6
Continuous
100
AcDbLine
 10
20.23745328481511
 20
10.47151947285602
 30
0.0
 11
21.41206038552321
 21
11.16246508654602
 31
0.0
  0
LINE
  5
69
330
1F
100
AcDbEntity
  8
Doc_ Finishes
  6
Continuous
100
AcDbLine
 10
21.41206038552321
 20
11.16246508654602
 30
0.0
 11
21.84965971675846
 21
11.64612657356412
 31
0.0
  0
LINE
  5
6A
330
1F
100
AcDbEntity
  8
Doc_ Finishes
  6
Continuous
100
AcDbLine
 10
21.84965971675846
 20
11.64612657356412
 30
0.0
 11
22.49454317466562
 21
12.06069482690795
 31
0.0
  0
LINE
  5
6B
330
1F
100
AcDbEntity
  8
Doc_ Finishes
  6
Continuous
100
AcDbLine
 10
22.49454317466562
 20
12.06069482690795
 30
0.0
 11
23.78431009047993
 21
12.98195564516129
 31
0.0
  0
LINE
  5
6C
330
1F
100
AcDbEntity
  8
Doc_ Finishes
  6
Continuous
100
AcDbLine
 10
23.78431009047993
 20
12.98195564516129
 30
0.0
 11
24.36009588906373
 21
13.25833300550747
 31
0.0
  0
LINE
  5
6D
330
1F
100
AcDbEntity
  8
Doc_ Finishes
  6
Continuous
100
AcDbLine
 10
24.36009588906373
 20
13.25833300550747
 30
0.0
 11
25.64986280487805
 21
14.24868705743509
 31
0.0
  0
LINE
  5
6E
330
1F
100
AcDbEntity
  8
Doc_ Finishes
  6
Continuous
100
AcDbLine
 10
25.64986280487805
 20
14.24868705743509
 30
0.0
 11
25.85714693154996
 21
14.64022423288749
 31
0.0
  0
LINE
  5
6F
330
1F
100
AcDbEntity
  8
Doc_ Finishes
  6
Continuous
100
AcDbLine
 10
25.85714693154996
 20
14.64022423288749
 30
0.0
 11
26.68628343823761
 21
15.2390455350118
 31
0.0
  0
LINE
  5
70
330
1F
100
AcDbEntity
  8
Doc_ Finishes
  6
Continuous
100
AcDbLine
 10
26.68628343823761
 20
15.2390455350118
 30
0.0
 11
27.28510031471282
 21
15.7227070220299
 31
0.0
  0
LINE
  5
71
330
1F
100
AcDbEntity
  8
Doc_ Finishes
  6
Continuous
100
AcDbLine
 10
27.28510031471282
 20
15.7227070220299
 30
0.0
 11
27.81482838316287
 21
16.1142441974823
 31
0.0
  0
LINE
  5
72
330
1F
100
AcDbEntity
  8
Doc_ Finishes
  6
Continuous
100
AcDbLine
 10
27.81482838316287
 20
16.1142441974823
 30
0.0
 11
28.27545879228953
 21
16.52880802517702
 31
0.0
  0
LINE
  5
73
330
1F
100
AcDbEntity
  8
Doc_ Finishes
  6
Continuous
100
AcDbLine
 10
28.27545879228953
 20
16.52880802517702
 30
0.0
 11
28.22939221085759
 21
16.78215873328088
 31
0.0
  0
LINE
  5
74
330
1F
100
AcDbEntity
  8
Doc_ Finishes
  6
Continuous
100
AcDbLine
 10
28.22939221085759
 20
16.78215873328088
 30
0.0
 11
28.09120574350905
 21
16.897314122738
 31
0.0
  0
LINE
  5
75
330
1F
100
AcDbEntity
  8
Doc_ Finishes
  6
Continuous
100
AcDbLine
 10
28.09120574350905
 20
16.897314122738
 30
0.0
 11
27.56147767505901
 21
16.897314122738
 31
0.0
  0
LINE
  5
76
330
1F
100
AcDbEntity
  8
Doc_ Finishes
  6
Continuous
100
AcDbLine
 10
27.56147767505901
 20
16.897314122738
 30
0.0
 11
27.41177566876475
 21
16.87044600708104
 31
0.0
  0
HATCH
  5
77
330
1F
100
AcDbEntity
  8
Doc_ Finishes
  6
Continuous
100
AcDbHatch
 10
0.0
 20
0.0
 30
0.0
210
0.0
220
0.0
230
1.0
  2
SOLID
 70
     1
 71
     0
 91
        1
 92
        3
 72
     0
 73
     1
 93
       39
 10
27.65360600299377
 20
13.12014334109181
 10
27.21600693931564
 20
12.77467039608275
 10
26.54809257896482
 20
12.24494521373555
 10
25.92624127794851
 20
11.85340920939199
 10
25.32742150659951
 20
11.32368402704478
 10
24.72860173525052
 20
11.04730567103754
 10
24.08371890456698
 20
10.56364354802488
 10
23.62308831122158
 20
10.33332825135219
 10
23.231552306878
 20
10.03391836567767
 10
22.81698477286715
 20
9.619350831666825
 10
22.40241723885631
 20
9.38903553499415
 10
21.91875511584363
 20
9.043562589985086
 10
21.66540828950367
 20
8.859310352646935
 10
21.25084075549282
 20
8.582931996639696
 10
20.09926427212933
 20
7.753796928618002
 10
19.75379132712029
 20
7.477418572610764
 10
19.2931607337749
 20
7.316197864939873
 10
19.22406614477309
 20
6.993756449598113
 10
19.3622553227767
 20
6.717378093590874
 10
19.63863367878394
 20
6.602220445254527
 10
20.00713815346026
 20
6.8325357419272
 10
20.26048497980021
 20
7.131945627601722
 10
20.55989486547472
 20
7.362260924274415
 10
21.31993534449462
 20
7.707733869283458
 10
21.84966052684182
 20
8.122301403294307
 10
22.88607936186895
 20
8.882341882314256
 10
23.20852077721072
 20
9.342972475659646
 10
24.01462431556515
 20
9.734508480003234
 10
24.5673810275796
 20
10.05694989534501
 10
25.46561068460312
 20
10.60970660735953
 10
25.88017821861399
 20
11.07033720070492
 10
26.31777728229212
 20
11.34671555671216
 10
26.70931328663569
 20
11.30065249737762
 10
27.21600693931562
 20
11.55399932371759
 10
28.0681735370046
 20
12.17585062473387
 10
28.41364648201364
 20
12.49829204007566
 10
28.39061495234636
 20
12.77467039608289
 10
28.22939424467547
 20
13.00498569275559
 10
28.04514200733732
 20
13.05104875209013
 97
        0
 75
     0
 76
     1
 98
        0
  0
LINE
  5
78
330
1F
100
AcDbEntity
  8
Doc_ Finishes
  6
Continuous
100
AcDbLine
 10
27.6536064122738
 20
13.12014211250983
 30
0.0
 11
27.21600708103855
 21
12.77467151848938
 31
0.0
  0
LINE
  5
79
330
1F
100
AcDbEntity
  8
Doc_ Finishes
  6
Continuous
100
AcDbLine
 10
27.21600708103855
 20
12.77467151848938
 30
0.0
 11
26.54809254523997
 21
12.24494345003934
 31
0.0
  0
LINE
  5
7A
330
1F
100
AcDbEntity
  8
Doc_ Finishes
  6
Continuous
100
AcDbLine
 10
26.54809254523997
 20
12.24494345003934
 30
0.0
 11
25.92624016522423
 21
11.85341070023603
 31
0.0
  0
LINE
  5
7B
330
1F
100
AcDbEntity
  8
Doc_ Finishes
  6
Continuous
100
AcDbLine
 10
25.92624016522423
 20
11.85341070023603
 30
0.0
 11
25.32742328874902
 21
11.32368263178599
 31
0.0
  0
LINE
  5
7C
330
1F
100
AcDbEntity
  8
Doc_ Finishes
  6
Continuous
100
AcDbLine
 10
25.32742328874902
 20
11.32368263178599
 30
0.0
 11
24.72860198662471
 21
11.04730527143981
 31
0.0
  0
LINE
  5
7D
330
1F
100
AcDbEntity
  8
Doc_ Finishes
  6
Continuous
100
AcDbLine
 10
24.72860198662471
 20
11.04730527143981
 30
0.0
 11
24.08371852871754
 21
10.56364378442171
 31
0.0
  0
LINE
  5
7E
330
1F
100
AcDbEntity
  8
Doc_ Finishes
  6
Continuous
100
AcDbLine
 10
24.08371852871754
 20
10.56364378442171
 30
0.0
 11
23.62308811959087
 21
10.33332857985838
 31
0.0
  0
LINE
  5
7F
330
1F
100
AcDbEntity
  8
Doc_ Finishes
  6
Continuous
100
AcDbLine
 10
23.62308811959087
 20
10.33332857985838
 30
0.0
 11
23.23155094413847
 21
10.03392014162077
 31
0.0
  0
LINE
  5
80
330
1F
100
AcDbEntity
  8
Doc_ Finishes
  6
Continuous
100
AcDbLine
 10
23.23155094413847
 20
10.03392014162077
 30
0.0
 11
22.81698269079465
 21
9.619351888276947
 31
0.0
  0
LINE
  5
81
330
1F
100
AcDbEntity
  8
Doc_ Finishes
  6
Continuous
100
AcDbLine
 10
22.81698269079465
 20
9.619351888276947
 30
0.0
 11
22.40241886309992
 21
9.389036683713611
 31
0.0
  0
LINE
  5
82
330
1F
100
AcDbEntity
  8
Doc_ Finishes
  6
Continuous
100
AcDbLine
 10
22.40241886309992
 20
9.389036683713611
 30
0.0
 11
21.91875295043273
 21
9.04356166404406
 31
0.0
  0
LINE
  5
83
330
1F
100
AcDbEntity
  8
Doc_ Finishes
  6
Continuous
100
AcDbLine
 10
21.91875295043273
 20
9.04356166404406
 30
0.0
 11
21.66540666797797
 21
8.859308615263572
 31
0.0
  0
LINE
  5
84
330
1F
100
AcDbEntity
  8
Doc_ Finishes
  6
Continuous
100
AcDbLine
 10
21.66540666797797
 20
8.859308615263572
 30
0.0
 11
21.25084284028324
 21
8.582931254917387
 31
0.0
  0
LINE
  5
85
330
1F
100
AcDbEntity
  8
Doc_ Finishes
  6
Continuous
100
AcDbLine
 10
21.25084284028324
 20
8.582931254917387
 30
0.0
 11
20.09926239181747
 21
7.75379474822974
 31
0.0
  0
LINE
  5
86
330
1F
100
AcDbEntity
  8
Doc_ Finishes
  6
Continuous
100
AcDbLine
 10
20.09926239181747
 20
7.75379474822974
 30
0.0
 11
19.75379179779701
 21
7.477417387883556
 31
0.0
  0
LINE
  5
87
330
1F
100
AcDbEntity
  8
Doc_ Finishes
  6
Continuous
100
AcDbLine
 10
19.75379179779701
 20
7.477417387883556
 30
0.0
 11
19.29316138867033
 21
7.316199842643588
 31
0.0
  0
LINE
  5
88
330
1F
100
AcDbEntity
  8
Doc_ Finishes
  6
Continuous
100
AcDbLine
 10
19.29316138867033
 20
7.316199842643588
 30
0.0
 11
19.22406815499606
 21
6.993755900865461
 31
0.0
  0
LINE
  5
89
330
1F
100
AcDbEntity
  8
Doc_ Finishes
  6
Continuous
100
AcDbLine
 10
19.22406815499606
 20
6.993755900865461
 30
0.0
 11
19.36225462234461
 21
6.717378540519276
 31
0.0
  0
LINE
  5
8A
330
1F
100
AcDbEntity
  8
Doc_ Finishes
  6
Continuous
100
AcDbLine
 10
19.36225462234461
 20
6.717378540519276
 30
0.0
 11
19.63863198269079
 21
6.602218725413059
 31
0.0
  0
LINE
  5
8B
330
1F
100
AcDbEntity
  8
Doc_ Finishes
  6
Continuous
100
AcDbLine
 10
19.63863198269079
 20
6.602218725413059
 30
0.0
 11
20.00713808025177
 21
6.832533929976396
 31
0.0
  0
LINE
  5
8C
330
1F
100
AcDbEntity
  8
Doc_ Finishes
  6
Continuous
100
AcDbLine
 10
20.00713808025177
 20
6.832533929976396
 30
0.0
 11
20.26048436270653
 21
7.1319467938631
 31
0.0
  0
LINE
  5
8D
330
1F
100
AcDbEntity
  8
Doc_ Finishes
  6
Continuous
100
AcDbLine
 10
20.26048436270653
 20
7.1319467938631
 30
0.0
 11
20.55989280094414
 21
7.362261998426435
 31
0.0
  0
LINE
  5
8E
330
1F
100
AcDbEntity
  8
Doc_ Finishes
  6
Continuous
100
AcDbLine
 10
20.55989280094414
 20
7.362261998426435
 30
0.0
 11
21.31993607395751
 21
7.707732592446892
 31
0.0
  0
LINE
  5
8F
330
1F
100
AcDbEntity
  8
Doc_ Finishes
  6
Continuous
100
AcDbLine
 10
21.31993607395751
 20
7.707732592446892
 30
0.0
 11
21.84965971675846
 21
8.122300845790717
 31
0.0
  0
LINE
  5
90
330
1F
100
AcDbEntity
  8
Doc_ Finishes
  6
Continuous
100
AcDbLine
 10
21.84965971675846
 20
8.122300845790717
 30
0.0
 11
22.88608035011802
 21
8.882339693154996
 31
0.0
  0
LINE
  5
91
330
1F
100
AcDbEntity
  8
Doc_ Finishes
  6
Continuous
100
AcDbLine
 10
22.88608035011802
 20
8.882339693154996
 30
0.0
 11
23.20851986624705
 21
9.342974527930762
 31
0.0
  0
LINE
  5
92
330
1F
100
AcDbEntity
  8
Doc_ Finishes
  6
Continuous
100
AcDbLine
 10
23.20851986624705
 20
9.342974527930762
 30
0.0
 11
24.01462529504327
 21
9.734507277734066
 31
0.0
  0
LINE
  5
93
330
1F
100
AcDbEntity
  8
Doc_ Finishes
  6
Continuous
100
AcDbLine
 10
24.01462529504327
 20
9.734507277734066
 30
0.0
 11
24.56738001573564
 21
10.05695121951219
 31
0.0
  0
LINE
  5
94
330
1F
100
AcDbEntity
  8
Doc_ Finishes
  6
Continuous
100
AcDbLine
 10
24.56738001573564
 20
10.05695121951219
 30
0.0
 11
25.46560975609756
 21
10.60970594020456
 31
0.0
  0
LINE
  5
95
330
1F
100
AcDbEntity
  8
Doc_ Finishes
  6
Continuous
100
AcDbLine
 10
25.46560975609756
 20
10.60970594020456
 30
0.0
 11
25.88017800944139
 21
11.07033634933124
 31
0.0
  0
LINE
  5
96
330
1F
100
AcDbEntity
  8
Doc_ Finishes
  6
Continuous
100
AcDbLine
 10
25.88017800944139
 20
11.07033634933124
 30
0.0
 11
26.31777734067663
 21
11.34671370967742
 31
0.0
  0
LINE
  5
97
330
1F
100
AcDbEntity
  8
Doc_ Finishes
  6
Continuous
100
AcDbLine
 10
26.31777734067663
 20
11.34671370967742
 30
0.0
 11
26.70931451612903
 21
11.30065155389457
 31
0.0
  0
LINE
  5
98
330
1F
100
AcDbEntity
  8
Doc_ Finishes
  6
Continuous
100
AcDbLine
 10
26.70931451612903
 20
11.30065155389457
 30
0.0
 11
27.21600708103855
 21
11.55399783634933
 31
0.0
  0
LINE
  5
99
330
1F
100
AcDbEntity
  8
Doc_ Finishes
  6
Continuous
100
AcDbLine
 10
27.21600708103855
 20
11.55399783634933
 30
0.0
 11
28.06817466561763
 21
12.17585021636507
 31
0.0
  0
LINE
  5
9A
330
1F
100
AcDbEntity
  8
Doc_ Finishes
  6
Continuous
100
AcDbLine
 10
28.06817466561763
 20
12.17585021636507
 30
0.0
 11
28.41364525963808
 21
12.49829415814319
 31
0.0
  0
LINE
  5
9B
330
1F
100
AcDbEntity
  8
Doc_ Finishes
  6
Continuous
100
AcDbLine
 10
28.41364525963808
 20
12.49829415814319
 30
0.0
 11
28.39061418174666
 21
12.77467151848938
 31
0.0
  0
LINE
  5
9C
330
1F
100
AcDbEntity
  8
Doc_ Finishes
  6
Continuous
100
AcDbLine
 10
28.39061418174666
 20
12.77467151848938
 30
0.0
 11
28.22939221085759
 21
13.00498672305271
 31
0.0
  0
LINE
  5
9D
330
1F
100
AcDbEntity
  8
Doc_ Finishes
  6
Continuous
100
AcDbLine
 10
28.22939221085759
 20
13.00498672305271
 30
0.0
 11
28.04514358772619
 21
13.05104887883556
 31
0.0
  0
LINE
  5
9E
330
1F
100
AcDbEntity
  8
Doc_ Finishes
  6
Continuous
100
AcDbLine
 10
28.04514358772619
 20
13.05104887883556
 30
0.0
 11
27.6536064122738
 21
13.12014211250983
 31
0.0
  0
HATCH
  5
9F
330
1F
100
AcDbEntity
  8
Doc_ Finishes
  6
Continuous
100
AcDbHatch
 10
0.0
 20
0.0
 30
0.0
210
0.0
220
0.0
230
1.0
  2
SOLID
 70
     1
 71
     0
 91
        1
 92
        3
 72
     0
 73
     1
 93
       47
 10
28.06817353700456
 20
15.74573772316067
 10
28.30309513961077
 20
15.62136746295728
 10
28.4412843176144
 20
15.4002647781515
 10
28.93876535842742
 20
15.17916209334572
 10
29.82317609765057
 20
14.40530269652538
 10
30.92868952167951
 20
13.74199464210799
 10
31.59199757609689
 20
13.3827027792986
 10
32.20002995931279
 20
13.07868658769064
 10
33.55428390374828
 20
12.08372450606458
 10
34.07940278016201
 20
11.69679480765445
 10
34.88090001258301
 20
11.08876242443854
 10
35.59948373820179
 20
10.50836787682334
 10
36.5668079842271
 20
9.817421986805197
 10
37.06428902504012
 20
9.458130123995785
 10
37.81051058625966
 20
8.933011247582023
 10
38.61200781868061
 20
8.407892371168286
 10
38.77783483228498
 20
8.186789686362482
 10
39.38586721550092
 20
7.744584316750918
 10
40.18736444792187
 20
6.915449248729224
 10
40.7953968311378
 20
6.44560604351692
 10
41.56925622795804
 20
6.169227687509681
 10
42.23256428237543
 20
6.086314180707507
 10
42.48130480278193
 20
6.30741686551329
 10
42.14965077557326
 20
6.611433057121246
 10
41.48634272115586
 20
6.998362755531397
 10
40.76775899553709
 20
7.357654618340788
 10
40.18736444792187
 20
8.048600508358874
 10
38.99893751709079
 20
8.822459905179112
 10
38.47381864067705
 20
9.319940945992132
 10
38.22507812027052
 20
9.734508480003
 10
37.17484036744301
 20
10.31490302761817
 10
36.73263499783144
 20
10.78474623283046
 10
36.2351539570184
 20
11.17167593124059
 10
35.48893239579888
 20
11.61388130085215
 10
34.85326217698223
 20
12.16663801286669
 10
34.35578113616919
 20
12.58120554687754
 10
33.69247308175183
 20
12.99577308088841
 10
33.22262987653953
 20
13.32742710809708
 10
32.7251488357265
 20
13.5761676285036
 10
31.93747052110588
 20
14.06443605744977
 10
31.43077686842594
 20
14.38687747279155
 10
30.92408321574601
 20
14.70931888813342
 10
30.62467333007151
 20
15.100854892477
 10
29.95675896972068
 20
15.67664313415887
 10
29.47309684670803
 20
15.9530214901661
 10
28.82821401602447
 20
16.36758902417695
 10
28.50577260068269
 20
16.22939984617334
 97
        0
 75
     0
 76
     1
 98
        0
  0
LINE
  5
A0
330
1F
100
AcDbEntity
  8
Doc_ Finishes
  6
Continuous
100
AcDbLine
 10
28.30309697088906
 20
15.62136850904799
 30
0.0
 11
28.06817466561763
 21
15.74573809992132
 31
0.0
  0
LINE
  5
A1
330
1F
100
AcDbEntity
  8
Doc_ Finishes
  6
Continuous
100
AcDbLine
 10
28.44128343823761
 20
15.40026308025177
 30
0.0
 11
28.30309697088906
 21
15.62136850904799
 31
0.0
  0
LINE
  5
A2
330
1F
100
AcDbEntity
  8
Doc_ Finishes
  6
Continuous
100
AcDbLine
 10
28.93876622738001
 20
15.17916207710464
 30
0.0
 11
28.44128343823761
 21
15.40026308025177
 31
0.0
  0
LINE
  5
A3
330
1F
100
AcDbEntity
  8
Doc_ Finishes
  6
Continuous
100
AcDbLine
 10
29.82317466561762
 20
14.40530192761605
 30
0.0
 11
28.93876622738001
 21
15.17916207710464
 31
0.0
  0
LINE
  5
A4
330
1F
100
AcDbEntity
  8
Doc_ Finishes
  6
Continuous
100
AcDbLine
 10
30.92868853265146
 20
13.74199449252557
 30
0.0
 11
29.82317466561762
 21
14.40530192761605
 31
0.0
  0
LINE
  5
A5
330
1F
100
AcDbEntity
  8
Doc_ Finishes
  6
Continuous
100
AcDbLine
 10
31.59199596774193
 20
13.3827025963808
 30
0.0
 11
30.92868853265146
 21
13.74199449252557
 31
0.0
  0
LINE
  5
A6
330
1F
100
AcDbEntity
  8
Doc_ Finishes
  6
Continuous
100
AcDbLine
 10
32.20003147128246
 20
13.07868705743509
 30
0.0
 11
31.59199596774193
 21
13.3827025963808
 31
0.0
  0
LINE
  5
A7
330
1F
100
AcDbEntity
  8
Doc_ Finishes
  6
Continuous
100
AcDbLine
 10
33.55428452006294
 20
12.08372590479937
 30
0.0
 11
32.20003147128246
 21
13.07868705743509
 31
0.0
  0
LINE
  5
A8
330
1F
100
AcDbEntity
  8
Doc_ Finishes
  6
Continuous
100
AcDbLine
 10
34.07940106215578
 20
11.69679583005508
 30
0.0
 11
33.55428452006294
 21
12.08372590479937
 31
0.0
  0
LINE
  5
A9
330
1F
100
AcDbEntity
  8
Doc_ Finishes
  6
Continuous
100
AcDbLine
 10
34.8808993902439
 20
11.08876032651456
 30
0.0
 11
34.07940106215578
 21
11.69679583005508
 31
0.0
  0
LINE
  5
AA
330
1F
100
AcDbEntity
  8
Doc_ Finishes
  6
Continuous
100
AcDbLine
 10
35.59948318253343
 20
10.50836742722266
 30
0.0
 11
34.8808993902439
 21
11.08876032651456
 31
0.0
  0
LINE
  5
AB
330
1F
100
AcDbEntity
  8
Doc_ Finishes
  6
Continuous
100
AcDbLine
 10
36.56680615656963
 20
9.817421813532652
 30
0.0
 11
35.59948318253343
 21
10.50836742722266
 31
0.0
  0
LINE
  5
AC
330
1F
100
AcDbEntity
  8
Doc_ Finishes
  6
Continuous
100
AcDbLine
 10
37.06428894571204
 20
9.458129917387884
 30
0.0
 11
36.56680615656963
 21
9.817421813532652
 31
0.0
  0
LINE
  5
AD
330
1F
100
AcDbEntity
  8
Doc_ Finishes
  6
Continuous
100
AcDbLine
 10
37.8105109166011
 20
8.933013375295044
 30
0.0
 11
37.06428894571204
 21
9.458129917387884
 31
0.0
  0
LINE
  5
AE
330
1F
100
AcDbEntity
  8
Doc_ Finishes
  6
Continuous
100
AcDbLine
 10
38.61200924468922
 20
8.407892407553108
 30
0.0
 11
37.8105109166011
 21
8.933013375295044
 31
0.0
  0
LINE
  5
AF
330
1F
100
AcDbEntity
  8
Doc_ Finishes
  6
Continuous
100
AcDbLine
 10
38.77783389063729
 20
8.18679140440598
 30
0.0
 11
38.61200924468922
 21
8.407892407553108
 31
0.0
  0
LINE
  5
B0
330
1F
100
AcDbEntity
  8
Doc_ Finishes
  6
Continuous
100
AcDbLine
 10
39.3858693941778
 20
7.744584972462627
 30
0.0
 11
38.77783389063729
 21
8.18679140440598
 31
0.0
  0
LINE
  5
B1
330
1F
100
AcDbEntity
  8
Doc_ Finishes
  6
Continuous
100
AcDbLine
 10
40.18736329661684
 20
6.915448465774981
 30
0.0
 11
39.3858693941778
 21
7.744584972462627
 31
0.0
  0
LINE
  5
B2
330
1F
100
AcDbEntity
  8
Doc_ Finishes
  6
Continuous
100
AcDbLine
 10
40.79539880015735
 20
6.4456038552321
 30
0.0
 11
40.18736329661684
 21
6.915448465774981
 31
0.0
  0
LINE
  5
B3
330
1F
100
AcDbEntity
  8
Doc_ Finishes
  6
Continuous
100
AcDbLine
 10
41.56925452399685
 20
6.169226494885916
 30
0.0
 11
40.79539880015735
 21
6.4456038552321
 31
0.0
  0
LINE
  5
B4
330
1F
100
AcDbEntity
  8
Doc_ Finishes
  6
Continuous
100
AcDbLine
 10
42.23256638473643
 20
6.086316384736428
 30
0.0
 11
41.56925452399685
 21
6.169226494885916
 31
0.0
  0
LINE
  5
B5
330
1F
100
AcDbEntity
  8
Doc_ Finishes
  6
Continuous
100
AcDbLine
 10
42.48130556648308
 20
6.307417387883556
 30
0.0
 11
42.23256638473643
 21
6.086316384736428
 31
0.0
  0
LINE
  5
B6
330
1F
100
AcDbEntity
  8
Doc_ Finishes
  6
Continuous
100
AcDbLine
 10
42.14965184893784
 20
6.611432926829268
 30
0.0
 11
42.48130556648308
 21
6.307417387883556
 31
0.0
  0
LINE
  5
B7
330
1F
100
AcDbEntity
  8
Doc_ Finishes
  6
Continuous
100
AcDbLine
 10
41.48634441384736
 20
6.998363001573564
 30
0.0
 11
42.14965184893784
 21
6.611432926829268
 31
0.0
  0
LINE
  5
B8
330
1F
100
AcDbEntity
  8
Doc_ Finishes
  6
Continuous
100
AcDbLine
 10
40.76776062155783
 20
7.357654897718332
 30
0.0
 11
41.48634441384736
 21
6.998363001573564
 31
0.0
  0
LINE
  5
B9
330
1F
100
AcDbEntity
  8
Doc_ Finishes
  6
Continuous
100
AcDbLine
 10
40.18736329661684
 20
8.048600511408338
 30
0.0
 11
40.76776062155783
 21
7.357654897718332
 31
0.0
  0
LINE
  5
BA
330
1F
100
AcDbEntity
  8
Doc_ Finishes
  6
Continuous
100
AcDbLine
 10
38.99893931943352
 20
8.822460660896931
 30
0.0
 11
40.18736329661684
 21
8.048600511408338
 31
0.0
  0
LINE
  5
BB
330
1F
100
AcDbEntity
  8
Doc_ Finishes
  6
Continuous
100
AcDbLine
 10
38.47381835169158
 20
9.319939024390242
 30
0.0
 11
38.99893931943352
 21
8.822460660896931
 31
0.0
  0
LINE
  5
BC
330
1F
100
AcDbEntity
  8
Doc_ Finishes
  6
Continuous
100
AcDbLine
 10
38.22507916994492
 20
9.734507277734066
 30
0.0
 11
38.47381835169158
 21
9.319939024390242
 31
0.0
  0
LINE
  5
BD
330
1F
100
AcDbEntity
  8
Doc_ Finishes
  6
Continuous
100
AcDbLine
 10
37.17484166011014
 20
10.31490460267506
 30
0.0
 11
38.22507916994492
 21
9.734507277734066
 31
0.0
  0
LINE
  5
BE
330
1F
100
AcDbEntity
  8
Doc_ Finishes
  6
Continuous
100
AcDbLine
 10
36.7326352281668
 20
10.78474478756884
 30
0.0
 11
37.17484166011014
 21
10.31490460267506
 31
0.0
  0
LINE
  5
BF
330
1F
100
AcDbEntity
  8
Doc_ Finishes
  6
Continuous
100
AcDbLine
 10
36.23515243902439
 20
11.17167486231314
 30
0.0
 11
36.7326352281668
 21
10.78474478756884
 31
0.0
  0
LINE
  5
C0
330
1F
100
AcDbEntity
  8
Doc_ Finishes
  6
Continuous
100
AcDbLine
 10
35.48893046813532
 20
11.61388129425649
 30
0.0
 11
36.23515243902439
 21
11.17167486231314
 31
0.0
  0
LINE
  5
C1
330
1F
100
AcDbEntity
  8
Doc_ Finishes
  6
Continuous
100
AcDbLine
 10
34.85326121164437
 20
12.16663601494886
 30
0.0
 11
35.48893046813532
 21
11.61388129425649
 31
0.0
  0
LINE
  5
C2
330
1F
100
AcDbEntity
  8
Doc_ Finishes
  6
Continuous
100
AcDbLine
 10
34.35578284815106
 20
12.58120426829268
 30
0.0
 11
34.85326121164437
 21
12.16663601494886
 31
0.0
  0
LINE
  5
C3
330
1F
100
AcDbEntity
  8
Doc_ Finishes
  6
Continuous
100
AcDbLine
 10
33.69247098741149
 20
12.99577252163651
 30
0.0
 11
34.35578284815106
 21
12.58120426829268
 31
0.0
  0
LINE
  5
C4
330
1F
100
AcDbEntity
  8
Doc_ Finishes
  6
Continuous
100
AcDbLine
 10
33.2226308025177
 20
13.32742623918175
 30
0.0
 11
33.69247098741149
 21
12.99577252163651
 31
0.0
  0
LINE
  5
C5
330
1F
100
AcDbEntity
  8
Doc_ Finishes
  6
Continuous
100
AcDbLine
 10
32.7251480133753
 20
13.5761654209284
 30
0.0
 11
33.2226308025177
 21
13.32742623918175
 31
0.0
  0
LINE
  5
C6
330
1F
100
AcDbEntity
  8
Doc_ Finishes
  6
Continuous
100
AcDbLine
 10
31.93747098741148
 20
14.0644340086546
 30
0.0
 11
32.7251480133753
 21
13.5761654209284
 31
0.0
  0
LINE
  5
C7
330
1F
100
AcDbEntity
  8
Doc_ Finishes
  6
Continuous
100
AcDbLine
 10
31.43077842250197
 20
14.38687795043273
 30
0.0
 11
31.93747098741148
 21
14.0644340086546
 31
0.0
  0
LINE
  5
C8
330
1F
100
AcDbEntity
  8
Doc_ Finishes
  6
Continuous
100
AcDbLine
 10
30.92408143194335
 20
14.70931746656176
 30
0.0
 11
31.43077842250197
 21
14.38687795043273
 31
0.0
  0
LINE
  5
C9
330
1F
100
AcDbEntity
  8
Doc_ Finishes
  6
Continuous
100
AcDbLine
 10
30.62467299370574
 20
15.10085464201416
 30
0.0
 11
30.92408143194335
 21
14.70931746656176
 31
0.0
  0
LINE
  5
CA
330
1F
100
AcDbEntity
  8
Doc_ Finishes
  6
Continuous
100
AcDbLine
 10
29.95675845790716
 20
15.67664486624705
 30
0.0
 11
30.62467299370574
 21
15.10085464201416
 31
0.0
  0
LINE
  5
CB
330
1F
100
AcDbEntity
  8
Doc_ Finishes
  6
Continuous
100
AcDbLine
 10
29.47309697088906
 20
15.95302222659323
 30
0.0
 11
29.95675845790716
 21
15.67664486624705
 31
0.0
  0
LINE
  5
CC
330
1F
100
AcDbEntity
  8
Doc_ Finishes
  6
Continuous
100
AcDbLine
 10
28.8282135129819
 20
16.36759047993706
 30
0.0
 11
29.47309697088906
 21
15.95302222659323
 31
0.0
  0
LINE
  5
CD
330
1F
100
AcDbEntity
  8
Doc_ Finishes
  6
Continuous
100
AcDbLine
 10
28.50577399685287
 20
16.22939958693942
 30
0.0
 11
28.8282135129819
 21
16.36759047993706
 31
0.0
  0
LINE
  5
CE
330
1F
100
AcDbEntity
  8
Doc_ Finishes
  6
Continuous
100
AcDbLine
 10
28.06817466561763
 20
15.74573809992132
 30
0.0
 11
28.50577399685287
 21
16.22939958693942
 31
0.0
  0
LINE
  5
CF
330
1F
100
AcDbEntity
  8
Doc_ Finishes
  6
Continuous
 62
   254
370
    18
100
AcDbLine
 10
97.43333792289535
 20
5.093360051140834
 30
0.0
 11
97.43333792289535
 21
20.69901750590086
 31
0.0
  0
LINE
  5
D0
330
1F
100
AcDbEntity
  8
Doc_ Finishes
  6
Continuous
 62
   254
370
    18
100
AcDbLine
 10
7.000000491738787
 20
20.69901750590086
 30
0.0
 11
290.2406840086546
 21
20.69901750590086
 31
0.0
  0
LINE
  5
D1
330
1F
100
AcDbEntity
  8
Doc_ Finishes
  6
Continuous
 62
   254
370
    18
100
AcDbLine
 10
290.2406840086546
 20
20.69901750590086
 30
0.0
 11
290.2406840086546
 21
5.000000983477577
 31
0.0
  0
LINE
  5
D2
330
1F
100
AcDbEntity
  8
Doc_ Finishes
  6
Continuous
 62
   254
370
    18
100
AcDbLine
 10
290.2406840086546
 20
5.000000983477577
 30
0.0
 11
7.000000491738787
 21
5.000000983477577
 31
0.0
  0
LINE
  5
D3
330
1F
100
AcDbEntity
  8
Doc_ Finishes
  6
Continuous
 62
   254
370
    18
100
AcDbLine
 10
7.000000491738787
 20
20.69901750590086
 30
0.0
 11
7.000000491738787
 21
5.000000983477577
 31
0.0
  0
LINE
  5
D4
330
1F
100
AcDbEntity
  8
Doc_ Finishes
  6
Continuous
 62
   254
370
    18
100
AcDbLine
 10
190.2919443351691
 20
5.093360051140834
 30
0.0
 11
190.2919443351691
 21
20.69901750590086
 31
0.0
  0
LINE
  5
D5
330
1F
100
AcDbEntity
  8
Doc_ Finishes
  6
Continuous
 62
   254
370
    18
100
AcDbLine
 10
190.2919443351691
 20
12.8961909913454
 30
0.0
 11
290.2406840086546
 21
12.8961909913454
 31
0.0
  0
MTEXT
  5
D7
330
1F
100
AcDbEntity
  8
0
  6
Continuous
100
AcDbMText
 10
210.3494767103412
 20
15.00227993155626
 30
0.0
 40
2.25
 41
0.0
 71
     7
 72
     1
  1
{R-TRS7-13}
  7
GENERATED_STYLE_1
 73
     1
 44
1.0
  0
MTEXT
  5
D8
330
1F
100
AcDbEntity
  8
0
  6
Continuous
100
AcDbMText
 10
210.3494767103412
 20
11.03300550383743
 30
0.0
 40
3.0
 41
0.0
 71
     1
 72
     1
  1
{TOP RIDGE - HIP FLASHING DETAIL}
  7
GENERATED_STYLE_1
 73
     1
 44
1.0
  0
MTEXT
  5
DA
330
1F
100
AcDbEntity
  8
Doc_ Floor
  6
Continuous
100
AcDbMText
 10
29.78353726544612
 20
13.33283672870609
 30
0.0
 40
5.603347280334726
 41
0.0
 71
     1
 72
     1
  1
{The Roofing Store}
  7
GENERATED_STYLE_2
 73
     1
 44
1.0
  0
MTEXT
  5
DC
102
{ACAD_XDICTIONARY
360
318
102
}
330
1F
100
AcDbEntity
  8
0
  6
Continuous
100
AcDbMText
 10
102.7389238446655
 20
6.378784417288156
 30
0.0
 40
1.5
 41
0.0
 71
     7
 72
     1
  1
{P: HEAD OFFICE              09 277 2717\P    ALBANY             09 972 0060\P    KATIKAIT            07 549 5190\P    WELLINGTON              04 974 5792\P    CHRISTCHURCH          03 348 6528}
  7
GENERATED_STYLE_1
 73
     1
 44
1.062946161486498
  0
MTEXT
  5
DD
330
1F
100
AcDbEntity
  8
0
  6
Continuous
100
AcDbMText
 10
149.4184566143587
 20
9.199084231526156
 30
0.0
 40
1.5
 41
0.0
 71
     7
 72
     1
  1
{WEB: www.theroofingstore.co.nz}
  7
GENERATED_STYLE_1
 73
     1
 44
1.0
  0
MTEXT
  5
DE
330
1F
100
AcDbEntity
  8
0
  6
Continuous
100
AcDbMText
 10
149.4184566143587
 20
6.620946023411263
 30
0.0
 40
1.5
 41
0.0
 71
     7
 72
     1
  1
{Copyright \U+00A9 The Roofing Store 2013}
  7
GENERATED_STYLE_1
 73
     1
 44
1.0
  0
MTEXT
  5
DF
330
1F
100
AcDbEntity
  8
0
  6
Continuous
100
AcDbMText
 10
273.9546684065315
 20
15.01594826540159
 30
0.0
 40
2.25
 41
0.0
 71
     7
 72
     1
  1
{1:50}
  7
GENERATED_STYLE_1
 73
     1
 44
1.0
  0
MTEXT
  5
E0
330
1F
100
AcDbEntity
  8
0
  6
Continuous
100
AcDbMText
 10
264.8396605309016
 20
15.51746459162148
 30
0.0
 40
1.5
 41
0.0
 71
     7
 72
     1
  1
{SCALE:}
  7
GENERATED_STYLE_1
 73
     1
 44
1.0
  0
MTEXT
  5
E1
330
1F
100
AcDbEntity
  8
0
  6
Continuous
100
AcDbMText
 10
191.5066235617487
 20
15.48695559872207
 30
0.0
 40
1.5
 41
0.0
 71
     7
 72
     1
  1
{DETAIL NUMBER:}
  7
GENERATED_STYLE_1
 73
     1
 44
1.0
  0
MTEXT
  5
E2
330
1F
100
AcDbEntity
  8
0
  6
Continuous
100
AcDbMText
 10
191.5066235617487
 20
9.005462392315325
 30
0.0
 40
1.5
 41
0.0
 71
     7
 72
     1
  1
{TITLE:}
  7
GENERATED_STYLE_1
 73
     1
 44
1.0
  0
INSERT
  5
2E3
102
{ACAD_XDICTIONARY
360
2E4
102
}
330
1F
100
AcDbEntity
  8
0
  6
Continuous
100
AcDbBlockReference
  2
Drawing_1_2
 10
175.8221134962063
 20
91.63606455647218
 30
0.0
  0
HATCH
  5
2E7
330
1F
100
AcDbEntity
  8
0
  6
Continuous
 62
   255
370
    18
100
AcDbHatch
 10
0.0
 20
0.0
 30
0.0
210
0.0
220
0.0
230
1.0
  2
SOLID
 70
     1
 71
     1
 91
        1
 92
        3
 72
     0
 73
     1
 93
        4
 10
273.3048340926641
 20
18.76127115967694
 10
281.1157441007591
 20
18.76127115967694
 10
281.1157441007591
 20
13.60607055433428
 10
273.3048340926641
 20
13.60607055433428
 97
        1
330
2E8
 75
     0
 76
     1
 98
        0
  0
LWPOLYLINE
  5
2E8
102
{ACAD_REACTORS
330
2E7
102
}
330
1F
100
AcDbEntity
  8
0
  6
Continuous
 62
   255
370
    18
100
AcDbPolyline
 90
        4
 70
   129
 43
0.0
 10
273.3048340926641
 20
18.76127115967694
 10
281.1157441007591
 20
18.76127115967694
 10
281.1157441007591
 20
13.60607055433428
 10
273.3048340926641
 20
13.60607055433428
  0
MTEXT
  5
2E9
330
1F
100
AcDbEntity
  8
0
  6
Continuous
100
AcDbMText
 10
273.3048340926641
 20
15.04971009924697
 30
0.0
 40
2.0
 41
0.0
 71
     7
 72
     1
  1
{NTS}
  7
GENERATED_STYLE_1
 73
     1
 44
1.0
  0
ENDSEC
  0
SECTION
  2
OBJECTS
  0
DICTIONARY
  5
C
330
0
100
AcDbDictionary
281
     1
  3
ACAD_GROUP
350
D
  3
ACAD_LAYOUT
350
1A
  3
ACAD_MATERIAL
350
3B
  3
ACAD_MLEADERSTYLE
350
313
  3
ACAD_MLINESTYLE
350
17
  3
ACAD_PLOTSETTINGS
350
19
  3
ACAD_PLOTSTYLENAME
350
E
  3
ACAD_SCALELIST
350
2ED
  3
ACAD_VISUALSTYLE
350
2A
  3
AcDbVariableDictionary
350
311
  3
WATERMARKS
350
30F
  0
DICTIONARY
  5
318
330
DC
100
AcDbDictionary
280
     1
281
     1
  3
ACAD_MTEXT_RT
360
319
  0
DICTIONARY
  5
2E4
330
2E3
100
AcDbDictionary
280
     1
281
     1
  3
ACAD_FILTER
360
2E5
  0
DICTIONARY
  5
D
102
{ACAD_REACTORS
330
C
102
}
330
C
100
AcDbDictionary
281
     1
  0
DICTIONARY
  5
1A
102
{ACAD_REACTORS
330
C
102
}
330
C
100
AcDbDictionary
281
     1
  3
Layout1
350
1E
  3
Model
350
22
  0
DICTIONARY
  5
3B
102
{ACAD_REACTORS
330
C
102
}
330
C
100
AcDbDictionary
281
     1
  3
ByBlock
350
3D
  3
ByLayer
350
3C
  3
Global
350
3E
  0
DICTIONARY
  5
313
102
{ACAD_REACTORS
330
C
102
}
330
C
100
AcDbDictionary
281
     1
  0
DICTIONARY
  5
17
102
{ACAD_REACTORS
330
C
102
}
330
C
100
AcDbDictionary
281
     1
  3
Standard
350
18
  0
DICTIONARY
  5
19
102
{ACAD_REACTORS
330
C
102
}
330
C
100
AcDbDictionary
281
     1
  0
ACDBDICTIONARYWDFLT
  5
E
102
{ACAD_REACTORS
330
C
102
}
330
C
100
AcDbDictionary
281
     1
  3
Normal
350
F
100
AcDbDictionaryWithDefault
340
F
  0
DICTIONARY
  5
2ED
102
{ACAD_REACTORS
330
C
102
}
330
C
100
AcDbDictionary
281
     1
  3
A0
350
2EE
  3
A1
350
2EF
  3
A2
350
2F0
  3
A3
350
2F1
  3
A4
350
2F2
  3
A5
350
2F3
  3
A6
350
2F4
  3
A7
350
2F5
  3
A8
350
2F6
  3
A9
350
2F7
  3
B0
350
2F8
  3
B1
350
2F9
  3
B2
350
2FA
  3
B3
350
2FB
  3
B4
350
2FC
  3
B5
350
2FD
  3
B6
350
2FE
  3
B7
350
2FF
  3
B8
350
300
  3
B9
350
301
  3
C0
350
302
  3
C1
350
303
  3
C2
350
304
  3
C3
350
305
  3
C4
350
306
  3
C5
350
307
  3
C6
350
308
  3
C7
350
309
  3
C8
350
30A
  3
C9
350
30B
  3
D0
350
30C
  3
D1
350
30D
  3
D2
350
30E
  0
DICTIONARY
  5
2A
102
{ACAD_REACTORS
330
C
102
}
330
C
100
AcDbDictionary
281
     1
  3
2dWireframe
350
2F
  3
3D Hidden
350
31
  3
3dWireframe
350
30
  3
Basic
350
32
  3
Brighten
350
36
  3
ColorChange
350
3A
  3
Conceptual
350
34
  3
Dim
350
35
  3
Facepattern
350
39
  3
Flat
350
2B
  3
FlatWithEdges
350
2C
  3
Gouraud
350
2D
  3
GouraudWithEdges
350
2E
  3
Linepattern
350
38
  3
Realistic
350
33
  3
Thicken
350
37
  0
DICTIONARY
  5
311
102
{ACAD_REACTORS
330
C
102
}
330
C
100
AcDbDictionary
281
     1
  3
CANNOSCALE
350
315
  3
DIMASSOC
350
316
  3
HIDETEXT
350
317
  3
XCLIPFRAME
350
314
  0
DICTIONARY
  5
30F
102
{ACAD_REACTORS
330
C
102
}
330
C
100
AcDbDictionary
281
     1
  3
AC_WATERMARK
350
310
  0
XRECORD
  5
319
102
{ACAD_REACTORS
330
318
102
}
330
318
100
AcDbXrecord
280
     1
 40
956118.0
  1
{P: HEAD OFFICE ^I^I09 277 2717\P    ALBANY ^I^I09 972 0060\P    KATIKAIT^I^I07 549 5190\P    WELLINGTON^I^I04 974 5792\P    CHRISTCHURCH^I^I03 348 6528}
  0
DICTIONARY
  5
2E5
102
{ACAD_REACTORS
330
2E4
102
}
330
2E4
100
AcDbDictionary
280
     1
281
     1
  3
SPATIAL
360
2E6
  0
LAYOUT
  5
1E
102
{ACAD_REACTORS
330
1A
102
}
330
1A
100
AcDbPlotSettings
  1

  2
none_device
  4

  6

 40
0.0
 41
0.0
 42
0.0
 43
0.0
 44
0.0
 45
0.0
 46
0.0
 47
0.0
 48
0.0
 49
0.0
140
0.0
141
0.0
142
1.0
143
1.0
 70
   688
 72
     0
 73
     0
 74
     5
  7

 75
    16
147
1.0
148
0.0
149
0.0
100
AcDbLayout
  1
Layout1
 70
     1
 71
     1
 10
0.0
 20
0.0
 11
12.0
 21
9.0
 12
0.0
 22
0.0
 32
0.0
 14
1.000000000000000E+20
 24
1.000000000000000E+20
 34
1.000000000000000E+20
 15
-1.000000000000000E+20
 25
-1.000000000000000E+20
 35
-1.000000000000000E+20
146
0.0
 13
0.0
 23
0.0
 33
0.0
 16
1.0
 26
0.0
 36
0.0
 17
0.0
 27
1.0
 37
0.0
 76
     0
330
1B
  0
LAYOUT
  5
22
102
{ACAD_REACTORS
330
1A
102
}
330
1A
100
AcDbPlotSettings
  1

  2
none_device
  4

  6

 40
0.0
 41
0.0
 42
0.0
 43
0.0
 44
0.0
 45
0.0
 46
0.0
 47
0.0
 48
0.0
 49
0.0
140
0.0
141
0.0
142
1.0
143
1.0
 70
  1712
 72
     0
 73
     0
 74
     0
  7

 75
     0
147
1.0
148
0.0
149
0.0
100
AcDbLayout
  1
Model
 70
     1
 71
     0
 10
0.0
 20
0.0
 11
12.0
 21
9.0
 12
0.0
 22
0.0
 32
0.0
 14
1.000000000000000E+20
 24
1.000000000000000E+20
 34
1.000000000000000E+20
 15
-1.000000000000000E+20
 25
-1.000000000000000E+20
 35
-1.000000000000000E+20
146
0.0
 13
0.0
 23
0.0
 33
0.0
 16
1.0
 26
0.0
 36
0.0
 17
0.0
 27
1.0
 37
0.0
 76
     0
330
1F
331
29
  0
MATERIAL
  5
3D
102
{ACAD_REACTORS
330
3B
102
}
102
{ACAD_XDICTIONARY
360
33C
102
}
330
3B
100
AcDbMaterial
  1
ByBlock
  0
MATERIAL
  5
3C
102
{ACAD_REACTORS
330
3B
102
}
102
{ACAD_XDICTIONARY
360
33A
102
}
330
3B
100
AcDbMaterial
  1
ByLayer
  0
MATERIAL
  5
3E
102
{ACAD_REACTORS
330
3B
102
}
102
{ACAD_XDICTIONARY
360
33E
102
}
330
3B
100
AcDbMaterial
  1
Global
  0
MLINESTYLE
  5
18
102
{ACAD_REACTORS
330
17
102
}
330
17
100
AcDbMlineStyle
  2
Standard
 70
     0
  3

 62
   256
 51
90.0
 52
90.0
 71
     2
 49
0.5
 62
   256
  6
BYLAYER
 49
-0.5
 62
   256
  6
BYLAYER
  0
ACDBPLACEHOLDER
  5
F
102
{ACAD_REACTORS
330
E
102
}
330
E
  0
SCALE
  5
2EE
102
{ACAD_REACTORS
330
2ED
102
}
330
2ED
100
AcDbScale
 70
     0
300
1:1
140
1.0
141
1.0
290
     1
  0
SCALE
  5
2EF
102
{ACAD_REACTORS
330
2ED
102
}
330
2ED
100
AcDbScale
 70
     0
300
1:2
140
1.0
141
2.0
290
     0
  0
SCALE
  5
2F0
102
{ACAD_REACTORS
330
2ED
102
}
330
2ED
100
AcDbScale
 70
     0
300
1:4
140
1.0
141
4.0
290
     0
  0
SCALE
  5
2F1
102
{ACAD_REACTORS
330
2ED
102
}
330
2ED
100
AcDbScale
 70
     0
300
1:5
140
1.0
141
5.0
290
     0
  0
SCALE
  5
2F2
102
{ACAD_REACTORS
330
2ED
102
}
330
2ED
100
AcDbScale
 70
     0
300
1:8
140
1.0
141
8.0
290
     0
  0
SCALE
  5
2F3
102
{ACAD_REACTORS
330
2ED
102
}
330
2ED
100
AcDbScale
 70
     0
300
1:10
140
1.0
141
10.0
290
     0
  0
SCALE
  5
2F4
102
{ACAD_REACTORS
330
2ED
102
}
330
2ED
100
AcDbScale
 70
     0
300
1:16
140
1.0
141
16.0
290
     0
  0
SCALE
  5
2F5
102
{ACAD_REACTORS
330
2ED
102
}
330
2ED
100
AcDbScale
 70
     0
300
1:20
140
1.0
141
20.0
290
     0
  0
SCALE
  5
2F6
102
{ACAD_REACTORS
330
2ED
102
}
330
2ED
100
AcDbScale
 70
     0
300
1:30
140
1.0
141
30.0
290
     0
  0
SCALE
  5
2F7
102
{ACAD_REACTORS
330
2ED
102
}
330
2ED
100
AcDbScale
 70
     0
300
1:40
140
1.0
141
40.0
290
     0
  0
SCALE
  5
2F8
102
{ACAD_REACTORS
330
2ED
102
}
330
2ED
100
AcDbScale
 70
     0
300
1:50
140
1.0
141
50.0
290
     0
  0
SCALE
  5
2F9
102
{ACAD_REACTORS
330
2ED
102
}
330
2ED
100
AcDbScale
 70
     0
300
1:100
140
1.0
141
100.0
290
     0
  0
SCALE
  5
2FA
102
{ACAD_REACTORS
330
2ED
102
}
330
2ED
100
AcDbScale
 70
     0
300
2:1
140
2.0
141
1.0
290
     0
  0
SCALE
  5
2FB
102
{ACAD_REACTORS
330
2ED
102
}
330
2ED
100
AcDbScale
 70
     0
300
4:1
140
4.0
141
1.0
290
     0
  0
SCALE
  5
2FC
102
{ACAD_REACTORS
330
2ED
102
}
330
2ED
100
AcDbScale
 70
     0
300
8:1
140
8.0
141
1.0
290
     0
  0
SCALE
  5
2FD
102
{ACAD_REACTORS
330
2ED
102
}
330
2ED
100
AcDbScale
 70
     0
300
10:1
140
10.0
141
1.0
290
     0
  0
SCALE
  5
2FE
102
{ACAD_REACTORS
330
2ED
102
}
330
2ED
100
AcDbScale
 70
     0
300
100:1
140
100.0
141
1.0
290
     0
  0
SCALE
  5
2FF
102
{ACAD_REACTORS
330
2ED
102
}
330
2ED
100
AcDbScale
 70
     0
300
1/128" = 1'-0"
140
0.0078125
141
12.0
290
     0
  0
SCALE
  5
300
102
{ACAD_REACTORS
330
2ED
102
}
330
2ED
100
AcDbScale
 70
     0
300
1/64" = 1'-0"
140
0.015625
141
12.0
290
     0
  0
SCALE
  5
301
102
{ACAD_REACTORS
330
2ED
102
}
330
2ED
100
AcDbScale
 70
     0
300
1/32" = 1'-0"
140
0.03125
141
12.0
290
     0
  0
SCALE
  5
302
102
{ACAD_REACTORS
330
2ED
102
}
330
2ED
100
AcDbScale
 70
     0
300
1/16" = 1'-0"
140
0.0625
141
12.0
290
     0
  0
SCALE
  5
303
102
{ACAD_REACTORS
330
2ED
102
}
330
2ED
100
AcDbScale
 70
     0
300
3/32" = 1'-0"
140
0.09375
141
12.0
290
     0
  0
SCALE
  5
304
102
{ACAD_REACTORS
330
2ED
102
}
330
2ED
100
AcDbScale
 70
     0
300
1/8" = 1'-0"
140
0.125
141
12.0
290
     0
  0
SCALE
  5
305
102
{ACAD_REACTORS
330
2ED
102
}
330
2ED
100
AcDbScale
 70
     0
300
3/16" = 1'-0"
140
0.1875
141
12.0
290
     0
  0
SCALE
  5
306
102
{ACAD_REACTORS
330
2ED
102
}
330
2ED
100
AcDbScale
 70
     0
300
1/4" = 1'-0"
140
0.25
141
12.0
290
     0
  0
SCALE
  5
307
102
{ACAD_REACTORS
330
2ED
102
}
330
2ED
100
AcDbScale
 70
     0
300
3/8" = 1'-0"
140
0.375
141
12.0
290
     0
  0
SCALE
  5
308
102
{ACAD_REACTORS
330
2ED
102
}
330
2ED
100
AcDbScale
 70
     0
300
1/2" = 1'-0"
140
0.5
141
12.0
290
     0
  0
SCALE
  5
309
102
{ACAD_REACTORS
330
2ED
102
}
330
2ED
100
AcDbScale
 70
     0
300
3/4" = 1'-0"
140
0.75
141
12.0
290
     0
  0
SCALE
  5
30A
102
{ACAD_REACTORS
330
2ED
102
}
330
2ED
100
AcDbScale
 70
     0
300
1" = 1'-0"
140
1.0
141
12.0
290
     0
  0
SCALE
  5
30B
102
{ACAD_REACTORS
330
2ED
102
}
330
2ED
100
AcDbScale
 70
     0
300
1-1/2" = 1'-0"
140
1.5
141
12.0
290
     0
  0
SCALE
  5
30C
102
{ACAD_REACTORS
330
2ED
102
}
330
2ED
100
AcDbScale
 70
     0
300
3" = 1'-0"
140
3.0
141
12.0
290
     0
  0
SCALE
  5
30D
102
{ACAD_REACTORS
330
2ED
102
}
330
2ED
100
AcDbScale
 70
     0
300
6" = 1'-0"
140
6.0
141
12.0
290
     0
  0
SCALE
  5
30E
102
{ACAD_REACTORS
330
2ED
102
}
330
2ED
100
AcDbScale
 70
     0
300
1'-0" = 1'-0"
140
12.0
141
12.0
290
     0
  0
VISUALSTYLE
  5
2F
102
{ACAD_REACTORS
330
2A
102
}
102
{ACAD_XDICTIONARY
360
322
102
}
330
2A
100
AcDbVisualStyle
  2
2dWireframe
 70
     4
 71
     0
 72
     2
 73
     0
 90
        0
 40
-0.6
 41
-30.0
 62
     5
 63
     7
 74
     1
 91
        4
 64
     7
 65
   257
 75
     1
175
     1
 42
1.0
 92
        0
 66
   257
 43
1.0
 76
     1
 77
     6
 78
     2
 67
     7
 79
     5
170
     0
171
     0
290
     0
174
     0
 93
        1
 44
0.0
173
     0
291
     0
 45
0.0
1001
ACAD
1000
AcDbSavedByObjectVersion
1070
     0
  0
VISUALSTYLE
  5
31
102
{ACAD_REACTORS
330
2A
102
}
102
{ACAD_XDICTIONARY
360
326
102
}
330
2A
100
AcDbVisualStyle
  2
3D Hidden
 70
     6
 71
     1
 72
     2
 73
     2
 90
        0
 40
-0.6
 41
-30.0
 62
     5
 63
     7
 74
     2
 91
        2
 64
     7
 65
   257
 75
     2
175
     1
 42
40.0
 92
        0
 66
   257
 43
1.0
 76
     1
 77
     6
 78
     2
 67
     7
 79
     3
170
     0
171
     0
290
     0
174
     0
 93
        1
 44
0.0
173
     0
291
     0
 45
0.0
1001
ACAD
1000
AcDbSavedByObjectVersion
1070
     0
  0
VISUALSTYLE
  5
30
102
{ACAD_REACTORS
330
2A
102
}
102
{ACAD_XDICTIONARY
360
324
102
}
330
2A
100
AcDbVisualStyle
  2
3dWireframe
 70
     5
 71
     0
 72
     2
 73
     0
 90
        0
 40
-0.6
 41
-30.0
 62
     5
 63
     7
 74
     1
 91
        4
 64
     7
 65
   257
 75
     1
175
     1
 42
1.0
 92
        0
 66
   257
 43
1.0
 76
     1
 77
     6
 78
     2
 67
     7
 79
     5
170
     0
171
     0
290
     0
174
     0
 93
        1
 44
0.0
173
     0
291
     0
 45
0.0
1001
ACAD
1000
AcDbSavedByObjectVersion
1070
     0
  0
VISUALSTYLE
  5
32
102
{ACAD_REACTORS
330
2A
102
}
102
{ACAD_XDICTIONARY
360
328
102
}
330
2A
100
AcDbVisualStyle
  2
Basic
 70
     7
 71
     1
 72
     0
 73
     1
 90
        0
 40
-0.6
 41
-30.0
 62
     5
 63
     7
 74
     0
 91
        4
 64
     7
 65
   257
 75
     1
175
     1
 42
1.0
 92
        8
 66
     7
 43
1.0
 76
     1
 77
     6
 78
     2
 67
     7
 79
     5
170
     0
171
     0
290
     0
174
     0
 93
        1
 44
0.0
173
     0
291
     1
 45
0.0
1001
ACAD
1000
AcDbSavedByObjectVersion
1070
     0
  0
VISUALSTYLE
  5
36
102
{ACAD_REACTORS
330
2A
102
}
102
{ACAD_XDICTIONARY
360
330
102
}
330
2A
100
AcDbVisualStyle
  2
Brighten
 70
    12
 71
     2
 72
     2
 73
     0
 90
        0
 40
-0.6
 41
-30.0
 62
     5
 63
     7
 74
     1
 91
        4
 64
     7
 65
   257
 75
     1
175
     1
 42
1.0
 92
        8
 66
     7
 43
1.0
 76
     1
 77
     6
 78
     2
 67
     7
 79
     5
170
     0
171
     0
290
     0
174
     0
 93
        1
 44
50.0
173
     0
291
     1
 45
0.0
1001
ACAD
1000
AcDbSavedByObjectVersion
1070
     0
  0
VISUALSTYLE
  5
3A
102
{ACAD_REACTORS
330
2A
102
}
102
{ACAD_XDICTIONARY
360
338
102
}
330
2A
100
AcDbVisualStyle
  2
ColorChange
 70
    16
 71
     2
 72
     2
 73
     3
 90
        0
 40
-0.6
 41
-30.0
 62
     5
 63
     8
 74
     1
 91
        4
 64
     7
 65
   257
 75
     1
175
     1
 42
1.0
 92
        8
 66
     8
 43
1.0
 76
     1
 77
     6
 78
     2
 67
     7
 79
     5
170
     0
171
     0
290
     0
174
     0
 93
        1
 44
0.0
173
     0
291
     1
 45
0.0
1001
ACAD
1000
AcDbSavedByObjectVersion
1070
     0
  0
VISUALSTYLE
  5
34
102
{ACAD_REACTORS
330
2A
102
}
102
{ACAD_XDICTIONARY
360
32C
102
}
330
2A
100
AcDbVisualStyle
  2
Conceptual
 70
     9
 71
     3
 72
     2
 73
     0
 90
        0
 40
-0.6
 41
-30.0
 62
     5
 63
     7
 74
     2
 91
        2
 64
     7
 65
   257
 75
     1
175
     1
 42
40.0
 92
        8
 66
     7
 43
1.0
 76
     1
 77
     6
 78
     2
 67
     7
 79
     3
170
     0
171
     0
290
     0
174
     0
 93
        1
 44
0.0
173
     0
291
     0
 45
0.0
1001
ACAD
1000
AcDbSavedByObjectVersion
1070
     0
  0
VISUALSTYLE
  5
35
102
{ACAD_REACTORS
330
2A
102
}
102
{ACAD_XDICTIONARY
360
32E
102
}
330
2A
100
AcDbVisualStyle
  2
Dim
 70
    11
 71
     2
 72
     2
 73
     0
 90
        0
 40
-0.6
 41
-30.0
 62
     5
 63
     7
 74
     1
 91
        4
 64
     7
 65
   257
 75
     1
175
     1
 42
1.0
 92
        8
 66
     7
 43
1.0
 76
     1
 77
     6
 78
     2
 67
     7
 79
     5
170
     0
171
     0
290
     0
174
     0
 93
        1
 44
-50.0
173
     0
291
     1
 45
0.0
1001
ACAD
1000
AcDbSavedByObjectVersion
1070
     0
  0
VISUALSTYLE
  5
39
102
{ACAD_REACTORS
330
2A
102
}
102
{ACAD_XDICTIONARY
360
336
102
}
330
2A
100
AcDbVisualStyle
  2
Facepattern
 70
    15
 71
     2
 72
     2
 73
     0
 90
        0
 40
-0.6
 41
-30.0
 62
     5
 63
     7
 74
     1
 91
        4
 64
     7
 65
   257
 75
     1
175
     1
 42
1.0
 92
        8
 66
     7
 43
1.0
 76
     1
 77
     6
 78
     2
 67
     7
 79
     5
170
     0
171
     0
290
     0
174
     0
 93
        1
 44
0.0
173
     0
291
     1
 45
0.0
1001
ACAD
1000
AcDbSavedByObjectVersion
1070
     0
  0
VISUALSTYLE
  5
2B
102
{ACAD_REACTORS
330
2A
102
}
102
{ACAD_XDICTIONARY
360
31A
102
}
330
2A
100
AcDbVisualStyle
  2
Flat
 70
     0
 71
     2
 72
     1
 73
     1
 90
        2
 40
-0.6
 41
30.0
 62
     5
 63
     7
 74
     0
 91
        4
 64
     7
 65
   257
 75
     1
175
     1
 42
1.0
 92
        8
 66
     7
 43
1.0
 76
     1
 77
     6
 78
     2
 67
     7
 79
     5
170
     0
171
     0
290
     0
174
     0
 93
       13
 44
0.0
173
     0
291
     1
 45
0.0
1001
ACAD
1000
AcDbSavedByObjectVersion
1070
     0
  0
VISUALSTYLE
  5
2C
102
{ACAD_REACTORS
330
2A
102
}
102
{ACAD_XDICTIONARY
360
31C
102
}
330
2A
100
AcDbVisualStyle
  2
FlatWithEdges
 70
     1
 71
     2
 72
     1
 73
     1
 90
        2
 40
-0.6
 41
30.0
 62
     5
 63
     7
 74
     1
 91
        4
 64
     7
 65
   257
 75
     1
175
     1
 42
1.0
 92
        0
 66
   257
 43
1.0
 76
     1
 77
     6
 78
     2
 67
     7
 79
     5
170
     0
171
     0
290
     0
174
     0
 93
       13
 44
0.0
173
     0
291
     1
 45
0.0
1001
ACAD
1000
AcDbSavedByObjectVersion
1070
     0
  0
VISUALSTYLE
  5
2D
102
{ACAD_REACTORS
330
2A
102
}
102
{ACAD_XDICTIONARY
360
31E
102
}
330
2A
100
AcDbVisualStyle
  2
Gouraud
 70
     2
 71
     2
 72
     2
 73
     1
 90
        2
 40
-0.6
 41
30.0
 62
     5
 63
     7
 74
     0
 91
        4
 64
     7
 65
   257
 75
     1
175
     1
 42
1.0
 92
        0
 66
     7
 43
1.0
 76
     1
 77
     6
 78
     2
 67
     7
 79
     5
170
     0
171
     0
290
     0
174
     0
 93
       13
 44
0.0
173
     0
291
     1
 45
0.0
1001
ACAD
1000
AcDbSavedByObjectVersion
1070
     0
  0
VISUALSTYLE
  5
2E
102
{ACAD_REACTORS
330
2A
102
}
102
{ACAD_XDICTIONARY
360
320
102
}
330
2A
100
AcDbVisualStyle
  2
GouraudWithEdges
 70
     3
 71
     2
 72
     2
 73
     1
 90
        2
 40
-0.6
 41
30.0
 62
     5
 63
     7
 74
     1
 91
        4
 64
     7
 65
   257
 75
     1
175
     1
 42
1.0
 92
        0
 66
   257
 43
1.0
 76
     1
 77
     6
 78
     2
 67
     7
 79
     5
170
     0
171
     0
290
     0
174
     0
 93
       13
 44
0.0
173
     0
291
     1
 45
0.0
1001
ACAD
1000
AcDbSavedByObjectVersion
1070
     0
  0
VISUALSTYLE
  5
38
102
{ACAD_REACTORS
330
2A
102
}
102
{ACAD_XDICTIONARY
360
334
102
}
330
2A
100
AcDbVisualStyle
  2
Linepattern
 70
    14
 71
     2
 72
     2
 73
     0
 90
        0
 40
-0.6
 41
-30.0
 62
     5
 63
     7
 74
     1
 91
        4
 64
     7
 65
   257
 75
     7
175
     7
 42
1.0
 92
        8
 66
     7
 43
1.0
 76
     1
 77
     6
 78
     2
 67
     7
 79
     5
170
     0
171
     0
290
     0
174
     0
 93
        1
 44
0.0
173
     0
291
     1
 45
0.0
1001
ACAD
1000
AcDbSavedByObjectVersion
1070
     0
  0
VISUALSTYLE
  5
33
102
{ACAD_REACTORS
330
2A
102
}
102
{ACAD_XDICTIONARY
360
32A
102
}
330
2A
100
AcDbVisualStyle
  2
Realistic
 70
     8
 71
     2
 72
     2
 73
     0
 90
        0
 40
-0.6
 41
-30.0
 62
     5
 63
     7
 74
     1
 91
        0
 64
     7
 65
   257
 75
     1
175
     1
 42
1.0
 92
        8
 66
     8
 43
1.0
 76
     1
 77
     6
 78
     2
 67
     7
 79
     5
170
     0
171
     0
290
     0
174
     0
 93
       13
 44
0.0
173
     0
291
     0
 45
0.0
1001
ACAD
1000
AcDbSavedByObjectVersion
1070
     0
  0
VISUALSTYLE
  5
37
102
{ACAD_REACTORS
330
2A
102
}
102
{ACAD_XDICTIONARY
360
332
102
}
330
2A
100
AcDbVisualStyle
  2
Thicken
 70
    13
 71
     2
 72
     2
 73
     0
 90
        0
 40
-0.6
 41
-30.0
 62
     5
 63
     7
 74
     1
 91
        4
 64
     7
 65
   257
 75
     1
175
     1
 42
1.0
 92
       12
 66
     7
 43
1.0
 76
     1
 77
     6
 78
     2
 67
     7
 79
     5
170
     0
171
     0
290
     0
174
     0
 93
        1
 44
0.0
173
     0
291
     1
 45
0.0
1001
ACAD
1000
AcDbSavedByObjectVersion
1070
     0
  0
DICTIONARYVAR
  5
315
102
{ACAD_REACTORS
330
311
102
}
330
311
100
DictionaryVariables
280
     0
  1
1:1
  0
DICTIONARYVAR
  5
316
102
{ACAD_REACTORS
330
311
102
}
330
311
100
DictionaryVariables
280
     0
  1
2
  0
DICTIONARYVAR
  5
317
102
{ACAD_REACTORS
330
311
102
}
330
311
100
DictionaryVariables
280
     0
  1
1
  0
DICTIONARYVAR
  5
314
102
{ACAD_REACTORS
330
311
102
}
330
311
100
DictionaryVariables
280
     0
  1
0
  0
XRECORD
  5
310
102
{ACAD_REACTORS
330
30F
102
}
330
30F
100
AcDbXrecord
280
     1
1000
This DWG file was created in ArchiCAD(TM)®
  0
SPATIAL_FILTER
  5
2E6
102
{ACAD_REACTORS
330
2E5
102
}
330
2E5
100
AcDbFilter
100
AcDbSpatialFilter
 70
     4
 10
281.8390194995371
 20
202.1643830799099
 10
11.50300354496087
 20
202.1643830799099
 10
11.50300354496079
 20
25.02832278153229
 10
281.8390194995371
 20
25.02832278153229
210
0.0
220
0.0
230
1.0
 11
0.0
 21
0.0
 31
0.0
 71
     1
 72
     0
 73
     0
 40
1.0
 40
0.0
 40
0.0
 40
0.0
 40
0.0
 40
1.0
 40
0.0
 40
0.0
 40
0.0
 40
0.0
 40
1.0
 40
0.0
 40
1.0
 40
0.0
 40
0.0
 40
0.0
 40
0.0
 40
1.0
 40
0.0
 40
0.0
 40
0.0
 40
0.0
 40
1.0
 40
0.0
  0
DICTIONARY
  5
33C
330
3D
100
AcDbDictionary
280
     1
281
     1
  3
ACAD_XREC_ROUNDTRIP
360
33D
  0
DICTIONARY
  5
33A
330
3C
100
AcDbDictionary
280
     1
281
     1
  3
ACAD_XREC_ROUNDTRIP
360
33B
  0
DICTIONARY
  5
33E
330
3E
100
AcDbDictionary
280
     1
281
     1
  3
ACAD_XREC_ROUNDTRIP
360
33F
  0
DICTIONARY
  5
322
330
2F
100
AcDbDictionary
280
     1
281
     1
  3
ACAD_XREC_ROUNDTRIP
360
323
  0
DICTIONARY
  5
326
330
31
100
AcDbDictionary
280
     1
281
     1
  3
ACAD_XREC_ROUNDTRIP
360
327
  0
DICTIONARY
  5
324
330
30
100
AcDbDictionary
280
     1
281
     1
  3
ACAD_XREC_ROUNDTRIP
360
325
  0
DICTIONARY
  5
328
330
32
100
AcDbDictionary
280
     1
281
     1
  3
ACAD_XREC_ROUNDTRIP
360
329
  0
DICTIONARY
  5
330
330
36
100
AcDbDictionary
280
     1
281
     1
  3
ACAD_XREC_ROUNDTRIP
360
331
  0
DICTIONARY
  5
338
330
3A
100
AcDbDictionary
280
     1
281
     1
  3
ACAD_XREC_ROUNDTRIP
360
339
  0
DICTIONARY
  5
32C
330
34
100
AcDbDictionary
280
     1
281
     1
  3
ACAD_XREC_ROUNDTRIP
360
32D
  0
DICTIONARY
  5
32E
330
35
100
AcDbDictionary
280
     1
281
     1
  3
ACAD_XREC_ROUNDTRIP
360
32F
  0
DICTIONARY
  5
336
330
39
100
AcDbDictionary
280
     1
281
     1
  3
ACAD_XREC_ROUNDTRIP
360
337
  0
DICTIONARY
  5
31A
330
2B
100
AcDbDictionary
280
     1
281
     1
  3
ACAD_XREC_ROUNDTRIP
360
31B
  0
DICTIONARY
  5
31C
330
2C
100
AcDbDictionary
280
     1
281
     1
  3
ACAD_XREC_ROUNDTRIP
360
31D
  0
DICTIONARY
  5
31E
330
2D
100
AcDbDictionary
280
     1
281
     1
  3
ACAD_XREC_ROUNDTRIP
360
31F
  0
DICTIONARY
  5
320
330
2E
100
AcDbDictionary
280
     1
281
     1
  3
ACAD_XREC_ROUNDTRIP
360
321
  0
DICTIONARY
  5
334
330
38
100
AcDbDictionary
280
     1
281
     1
  3
ACAD_XREC_ROUNDTRIP
360
335
  0
DICTIONARY
  5
32A
330
33
100
AcDbDictionary
280
     1
281
     1
  3
ACAD_XREC_ROUNDTRIP
360
32B
  0
DICTIONARY
  5
332
330
37
100
AcDbDictionary
280
     1
281
     1
  3
ACAD_XREC_ROUNDTRIP
360
333
  0
XRECORD
  5
33D
102
{ACAD_REACTORS
330
33C
102
}
330
33C
100
AcDbXrecord
280
     1
102
MATERIAL
148
0.0
149
0.0
149
0.0
 93
        0
 94
      127
282
     0
 72
     1
 77
     1
171
     1
175
     1
179
     1
273
     0
  0
XRECORD
  5
33B
102
{ACAD_REACTORS
330
33A
102
}
330
33A
100
AcDbXrecord
280
     1
102
MATERIAL
148
0.0
149
0.0
149
0.0
 93
        0
 94
      127
282
     0
 72
     1
 77
     1
171
     1
175
     1
179
     1
273
     0
  0
XRECORD
  5
33F
102
{ACAD_REACTORS
330
33E
102
}
330
33E
100
AcDbXrecord
280
     1
102
MATERIAL
148
0.0
149
0.0
149
0.0
 93
        0
 94
      127
282
     0
 72
     1
 77
     1
171
     1
175
     1
179
     1
273
     0
  0
XRECORD
  5
323
102
{ACAD_REACTORS
330
322
102
}
330
322
100
AcDbXrecord
280
     1
102
RTVSPropertyOp0
 70
     1
102
RTVSPropertyOp1
 70
     1
102
RTVSPropertyOp2
 70
     1
102
RTVSPropertyOp3
 70
     1
102
RTVSPropertyOp4
 70
     1
102
RTVSPropertyOp5
 70
     1
102
RTVSPropertyOp6
 70
     1
102
RTVSPropertyOp7
 70
     1
102
RTVSPropertyOp8
 70
     1
102
RTVSPropertyOp9
 70
     1
102
RTVSPropertyOp10
 70
     1
102
RTVSPropertyOp11
 70
     1
102
RTVSPropertyOp12
 70
     1
102
RTVSPropertyOp13
 70
     1
102
RTVSPropertyOp14
 70
     1
102
RTVSPropertyOp15
 70
     1
102
RTVSPropertyOp16
 70
     1
102
RTVSPropertyOp17
 70
     1
102
RTVSPropertyOp18
 70
     1
102
RTVSPropertyOp19
 70
     1
102
RTVSPropertyOp20
 70
     1
102
RTVSPropertyOp21
 70
     1
102
RTVSPropertyOp22
 70
     1
102
RTVSPropertyOp23
 70
     1
102
RTVSPropertyOp24
 70
     1
102
RTVSPropertyOp25
 70
     1
102
RTVSPropertyOp26
 70
     1
102
RTVSPropertyOp27
 70
     1
102
RTVSPropertyOp28
 70
     1
102
RTVSPropertyOp29
 70
     1
102
RTVSPropertyOp30
 70
     1
102
RTVSPropertyOp31
 70
     1
102
RTVSPropertyOp32
 70
     1
  0
XRECORD
  5
327
102
{ACAD_REACTORS
330
326
102
}
330
326
100
AcDbXrecord
280
     1
102
RTVSPropertyOp0
 70
     1
102
RTVSPropertyOp1
 70
     1
102
RTVSPropertyOp2
 70
     1
102
RTVSPropertyOp3
 70
     1
102
RTVSPropertyOp4
 70
     1
102
RTVSPropertyOp5
 70
     1
102
RTVSPropertyOp6
 70
     1
102
RTVSPropertyOp7
 70
     1
102
RTVSPropertyOp8
 70
     1
102
RTVSPropertyOp9
 70
     1
102
RTVSPropertyOp10
 70
     1
102
RTVSPropertyOp11
 70
     1
102
RTVSPropertyOp12
 70
     1
102
RTVSPropertyOp13
 70
     1
102
RTVSPropertyOp14
 70
     1
102
RTVSPropertyOp15
 70
     1
102
RTVSPropertyOp16
 70
     1
102
RTVSPropertyOp17
 70
     1
102
RTVSPropertyOp18
 70
     1
102
RTVSPropertyOp19
 70
     1
102
RTVSPropertyOp20
 70
     1
102
RTVSPropertyOp21
 70
     1
102
RTVSPropertyOp22
 70
     1
102
RTVSPropertyOp23
 70
     1
102
RTVSPropertyOp24
 70
     1
102
RTVSPropertyOp25
 70
     1
102
RTVSPropertyOp26
 70
     1
102
RTVSPropertyOp27
 70
     1
102
RTVSPropertyOp28
 70
     1
102
RTVSPropertyOp29
 70
     1
102
RTVSPropertyOp30
 70
     1
102
RTVSPropertyOp31
 70
     1
102
RTVSPropertyOp32
 70
     1
  0
XRECORD
  5
325
102
{ACAD_REACTORS
330
324
102
}
330
324
100
AcDbXrecord
280
     1
102
RTVSPropertyOp0
 70
     1
102
RTVSPropertyOp1
 70
     1
102
RTVSPropertyOp2
 70
     1
102
RTVSPropertyOp3
 70
     1
102
RTVSPropertyOp4
 70
     1
102
RTVSPropertyOp5
 70
     1
102
RTVSPropertyOp6
 70
     1
102
RTVSPropertyOp7
 70
     1
102
RTVSPropertyOp8
 70
     1
102
RTVSPropertyOp9
 70
     1
102
RTVSPropertyOp10
 70
     1
102
RTVSPropertyOp11
 70
     1
102
RTVSPropertyOp12
 70
     1
102
RTVSPropertyOp13
 70
     1
102
RTVSPropertyOp14
 70
     1
102
RTVSPropertyOp15
 70
     1
102
RTVSPropertyOp16
 70
     1
102
RTVSPropertyOp17
 70
     1
102
RTVSPropertyOp18
 70
     1
102
RTVSPropertyOp19
 70
     1
102
RTVSPropertyOp20
 70
     1
102
RTVSPropertyOp21
 70
     1
102
RTVSPropertyOp22
 70
     1
102
RTVSPropertyOp23
 70
     1
102
RTVSPropertyOp24
 70
     1
102
RTVSPropertyOp25
 70
     1
102
RTVSPropertyOp26
 70
     1
102
RTVSPropertyOp27
 70
     1
102
RTVSPropertyOp28
 70
     1
102
RTVSPropertyOp29
 70
     1
102
RTVSPropertyOp30
 70
     1
102
RTVSPropertyOp31
 70
     1
102
RTVSPropertyOp32
 70
     1
  0
XRECORD
  5
329
102
{ACAD_REACTORS
330
328
102
}
330
328
100
AcDbXrecord
280
     1
102
RTVSPropertyOp0
 70
     1
102
RTVSPropertyOp1
 70
     1
102
RTVSPropertyOp2
 70
     1
102
RTVSPropertyOp3
 70
     1
102
RTVSPropertyOp4
 70
     1
102
RTVSPropertyOp5
 70
     1
102
RTVSPropertyOp6
 70
     1
102
RTVSPropertyOp7
 70
     1
102
RTVSPropertyOp8
 70
     1
102
RTVSPropertyOp9
 70
     1
102
RTVSPropertyOp10
 70
     1
102
RTVSPropertyOp11
 70
     1
102
RTVSPropertyOp12
 70
     1
102
RTVSPropertyOp13
 70
     1
102
RTVSPropertyOp14
 70
     1
102
RTVSPropertyOp15
 70
     1
102
RTVSPropertyOp16
 70
     1
102
RTVSPropertyOp17
 70
     1
102
RTVSPropertyOp18
 70
     1
102
RTVSPropertyOp19
 70
     1
102
RTVSPropertyOp20
 70
     1
102
RTVSPropertyOp21
 70
     1
102
RTVSPropertyOp22
 70
     1
102
RTVSPropertyOp23
 70
     1
102
RTVSPropertyOp24
 70
     1
102
RTVSPropertyOp25
 70
     1
102
RTVSPropertyOp26
 70
     1
102
RTVSPropertyOp27
 70
     1
102
RTVSPropertyOp28
 70
     1
102
RTVSPropertyOp29
 70
     1
102
RTVSPropertyOp30
 70
     1
102
RTVSPropertyOp31
 70
     1
102
RTVSPropertyOp32
 70
     1
  0
XRECORD
  5
331
102
{ACAD_REACTORS
330
330
102
}
330
330
100
AcDbXrecord
280
     1
102
RTVSPropertyOp0
 70
     1
102
RTVSPropertyOp1
 70
     1
102
RTVSPropertyOp2
 70
     1
102
RTVSPropertyOp3
 70
     1
102
RTVSPropertyOp4
 70
     1
102
RTVSPropertyOp5
 70
     1
102
RTVSPropertyOp6
 70
     1
102
RTVSPropertyOp7
 70
     1
102
RTVSPropertyOp8
 70
     1
102
RTVSPropertyOp9
 70
     1
102
RTVSPropertyOp10
 70
     1
102
RTVSPropertyOp11
 70
     1
102
RTVSPropertyOp12
 70
     1
102
RTVSPropertyOp13
 70
     1
102
RTVSPropertyOp14
 70
     1
102
RTVSPropertyOp15
 70
     1
102
RTVSPropertyOp16
 70
     1
102
RTVSPropertyOp17
 70
     1
102
RTVSPropertyOp18
 70
     1
102
RTVSPropertyOp19
 70
     1
102
RTVSPropertyOp20
 70
     1
102
RTVSPropertyOp21
 70
     1
102
RTVSPropertyOp22
 70
     1
102
RTVSPropertyOp23
 70
     1
102
RTVSPropertyOp24
 70
     1
102
RTVSPropertyOp25
 70
     1
102
RTVSPropertyOp26
 70
     1
102
RTVSPropertyOp27
 70
     1
102
RTVSPropertyOp28
 70
     1
102
RTVSPropertyOp29
 70
     1
102
RTVSPropertyOp30
 70
     1
102
RTVSPropertyOp31
 70
     1
102
RTVSPropertyOp32
 70
     1
  0
XRECORD
  5
339
102
{ACAD_REACTORS
330
338
102
}
330
338
100
AcDbXrecord
280
     1
102
RTVSPropertyOp0
 70
     1
102
RTVSPropertyOp1
 70
     1
102
RTVSPropertyOp2
 70
     1
102
RTVSPropertyOp3
 70
     1
102
RTVSPropertyOp4
 70
     1
102
RTVSPropertyOp5
 70
     1
102
RTVSPropertyOp6
 70
     1
102
RTVSPropertyOp7
 70
     1
102
RTVSPropertyOp8
 70
     1
102
RTVSPropertyOp9
 70
     1
102
RTVSPropertyOp10
 70
     1
102
RTVSPropertyOp11
 70
     1
102
RTVSPropertyOp12
 70
     1
102
RTVSPropertyOp13
 70
     1
102
RTVSPropertyOp14
 70
     1
102
RTVSPropertyOp15
 70
     1
102
RTVSPropertyOp16
 70
     1
102
RTVSPropertyOp17
 70
     1
102
RTVSPropertyOp18
 70
     1
102
RTVSPropertyOp19
 70
     1
102
RTVSPropertyOp20
 70
     1
102
RTVSPropertyOp21
 70
     1
102
RTVSPropertyOp22
 70
     1
102
RTVSPropertyOp23
 70
     1
102
RTVSPropertyOp24
 70
     1
102
RTVSPropertyOp25
 70
     1
102
RTVSPropertyOp26
 70
     1
102
RTVSPropertyOp27
 70
     1
102
RTVSPropertyOp28
 70
     1
102
RTVSPropertyOp29
 70
     1
102
RTVSPropertyOp30
 70
     1
102
RTVSPropertyOp31
 70
     1
102
RTVSPropertyOp32
 70
     1
  0
XRECORD
  5
32D
102
{ACAD_REACTORS
330
32C
102
}
330
32C
100
AcDbXrecord
280
     1
102
RTVSPropertyOp0
 70
     1
102
RTVSPropertyOp1
 70
     1
102
RTVSPropertyOp2
 70
     1
102
RTVSPropertyOp3
 70
     1
102
RTVSPropertyOp4
 70
     1
102
RTVSPropertyOp5
 70
     1
102
RTVSPropertyOp6
 70
     1
102
RTVSPropertyOp7
 70
     1
102
RTVSPropertyOp8
 70
     1
102
RTVSPropertyOp9
 70
     1
102
RTVSPropertyOp10
 70
     1
102
RTVSPropertyOp11
 70
     1
102
RTVSPropertyOp12
 70
     1
102
RTVSPropertyOp13
 70
     1
102
RTVSPropertyOp14
 70
     1
102
RTVSPropertyOp15
 70
     1
102
RTVSPropertyOp16
 70
     1
102
RTVSPropertyOp17
 70
     1
102
RTVSPropertyOp18
 70
     1
102
RTVSPropertyOp19
 70
     1
102
RTVSPropertyOp20
 70
     1
102
RTVSPropertyOp21
 70
     1
102
RTVSPropertyOp22
 70
     1
102
RTVSPropertyOp23
 70
     1
102
RTVSPropertyOp24
 70
     1
102
RTVSPropertyOp25
 70
     1
102
RTVSPropertyOp26
 70
     1
102
RTVSPropertyOp27
 70
     1
102
RTVSPropertyOp28
 70
     1
102
RTVSPropertyOp29
 70
     1
102
RTVSPropertyOp30
 70
     1
102
RTVSPropertyOp31
 70
     1
102
RTVSPropertyOp32
 70
     1
  0
XRECORD
  5
32F
102
{ACAD_REACTORS
330
32E
102
}
330
32E
100
AcDbXrecord
280
     1
102
RTVSPropertyOp0
 70
     1
102
RTVSPropertyOp1
 70
     1
102
RTVSPropertyOp2
 70
     1
102
RTVSPropertyOp3
 70
     1
102
RTVSPropertyOp4
 70
     1
102
RTVSPropertyOp5
 70
     1
102
RTVSPropertyOp6
 70
     1
102
RTVSPropertyOp7
 70
     1
102
RTVSPropertyOp8
 70
     1
102
RTVSPropertyOp9
 70
     1
102
RTVSPropertyOp10
 70
     1
102
RTVSPropertyOp11
 70
     1
102
RTVSPropertyOp12
 70
     1
102
RTVSPropertyOp13
 70
     1
102
RTVSPropertyOp14
 70
     1
102
RTVSPropertyOp15
 70
     1
102
RTVSPropertyOp16
 70
     1
102
RTVSPropertyOp17
 70
     1
102
RTVSPropertyOp18
 70
     1
102
RTVSPropertyOp19
 70
     1
102
RTVSPropertyOp20
 70
     1
102
RTVSPropertyOp21
 70
     1
102
RTVSPropertyOp22
 70
     1
102
RTVSPropertyOp23
 70
     1
102
RTVSPropertyOp24
 70
     1
102
RTVSPropertyOp25
 70
     1
102
RTVSPropertyOp26
 70
     1
102
RTVSPropertyOp27
 70
     1
102
RTVSPropertyOp28
 70
     1
102
RTVSPropertyOp29
 70
     1
102
RTVSPropertyOp30
 70
     1
102
RTVSPropertyOp31
 70
     1
102
RTVSPropertyOp32
 70
     1
  0
XRECORD
  5
337
102
{ACAD_REACTORS
330
336
102
}
330
336
100
AcDbXrecord
280
     1
102
RTVSPropertyOp0
 70
     1
102
RTVSPropertyOp1
 70
     1
102
RTVSPropertyOp2
 70
     1
102
RTVSPropertyOp3
 70
     1
102
RTVSPropertyOp4
 70
     1
102
RTVSPropertyOp5
 70
     1
102
RTVSPropertyOp6
 70
     1
102
RTVSPropertyOp7
 70
     1
102
RTVSPropertyOp8
 70
     1
102
RTVSPropertyOp9
 70
     1
102
RTVSPropertyOp10
 70
     1
102
RTVSPropertyOp11
 70
     1
102
RTVSPropertyOp12
 70
     1
102
RTVSPropertyOp13
 70
     1
102
RTVSPropertyOp14
 70
     1
102
RTVSPropertyOp15
 70
     1
102
RTVSPropertyOp16
 70
     1
102
RTVSPropertyOp17
 70
     1
102
RTVSPropertyOp18
 70
     1
102
RTVSPropertyOp19
 70
     1
102
RTVSPropertyOp20
 70
     1
102
RTVSPropertyOp21
 70
     1
102
RTVSPropertyOp22
 70
     1
102
RTVSPropertyOp23
 70
     1
102
RTVSPropertyOp24
 70
     1
102
RTVSPropertyOp25
 70
     1
102
RTVSPropertyOp26
 70
     1
102
RTVSPropertyOp27
 70
     1
102
RTVSPropertyOp28
 70
     1
102
RTVSPropertyOp29
 70
     1
102
RTVSPropertyOp30
 70
     1
102
RTVSPropertyOp31
 70
     1
102
RTVSPropertyOp32
 70
     1
  0
XRECORD
  5
31B
102
{ACAD_REACTORS
330
31A
102
}
330
31A
100
AcDbXrecord
280
     1
102
RTVSPropertyOp0
 70
     1
102
RTVSPropertyOp1
 70
     1
102
RTVSPropertyOp2
 70
     1
102
RTVSPropertyOp3
 70
     1
102
RTVSPropertyOp4
 70
     1
102
RTVSPropertyOp5
 70
     1
102
RTVSPropertyOp6
 70
     1
102
RTVSPropertyOp7
 70
     1
102
RTVSPropertyOp8
 70
     1
102
RTVSPropertyOp9
 70
     1
102
RTVSPropertyOp10
 70
     1
102
RTVSPropertyOp11
 70
     1
102
RTVSPropertyOp12
 70
     1
102
RTVSPropertyOp13
 70
     1
102
RTVSPropertyOp14
 70
     1
102
RTVSPropertyOp15
 70
     1
102
RTVSPropertyOp16
 70
     1
102
RTVSPropertyOp17
 70
     1
102
RTVSPropertyOp18
 70
     1
102
RTVSPropertyOp19
 70
     1
102
RTVSPropertyOp20
 70
     1
102
RTVSPropertyOp21
 70
     1
102
RTVSPropertyOp22
 70
     1
102
RTVSPropertyOp23
 70
     1
102
RTVSPropertyOp24
 70
     1
102
RTVSPropertyOp25
 70
     1
102
RTVSPropertyOp26
 70
     1
102
RTVSPropertyOp27
 70
     1
102
RTVSPropertyOp28
 70
     1
102
RTVSPropertyOp29
 70
     1
102
RTVSPropertyOp30
 70
     1
102
RTVSPropertyOp31
 70
     1
102
RTVSPropertyOp32
 70
     1
  0
XRECORD
  5
31D
102
{ACAD_REACTORS
330
31C
102
}
330
31C
100
AcDbXrecord
280
     1
102
RTVSPropertyOp0
 70
     1
102
RTVSPropertyOp1
 70
     1
102
RTVSPropertyOp2
 70
     1
102
RTVSPropertyOp3
 70
     1
102
RTVSPropertyOp4
 70
     1
102
RTVSPropertyOp5
 70
     1
102
RTVSPropertyOp6
 70
     1
102
RTVSPropertyOp7
 70
     1
102
RTVSPropertyOp8
 70
     1
102
RTVSPropertyOp9
 70
     1
102
RTVSPropertyOp10
 70
     1
102
RTVSPropertyOp11
 70
     1
102
RTVSPropertyOp12
 70
     1
102
RTVSPropertyOp13
 70
     1
102
RTVSPropertyOp14
 70
     1
102
RTVSPropertyOp15
 70
     1
102
RTVSPropertyOp16
 70
     1
102
RTVSPropertyOp17
 70
     1
102
RTVSPropertyOp18
 70
     1
102
RTVSPropertyOp19
 70
     1
102
RTVSPropertyOp20
 70
     1
102
RTVSPropertyOp21
 70
     1
102
RTVSPropertyOp22
 70
     1
102
RTVSPropertyOp23
 70
     1
102
RTVSPropertyOp24
 70
     1
102
RTVSPropertyOp25
 70
     1
102
RTVSPropertyOp26
 70
     1
102
RTVSPropertyOp27
 70
     1
102
RTVSPropertyOp28
 70
     1
102
RTVSPropertyOp29
 70
     1
102
RTVSPropertyOp30
 70
     1
102
RTVSPropertyOp31
 70
     1
102
RTVSPropertyOp32
 70
     1
  0
XRECORD
  5
31F
102
{ACAD_REACTORS
330
31E
102
}
330
31E
100
AcDbXrecord
280
     1
102
RTVSPropertyOp0
 70
     1
102
RTVSPropertyOp1
 70
     1
102
RTVSPropertyOp2
 70
     1
102
RTVSPropertyOp3
 70
     1
102
RTVSPropertyOp4
 70
     1
102
RTVSPropertyOp5
 70
     1
102
RTVSPropertyOp6
 70
     1
102
RTVSPropertyOp7
 70
     1
102
RTVSPropertyOp8
 70
     1
102
RTVSPropertyOp9
 70
     1
102
RTVSPropertyOp10
 70
     1
102
RTVSPropertyOp11
 70
     1
102
RTVSPropertyOp12
 70
     1
102
RTVSPropertyOp13
 70
     1
102
RTVSPropertyOp14
 70
     1
102
RTVSPropertyOp15
 70
     1
102
RTVSPropertyOp16
 70
     1
102
RTVSPropertyOp17
 70
     1
102
RTVSPropertyOp18
 70
     1
102
RTVSPropertyOp19
 70
     1
102
RTVSPropertyOp20
 70
     1
102
RTVSPropertyOp21
 70
     1
102
RTVSPropertyOp22
 70
     1
102
RTVSPropertyOp23
 70
     1
102
RTVSPropertyOp24
 70
     1
102
RTVSPropertyOp25
 70
     1
102
RTVSPropertyOp26
 70
     1
102
RTVSPropertyOp27
 70
     1
102
RTVSPropertyOp28
 70
     1
102
RTVSPropertyOp29
 70
     1
102
RTVSPropertyOp30
 70
     1
102
RTVSPropertyOp31
 70
     1
102
RTVSPropertyOp32
 70
     1
  0
XRECORD
  5
321
102
{ACAD_REACTORS
330
320
102
}
330
320
100
AcDbXrecord
280
     1
102
RTVSPropertyOp0
 70
     1
102
RTVSPropertyOp1
 70
     1
102
RTVSPropertyOp2
 70
     1
102
RTVSPropertyOp3
 70
     1
102
RTVSPropertyOp4
 70
     1
102
RTVSPropertyOp5
 70
     1
102
RTVSPropertyOp6
 70
     1
102
RTVSPropertyOp7
 70
     1
102
RTVSPropertyOp8
 70
     1
102
RTVSPropertyOp9
 70
     1
102
RTVSPropertyOp10
 70
     1
102
RTVSPropertyOp11
 70
     1
102
RTVSPropertyOp12
 70
     1
102
RTVSPropertyOp13
 70
     1
102
RTVSPropertyOp14
 70
     1
102
RTVSPropertyOp15
 70
     1
102
RTVSPropertyOp16
 70
     1
102
RTVSPropertyOp17
 70
     1
102
RTVSPropertyOp18
 70
     1
102
RTVSPropertyOp19
 70
     1
102
RTVSPropertyOp20
 70
     1
102
RTVSPropertyOp21
 70
     1
102
RTVSPropertyOp22
 70
     1
102
RTVSPropertyOp23
 70
     1
102
RTVSPropertyOp24
 70
     1
102
RTVSPropertyOp25
 70
     1
102
RTVSPropertyOp26
 70
     1
102
RTVSPropertyOp27
 70
     1
102
RTVSPropertyOp28
 70
     1
102
RTVSPropertyOp29
 70
     1
102
RTVSPropertyOp30
 70
     1
102
RTVSPropertyOp31
 70
     1
102
RTVSPropertyOp32
 70
     1
  0
XRECORD
  5
335
102
{ACAD_REACTORS
330
334
102
}
330
334
100
AcDbXrecord
280
     1
102
RTVSPropertyOp0
 70
     1
102
RTVSPropertyOp1
 70
     1
102
RTVSPropertyOp2
 70
     1
102
RTVSPropertyOp3
 70
     1
102
RTVSPropertyOp4
 70
     1
102
RTVSPropertyOp5
 70
     1
102
RTVSPropertyOp6
 70
     1
102
RTVSPropertyOp7
 70
     1
102
RTVSPropertyOp8
 70
     1
102
RTVSPropertyOp9
 70
     1
102
RTVSPropertyOp10
 70
     1
102
RTVSPropertyOp11
 70
     1
102
RTVSPropertyOp12
 70
     1
102
RTVSPropertyOp13
 70
     1
102
RTVSPropertyOp14
 70
     1
102
RTVSPropertyOp15
 70
     1
102
RTVSPropertyOp16
 70
     1
102
RTVSPropertyOp17
 70
     1
102
RTVSPropertyOp18
 70
     1
102
RTVSPropertyOp19
 70
     1
102
RTVSPropertyOp20
 70
     1
102
RTVSPropertyOp21
 70
     1
102
RTVSPropertyOp22
 70
     1
102
RTVSPropertyOp23
 70
     1
102
RTVSPropertyOp24
 70
     1
102
RTVSPropertyOp25
 70
     1
102
RTVSPropertyOp26
 70
     1
102
RTVSPropertyOp27
 70
     1
102
RTVSPropertyOp28
 70
     1
102
RTVSPropertyOp29
 70
     1
102
RTVSPropertyOp30
 70
     1
102
RTVSPropertyOp31
 70
     1
102
RTVSPropertyOp32
 70
     1
  0
XRECORD
  5
32B
102
{ACAD_REACTORS
330
32A
102
}
330
32A
100
AcDbXrecord
280
     1
102
RTVSPropertyOp0
 70
     1
102
RTVSPropertyOp1
 70
     1
102
RTVSPropertyOp2
 70
     1
102
RTVSPropertyOp3
 70
     1
102
RTVSPropertyOp4
 70
     1
102
RTVSPropertyOp5
 70
     1
102
RTVSPropertyOp6
 70
     1
102
RTVSPropertyOp7
 70
     1
102
RTVSPropertyOp8
 70
     1
102
RTVSPropertyOp9
 70
     1
102
RTVSPropertyOp10
 70
     1
102
RTVSPropertyOp11
 70
     1
102
RTVSPropertyOp12
 70
     1
102
RTVSPropertyOp13
 70
     1
102
RTVSPropertyOp14
 70
     1
102
RTVSPropertyOp15
 70
     1
102
RTVSPropertyOp16
 70
     1
102
RTVSPropertyOp17
 70
     1
102
RTVSPropertyOp18
 70
     1
102
RTVSPropertyOp19
 70
     1
102
RTVSPropertyOp20
 70
     1
102
RTVSPropertyOp21
 70
     1
102
RTVSPropertyOp22
 70
     1
102
RTVSPropertyOp23
 70
     1
102
RTVSPropertyOp24
 70
     1
102
RTVSPropertyOp25
 70
     1
102
RTVSPropertyOp26
 70
     1
102
RTVSPropertyOp27
 70
     1
102
RTVSPropertyOp28
 70
     1
102
RTVSPropertyOp29
 70
     1
102
RTVSPropertyOp30
 70
     1
102
RTVSPropertyOp31
 70
     1
102
RTVSPropertyOp32
 70
     1
  0
XRECORD
  5
333
102
{ACAD_REACTORS
330
332
102
}
330
332
100
AcDbXrecord
280
     1
102
RTVSPropertyOp0
 70
     1
102
RTVSPropertyOp1
 70
     1
102
RTVSPropertyOp2
 70
     1
102
RTVSPropertyOp3
 70
     1
102
RTVSPropertyOp4
 70
     1
102
RTVSPropertyOp5
 70
     1
102
RTVSPropertyOp6
 70
     1
102
RTVSPropertyOp7
 70
     1
102
RTVSPropertyOp8
 70
     1
102
RTVSPropertyOp9
 70
     1
102
RTVSPropertyOp10
 70
     1
102
RTVSPropertyOp11
 70
     1
102
RTVSPropertyOp12
 70
     1
102
RTVSPropertyOp13
 70
     1
102
RTVSPropertyOp14
 70
     1
102
RTVSPropertyOp15
 70
     1
102
RTVSPropertyOp16
 70
     1
102
RTVSPropertyOp17
 70
     1
102
RTVSPropertyOp18
 70
     1
102
RTVSPropertyOp19
 70
     1
102
RTVSPropertyOp20
 70
     1
102
RTVSPropertyOp21
 70
     1
102
RTVSPropertyOp22
 70
     1
102
RTVSPropertyOp23
 70
     1
102
RTVSPropertyOp24
 70
     1
102
RTVSPropertyOp25
 70
     1
102
RTVSPropertyOp26
 70
     1
102
RTVSPropertyOp27
 70
     1
102
RTVSPropertyOp28
 70
     1
102
RTVSPropertyOp29
 70
     1
102
RTVSPropertyOp30
 70
     1
102
RTVSPropertyOp31
 70
     1
102
RTVSPropertyOp32
 70
     1
  0
ENDSEC
  0
EOF
